  0
SECTION
  2
HEADER
  9
$ACADVER
  1
AC1009
  9
$INSBASE
 10
3025.8885587696918265
 20
152.5625427975238892
 30
0.0
  9
$EXTMIN
 10
3017.6818946579828662
 20
137.2098963935484903
 30
-0.0015258207003583
  9
$EXTMAX
 10
3025.9927748798299945
 20
189.6423757090458935
 30
0.0000000349246037
  9
$LIMMIN
 10
0.0
 20
0.0
  9
$LIMMAX
 10
11.6929133858000007
 20
8.2677165353999982
  9
$ORTHOMODE
 70
     1
  9
$REGENMODE
 70
     1
  9
$FILLMODE
 70
     1
  9
$QTEXTMODE
 70
     0
  9
$MIRRTEXT
 70
     0
  9
$DRAGMODE
 70
     2
  9
$LTSCALE
 40
0.6431102362
  9
$OSMODE
 70
  4095
  9
$ATTMODE
 70
     1
  9
$TEXTSIZE
 40
0.2
  9
$TRACEWID
 40
0.05
  9
$TEXTSTYLE
  7
STANDARD
  9
$CLAYER
  8
0
  9
$CELTYPE
  6
BYLAYER
  9
$CECOLOR
 62
   256
  9
$DIMSCALE
 40
1.0
  9
$DIMASZ
 40
0.1875
  9
$DIMEXO
 40
0.0625
  9
$DIMDLI
 40
0.4443307087
  9
$DIMRND
 40
0.0
  9
$DIMDLE
 40
0.0
  9
$DIMEXE
 40
0.125
  9
$DIMTP
 40
0.01
  9
$DIMTM
 40
0.01
  9
$DIMTXT
 40
2.0
  9
$DIMCEN
 40
0.1052362205
  9
$DIMTSZ
 40
0.0
  9
$DIMTOL
 70
     1
  9
$DIMLIM
 70
     0
  9
$DIMTIH
 70
     1
  9
$DIMTOH
 70
     1
  9
$DIMSE1
 70
     0
  9
$DIMSE2
 70
     0
  9
$DIMTAD
 70
     0
  9
$DIMZIN
 70
     0
  9
$DIMBLK
  1

  9
$DIMASO
 70
     1
  9
$DIMSHO
 70
     1
  9
$DIMPOST
  1
\X
  9
$DIMAPOST
  1

  9
$DIMALT
 70
     1
  9
$DIMALTD
 70
     2
  9
$DIMALTF
 40
25.3999999999999986
  9
$DIMLFAC
 40
1.0
  9
$DIMTOFL
 70
     0
  9
$DIMTVP
 40
0.0
  9
$DIMTIX
 70
     0
  9
$DIMSOXD
 70
     0
  9
$DIMSAH
 70
     0
  9
$DIMBLK1
  1

  9
$DIMBLK2
  1

  9
$DIMSTYLE
  2
STANDARD
  9
$DIMCLRD
 70
     0
  9
$DIMCLRE
 70
     0
  9
$DIMCLRT
 70
     0
  9
$DIMTFAC
 40
1.0
  9
$DIMGAP
 40
0.09
  9
$LUNITS
 70
     2
  9
$LUPREC
 70
     4
  9
$SKETCHINC
 40
0.1
  9
$FILLETRAD
 40
0.0
  9
$AUNITS
 70
     0
  9
$AUPREC
 70
     0
  9
$MENU
  1
.
  9
$ELEVATION
 40
0.0
  9
$PELEVATION
 40
0.0
  9
$THICKNESS
 40
0.0
  9
$LIMCHECK
 70
     0
  9
$BLIPMODE
 70
     0
  9
$CHAMFERA
 40
0.0
  9
$CHAMFERB
 40
0.0
  9
$SKPOLY
 70
     0
  9
$TDCREATE
 40
2458060.468368056230247
  9
$TDUPDATE
 40
2459664.5328819439746439
  9
$TDINDWG
 40
0.445597338
  9
$TDUSRTIMER
 40
0.445597338
  9
$USRTIMER
 70
     1
  9
$ANGBASE
 50
0.0
  9
$ANGDIR
 70
     0
  9
$PDMODE
 70
     0
  9
$PDSIZE
 40
0.3125
  9
$PLINEWID
 40
0.0
  9
$COORDS
 70
     1
  9
$SPLFRAME
 70
     0
  9
$SPLINETYPE
 70
     6
  9
$SPLINESEGS
 70
     8
  9
$ATTDIA
 70
     1
  9
$ATTREQ
 70
     1
  9
$HANDLING
 70
     1
  9
$HANDSEED
  5
30F17
  9
$SURFTAB1
 70
     6
  9
$SURFTAB2
 70
     6
  9
$SURFTYPE
 70
     6
  9
$SURFU
 70
     6
  9
$SURFV
 70
     6
  9
$UCSNAME
  2

  9
$UCSORG
 10
0.0
 20
0.0
 30
0.0
  9
$UCSXDIR
 10
1.0
 20
0.0
 30
0.0
  9
$UCSYDIR
 10
0.0
 20
1.0
 30
0.0
  9
$PUCSNAME
  2

  9
$PUCSORG
 10
0.0
 20
0.0
 30
0.0
  9
$PUCSXDIR
 10
1.0
 20
0.0
 30
0.0
  9
$PUCSYDIR
 10
0.0
 20
1.0
 30
0.0
  9
$USERI1
 70
     0
  9
$USERI2
 70
     0
  9
$USERI3
 70
     0
  9
$USERI4
 70
     0
  9
$USERI5
 70
     0
  9
$USERR1
 40
0.0
  9
$USERR2
 40
0.0
  9
$USERR3
 40
0.0
  9
$USERR4
 40
0.0
  9
$USERR5
 40
0.0
  9
$WORLDVIEW
 70
     1
  9
$SHADEDGE
 70
     3
  9
$SHADEDIF
 70
    70
  9
$TILEMODE
 70
     1
  9
$MAXACTVP
 70
    64
  9
$PLIMCHECK
 70
     0
  9
$PEXTMIN
 10
1.0000000000000000E+20
 20
1.0000000000000000E+20
 30
1.0000000000000000E+20
  9
$PEXTMAX
 10
-1.0000000000000000E+20
 20
-1.0000000000000000E+20
 30
-1.0000000000000000E+20
  9
$PLIMMIN
 10
0.0
 20
0.0
  9
$PLIMMAX
 10
12.0
 20
9.0
  9
$UNITMODE
 70
     0
  9
$VISRETAIN
 70
     1
  9
$PLINEGEN
 70
     0
  9
$PSLTSCALE
 70
     1
  0
ENDSEC
  0
SECTION
  2
TABLES
  0
TABLE
  2
VPORT
 70
     1
  0
VPORT
  2
*ACTIVE
 70
     0
 10
0.0
 20
0.0
 11
1.0
 21
1.0
 12
-781.7067326139058423
 22
37.430873854547329
 13
0.0
 23
0.0
 14
1.0
 24
1.0
 15
0.0
 25
0.0
 16
0.0
 26
0.0
 36
17.1152628219792007
 17
3803.5440673828129547
 27
125.9952621967499056
 37
0.0
 40
52.8078908619090726
 41
2.2831541218637992
 42
50.0
 43
0.0
 44
0.0
 50
0.0
 51
0.0
 71
     0
 72
   100
 73
     1
 74
     1
 75
     0
 76
     0
 77
     0
 78
     0
  0
ENDTAB
  0
TABLE
  2
LTYPE
 70
     2
  0
LTYPE
  2
CONTINUOUS
 70
     0
  3
Solid line
 72
    65
 73
     0
 40
0.0
  0
LTYPE
  2
PHANTOM2
 70
     0
  3
___ _ _ ___ _ _ ___ _ _ ___ _ _
 72
    65
 73
     6
 40
1.25
 49
0.625
 49
-0.125
 49
0.125
 49
-0.125
 49
0.125
 49
-0.125
  0
ENDTAB
  0
TABLE
  2
LAYER
 70
     2
  0
LAYER
  2
0
 70
     0
 62
   255
  6
CONTINUOUS
  0
LAYER
  2
DEFPOINTS
 70
     0
 62
     7
  6
CONTINUOUS
  0
ENDTAB
  0
TABLE
  2
STYLE
 70
     1
  0
STYLE
  2
STANDARD
 70
     0
 40
0.0
 41
0.8
 50
0.0
 71
     0
 42
0.2
  3
txt
  4

  0
ENDTAB
  0
TABLE
  2
VIEW
 70
     0
  0
ENDTAB
  0
TABLE
  2
UCS
 70
     0
  0
ENDTAB
  0
TABLE
  2
APPID
 70
     9
  0
APPID
  2
ACAD
 70
     0
  0
APPID
  2
ACAD_MLEADERVER
 70
     0
  0
APPID
  2
ACAD_EXEMPT_FROM_CAD_STANDARDS
 70
     0
  0
APPID
  2
ACAD_NAV_VCDISPLAY
 70
     0
  0
APPID
  2
ACAECLAYERSTANDARD
 70
     0
  0
APPID
  2
ACCMTRANSPARENCY
 70
     0
  0
APPID
  2
ACAD_DSTYLE_DIMJAG
 70
     0
  0
APPID
  2
ACAD_DSTYLE_DIMTALN
 70
     0
  0
APPID
  2
ACDBATTR
 70
     0
  0
ENDTAB
  0
TABLE
  2
DIMSTYLE
 70
     1
  0
DIMSTYLE
  2
STANDARD
 70
     0
  3

  4

  5

  6

  7

 40
1.0
 41
0.1875
 42
0.0625
 43
0.38
 44
0.125
 45
0.0
 46
0.0
 47
0.01
 48
0.01
140
0.15625
141
0.09
142
0.0
143
25.3999999999999986
144
1.0
145
0.0
146
1.0
147
0.09
 71
     1
 72
     0
 73
     1
 74
     1
 75
     0
 76
     0
 77
     0
 78
     4
170
     0
171
     2
172
     0
173
     0
174
     0
175
     0
176
     0
177
     0
178
     0
  0
ENDTAB
  0
ENDSEC
  0
SECTION
  2
BLOCKS
  0
BLOCK
  8
0
  2
$MODEL_SPACE
 70
     0
 10
0.0
 20
0.0
 30
0.0
  3
$MODEL_SPACE
  1

  0
ENDBLK
  5
21
  8
0
  0
BLOCK
 67
     1
  8
0
  2
$PAPER_SPACE
 70
     0
 10
0.0
 20
0.0
 30
0.0
  3
$PAPER_SPACE
  1

  0
ENDBLK
  5
1D
 67
     1
  8
0
  0
BLOCK
  8
0
  2
_FILLED
 70
     0
 10
0.0
 20
0.0
 30
0.0
  3
_FILLED
  1

  0
SOLID
  5
30AE1
  8
0
  6
BYBLOCK
 62
     0
 10
0.0
 20
0.0
 30
0.0
 11
-1.0
 21
0.1666666667
 31
0.0
 12
-1.0
 22
-0.1666666667
 32
0.0
 13
-1.0
 23
-0.1666666667
 33
0.0
  0
ENDBLK
  5
30AE2
  8
0
  6
BYBLOCK
 62
     0
  0
ENDSEC
  0
SECTION
  2
ENTITIES
  0
ATTDEF
  5
2F6E5
  8
DEFPOINTS
 10
3025.8897580152201954
 20
152.5670293861942923
 30
0.0
 40
0.001
  1
TS27377-4G
  3

  2
MODELNUMBER
 70
     0
1001
ACDBATTR
1070
     0
1070
     1
  0
ATTDEF
  5
2F6E6
  8
DEFPOINTS
 10
3025.8897580152201954
 20
152.5653627195275988
 30
0.0
 40
0.001
  1
LUDGINTON 
  3

  2
TRADENAME
 70
     0
1001
ACDBATTR
1070
     0
1070
     1
  0
ATTDEF
  5
2F6E7
  8
DEFPOINTS
 10
3025.8897580152201954
 20
152.5636960528609052
 30
0.0
 40
0.001
  1
BATH AND SHOWER TRIM
  3

  2
PRODUCT
 70
     0
1001
ACDBATTR
1070
     0
1070
     1
  0
LINE
  5
30C7C
  8
0
 10
3025.8885587696918265
 20
155.5752223874239064
 30
0.0
 11
3025.8885587696918265
 21
149.5498632076239005
 31
0.0
  0
LINE
  5
30C7D
  8
0
 10
3025.8885587696918265
 20
155.5752223874239064
 30
0.0
 11
3025.5292620763948435
 21
155.5634623515429098
 31
0.0
  0
ARC
  5
30C7E
  8
0
 10
3025.5312248678887954
 20
155.5034944648220971
 30
0.0
 40
0.0599999999018556
 50
91.8746622785605354
 51
142.1932528748370999
  0
LINE
  5
30C7F
  8
0
 10
3025.4838198980919515
 20
155.5402744706240128
 30
0.0
 11
3025.4171232106750722
 21
155.4543105240821887
 31
0.0
  0
ARC
  5
30C80
  8
0
 10
3025.4645281814869122
 20
155.4175305174921107
 30
0.0
 40
0.060000001187637
 50
142.1932528748382936
 51
179.2224941671616989
  0
LINE
  5
30C81
  8
0
 10
3025.4045337045918131
 20
155.4183446947239986
 30
0.0
 11
3025.4045337045731685
 21
149.7067409002929139
 31
0.0
  0
ARC
  5
30C82
  8
0
 10
3025.4645281801358578
 20
149.7075550765966909
 30
0.0
 40
0.059999999824101
 50
180.7775037272485008
 51
217.8067472684305983
  0
LINE
  5
30C83
  8
0
 10
3025.4171232104940827
 20
149.6707750707637956
 30
0.0
 11
3025.4838198981437927
 21
149.5848111243560936
 31
0.0
  0
ARC
  5
30C84
  8
0
 10
3025.5312248679538243
 20
149.6215911303542896
 30
0.0
 40
0.0600000000323483
 50
217.8067472656370001
 51
268.1253376493585279
  0
ARC
  5
30C85
  8
0
 10
3052.6900506515839879
 20
979.3874272344437486
 30
0.0
 40
830.2701809683605916
 50
268.1253376493585279
 51
268.1399444833512007
  0
LINE
  5
30C86
  8
0
 10
3025.7408165450419801
 20
149.5547259106739091
 30
0.0
 11
3025.8885587696918265
 21
149.5498632076239005
 31
0.0
  0
ARC
  5
30C87
  8
0
 10
3021.6691263239790715
 20
155.2857524643563067
 30
0.0
 40
3.7369283882994702
 50
347.5114752034546086
 51
1.634785129557137
  0
ARC
  5
30C88
  8
0
 10
3024.5094133808029255
 20
154.6566727682024975
 30
0.0
 40
0.8278096507303986
 50
318.4328283564155981
 51
347.5114752034546086
  0
ARC
  5
30C89
  8
0
 10
3024.4348863724039802
 20
154.7540503734336994
 30
0.0
 40
0.9484678378969977
 50
300.6323465686538725
 51
317.0186770416866011
  0
ARC
  5
30C8A
  8
0
 10
3024.9452281238181968
 20
153.8895551789119054
 30
0.0
 40
0.0554406238965584
 50
119.2287486208285969
 51
176.436583429150204
  0
ARC
  5
30C8B
  8
0
 10
3029.4751344566661828
 20
153.4188760190359062
 30
0.0
 40
4.6096874329743027
 50
174.096457347279113
 51
174.8662946068241126
  0
LINE
  5
30C8C
  8
0
 10
3024.8839383274921602
 20
153.8313518767238861
 30
0.0
 11
3024.8838581251920914
 21
151.2956044856240112
 31
0.0
  0
ARC
  5
30C8D
  8
0
 10
3028.044576048333056
 20
151.5639340627425895
 30
0.0
 40
3.1720874123546881
 50
184.8524976851398947
 51
186.0050134527278942
  0
ARC
  5
30C8E
  8
0
 10
3024.9497625024450826
 20
151.2383822576165073
 30
0.0
 40
0.0601981370696551
 50
186.0050134527263026
 51
238.3296544430037898
  0
ARC
  5
30C8F
  8
0
 10
3024.3889286902099229
 20
150.3292628059921014
 30
0.0
 40
1.0079932045294431
 50
38.0729855014618508
 51
58.3296544430038111
  0
ARC
  5
30C90
  8
0
 10
3024.2558757257511388
 20
150.3501942421823117
 30
0.0
 40
1.104232647620317
 50
7.360312186465257
 51
32.9538741790255116
  0
ARC
  5
30C91
  8
0
 10
3020.0310421838539696
 20
149.7313266654242909
 30
0.0
 40
5.3740259148272287
 50
0.8080201322599515
 51
8.1336273361999147
  0
LINE
  5
30C92
  8
0
 10
3024.8838622144880901
 20
151.315021802926907
 30
0.0
 11
3024.68608870079197
 21
151.315021802926907
 31
0.0
  0
ARC
  5
30C93
  8
0
 10
3024.68608870079197
 20
151.3773447816558928
 30
0.0
 40
0.0623229787290578
 50
246.6163096654645983
 51
270.0
  0
ARC
  5
30C94
  8
0
 10
3024.68608870079197
 20
153.7502808838239048
 30
0.0
 40
0.0599999999999978
 50
90.0
 51
114.3464193524091996
  0
LINE
  5
30C95
  8
0
 10
3024.68608870079197
 20
153.8102808838239071
 30
0.0
 11
3024.8605877579771004
 21
153.8102808839240083
 31
0.0
  0
LINE
  5
30C96
  8
0
 10
3024.8605877579771004
 20
153.8102808839240083
 30
0.0
 11
3024.8839383274921602
 21
153.8100630821793118
 31
0.0
  0
LINE
  5
30C97
  8
0
 10
3025.4838198980919515
 20
155.5402744706240128
 30
0.0
 11
3025.4838198980919515
 21
149.5848111244239078
 31
0.0
  0
LINE
  5
30C98
  8
0
 10
3024.6613535438918916
 20
153.8049450586840123
 30
0.0
 11
3024.6613535438918916
 21
151.3201405362638923
 31
0.0
  0
LINE
  5
30C99
  8
0
 10
3025.7467658949922225
 20
189.6365780100011875
 30
0.0
 11
3025.8885587696918265
 21
189.6365780100011875
 31
0.0
  0
LINE
  5
30C9A
  8
0
 10
3025.8885587696918265
 20
189.6365780100011875
 30
0.0
 11
3025.8885587696918265
 21
187.4887138401238929
 31
0.0
  0
LINE
  5
30C9B
  8
0
 10
3025.8885587696918265
 20
187.4887138401238929
 30
0.0
 11
3025.7467658949922225
 21
187.4887138401238929
 31
0.0
  0
ARC
  5
30C9C
  8
0
 10
3025.7467658949922225
 20
187.5487138401240088
 30
0.0
 40
0.0599999999999952
 50
218.8306095672616891
 51
270.0
  0
LINE
  5
30C9D
  8
0
 10
3025.7000257090921878
 20
187.5110926357035908
 30
0.0
 11
3025.6302315060088404
 21
187.5978042143763957
 31
0.0
  0
ARC
  5
30C9E
  8
0
 10
3025.6769716921658073
 20
187.6354254190040933
 30
0.0
 40
0.060000000330701
 50
183.2293798202128983
 51
218.8306095672629965
  0
LINE
  5
30C9F
  8
0
 10
3025.6170669712919334
 20
187.6320454106239879
 30
0.0
 11
3025.617066971361055
 21
189.4930401844239896
 31
0.0
  0
ARC
  5
30CA0
  8
0
 10
3025.6769716938670172
 20
189.4896601749817933
 30
0.0
 40
0.0600000020860963
 50
141.1693906609908993
 51
176.7706192981451068
  0
LINE
  5
30CA1
  8
0
 10
3025.6302315061921036
 20
189.5272813805239878
 30
0.0
 11
3025.7000257088229773
 21
189.6139929593416014
 31
0.0
  0
ARC
  5
30CA2
  8
0
 10
3025.7474462222630791
 20
189.575512688417291
 30
0.0
 40
0.0610691112210411
 50
90.6383044855195408
 51
140.9417453844714032
  0
ARC
  5
30CA3
  8
0
 10
3026.3747162639178896
 20
177.3396533624932943
 30
0.0
 40
11.8676881178881093
 50
133.0271226198437944
 51
135.9728773794325889
  0
ARC
  5
30CA4
  8
0
 10
3019.2960839742409007
 20
184.9781335010017926
 30
0.0
 40
1.454138748126647
 50
80.8726214011383888
 51
134.4999999950308904
  0
ARC
  5
30CA5
  8
0
 10
3019.5579809067471615
 20
186.6082178990237992
 30
0.0
 40
0.1968503941557248
 50
260.8724090492507912
 51
314.999999947499191
  0
LINE
  5
30CA6
  8
0
 10
3019.6971751552068781
 20
186.4690236503093956
 30
0.0
 11
3019.7066751351990206
 21
186.4785236303308977
 31
0.0
  0
LINE
  5
30CA7
  8
0
 10
3019.7066782758920453
 20
186.4785267710240078
 30
0.0
 11
3020.6810380137922039
 21
185.5041670331239061
 31
0.0
  0
LINE
  5
30CA8
  8
0
 10
3020.6810380137922039
 20
185.5041670331239061
 30
0.0
 11
3020.6715348933398673
 21
185.4946639127010997
 31
0.0
  0
ARC
  5
30CA9
  8
0
 10
3020.8107291415881264
 20
185.3554696640275097
 30
0.0
 40
0.1968503939778426
 50
134.9999999124987085
 51
189.1275909327569877
  0
ARC
  5
30CAA
  8
0
 10
3019.1806561252737993
 20
185.0935691022179981
 30
0.0
 40
1.454128086436884
 50
315.5000480848984807
 51
9.1275909327570321
  0
LINE
  5
30CAB
  8
0
 10
3020.217814491415993
 20
184.0743581253800016
 30
0.0
 11
3019.7901941252989673
 21
183.6392077489333019
 31
0.0
  0
ARC
  5
30CAC
  8
0
 10
3019.7760804560239194
 20
183.653077189820209
 30
0.0
 40
0.0197878005586551
 50
230.8675314769201066
 51
315.5000480849008113
  0
ARC
  5
30CAD
  8
0
 10
3025.1409941276338031
 20
189.4908998111725111
 30
0.0
 40
0.476077655079591
 50
321.6520336939702815
 51
0.2575940360722492
  0
ARC
  5
30CAE
  8
0
 10
3025.2036217040022166
 20
189.4720719016657995
 30
0.0
 40
0.4159781752151415
 50
288.7454166212319251
 51
318.3320162934052746
  0
ARC
  5
30CAF
  8
0
 10
3025.0576042814232096
 20
189.9018033563858978
 30
0.0
 40
0.8698396042130601
 50
272.2056033367368855
 51
288.7567431550194783
  0
ARC
  5
30CB0
  8
0
 10
3025.0944559205208861
 20
188.9727256674406135
 30
0.0
 40
0.059977554050883
 50
93.2261783236555743
 51
159.9783324744765025
  0
ARC
  5
30CB1
  8
0
 10
3025.0472609488101625
 20
188.9898726484771885
 30
0.0
 40
0.0097643055941144
 50
159.6982655490195953
 51
180.11904502599441
  0
LINE
  5
30CB2
  8
0
 10
3025.0374966642921208
 20
188.9898523609240044
 30
0.0
 11
3025.0374966642921208
 21
188.1352332340240139
 31
0.0
  0
ARC
  5
30CB3
  8
0
 10
3025.0474966642918844
 20
188.1352332340240139
 30
0.0
 40
0.0100000000001757
 50
180.0000000002034994
 51
200.0582005177467977
  0
ARC
  5
30CB4
  8
0
 10
3025.0944639000240386
 20
188.1523819588987863
 30
0.0
 40
0.0599999999710647
 50
200.0582005177498104
 51
266.7673978310502889
  0
ARC
  5
30CB5
  8
0
 10
3025.0289138309080954
 20
186.9917824743293124
 30
0.0
 40
1.102449128010049
 50
78.1014193125462555
 51
86.7673978310503173
  0
ARC
  5
30CB6
  8
0
 10
3025.1594551131629487
 20
187.5763262863445107
 30
0.0
 40
0.5036014660600832
 50
51.2130289491093222
 51
78.922343893752867
  0
ARC
  5
30CB7
  8
0
 10
3025.22728541275319
 20
187.6829134302687123
 30
0.0
 40
0.3782835102030359
 50
16.8369975769396909
 51
49.1077366986013715
  0
ARC
  5
30CB8
  8
0
 10
3024.9746453403918167
 20
187.6036859468759133
 30
0.0
 40
0.643047285222812
 50
2.5276597859288898
 51
17.0734742058606805
  0
LINE
  5
30CB9
  8
0
 10
3023.4385583675921225
 20
188.9641176015229007
 30
0.0
 11
3025.0374966642921208
 21
188.9641176015229007
 31
0.0
  0
LINE
  5
30CBA
  8
0
 10
3023.3705855258940574
 20
188.160967994324011
 30
0.0
 11
3025.0381032171922016
 21
188.160967994324011
 31
0.0
  0
LINE
  5
30CBB
  8
0
 10
3020.7161769489512153
 20
185.4968683894825858
 30
0.0
 11
3019.7162580836829875
 21
186.4967858129325862
 31
0.0
  0
ARC
  5
30CBC
  8
0
 10
3019.7301775086079942
 20
186.5107052377568948
 30
0.0
 40
0.0196850394381216
 50
130.1611015233669093
 51
224.9999997926200876
  0
LINE
  5
30CBD
  8
0
 10
3019.7174818590970062
 20
186.5257492153284034
 30
0.0
 11
3020.2579826967398731
 21
186.9818791957478936
 31
0.0
  0
ARC
  5
30CBE
  8
0
 10
3020.2706783459220787
 20
186.9668352185663025
 30
0.0
 40
0.0196850389278418
 50
44.9999861852344125
 51
130.1611015233690125
  0
LINE
  5
30CBF
  8
0
 10
3020.2845977737920293
 20
186.980754639723898
 30
0.0
 11
3021.1998606555621336
 21
186.0654913165903963
 31
0.0
  0
ARC
  5
30CC0
  8
0
 10
3021.1857572006251758
 20
186.0513878684548104
 30
0.0
 40
0.0199452924387047
 50
320.5271158728431828
 51
44.9999861852367076
  0
LINE
  5
30CC1
  8
0
 10
3021.2011534810249032
 20
186.0387083873802965
 30
0.0
 11
3020.7450235093378978
 21
185.4982075542409063
 31
0.0
  0
ARC
  5
30CC2
  8
0
 10
3020.7299790263650721
 20
185.5109047635303909
 30
0.0
 40
0.0196864316639835
 50
225.4688887321846096
 51
319.8363778120813095
  0
LINE
  5
30CC3
  8
0
 10
3020.639279739291851
 20
185.5459253076238895
 30
0.0
 11
3020.6531991640499655
 21
185.5598447323527012
 31
0.0
  0
LINE
  5
30CC4
  8
0
 10
3019.7484365503919435
 20
186.4367684965239107
 30
0.0
 11
3019.762356008477127
 21
186.450687954609009
 31
0.0
  0
ARC
  5
30CC5
  8
0
 10
3020.4497796357291008
 20
186.8746490636542887
 30
0.0
 40
0.0853574104035126
 50
285.6836223498020217
 51
5.0000001798287981
  0
LINE
  5
30CC6
  8
0
 10
3020.5348122353921099
 20
186.882088452424
 30
0.0
 11
3020.5246517790919825
 21
186.9982229991240104
 31
0.0
  0
ARC
  5
30CC7
  8
0
 10
3020.5638720711640417
 20
187.001654330067197
 30
0.0
 40
0.0393701072168129
 50
135.0000191563227077
 51
185.0000000098035002
  0
LINE
  5
30CC8
  8
0
 10
3020.5360331920678618
 20
187.029493190548493
 30
0.0
 11
3021.0018797815159814
 21
187.4953400915001964
 31
0.0
  0
ARC
  5
30CC9
  8
0
 10
3021.0074475514152255
 20
187.4897723253243953
 30
0.0
 40
0.0078740130705862
 50
44.9983777980541575
 51
135.0000191563204055
  0
LINE
  5
30CCA
  8
0
 10
3021.013015477089084
 20
187.4953399357206081
 30
0.0
 11
3021.6978305983548125
 21
186.8104860353365098
 31
0.0
  0
ARC
  5
30CCB
  8
0
 10
3021.6922612836710869
 20
186.8049170360087032
 30
0.0
 40
0.0078759773720731
 50
315.2137519462173145
 51
44.9983777980806394
  0
LINE
  5
30CCC
  8
0
 10
3021.6978511785919181
 20
186.7993686944240039
 30
0.0
 11
3021.2320044318421424
 21
186.3335219476740008
 31
0.0
  0
ARC
  5
30CCD
  8
0
 10
3021.2041655831358185
 20
186.3613608013874057
 30
0.0
 40
0.0393700812086052
 50
264.9999816315769863
 51
315.0066668898303988
  0
LINE
  5
30CCE
  8
0
 10
3021.2007342418919507
 20
186.3221405363240137
 30
0.0
 11
3021.0845996987141007
 21
186.3323010298122142
 31
0.0
  0
ARC
  5
30CCF
  8
0
 10
3021.0771602865252135
 20
186.2472684733612027
 30
0.0
 40
0.0853573693967349
 50
84.9999816315770289
 51
164.3006823454711025
  0
ARC
  5
30CD0
  8
0
 10
3021.3218990873078837
 20
187.1736564264022036
 30
0.0
 40
0.0105632660762649
 50
336.7953098680430912
 51
13.9622042493648006
  0
ARC
  5
30CD1
  8
0
 10
3021.3223634287501227
 20
187.1748828266867974
 30
0.0
 40
0.0107002219506797
 50
314.9001082294271896
 51
329.7623043386664108
  0
LINE
  5
30CD2
  8
0
 10
3021.3299164254917741
 20
187.1673034474239046
 30
0.0
 11
3020.9248611768111914
 21
186.7622481711429998
 31
0.0
  0
ARC
  5
30CD3
  8
0
 10
3020.9289788206428966
 20
186.7581305275915895
 30
0.0
 40
0.0058232275537994
 50
135.0000019520356034
 51
186.0649391721678114
  0
ARC
  5
30CD4
  8
0
 10
3020.9390915612270874
 20
186.7592050092642921
 30
0.0
 40
0.0159928899369162
 50
186.0649391721792085
 51
207.1034525006622005
  0
ARC
  5
30CD5
  8
0
 10
3020.9510545093207838
 20
186.7653276687395021
 30
0.0
 40
0.0294316058777768
 50
207.1034525006622005
 51
220.0226714740149987
  0
ARC
  5
30CD6
  8
0
 10
3021.0476773671148294
 20
186.8464690469184859
 30
0.0
 40
0.1556056915734081
 50
220.0226714740149987
 51
232.0062377613456874
  0
ARC
  5
30CD7
  8
0
 10
3020.9626079795420992
 20
186.7389064413694086
 30
0.0
 40
0.0184899117073169
 50
234.5740147563118114
 51
258.8577270904251009
  0
ARC
  5
30CD8
  8
0
 10
3020.9601214496351531
 20
186.7279713609233909
 30
0.0
 40
0.0072877593802649
 50
261.4255040853689138
 51
309.5243823900669895
  0
LINE
  5
30CD9
  8
0
 10
3020.9647594272919378
 20
186.722349919824012
 30
0.0
 11
3021.3698146908400304
 21
187.1274051832716054
 31
0.0
  0
ARC
  5
30CDA
  8
0
 10
3021.3770331527371127
 20
187.1202702333411878
 30
0.0
 40
0.0101495666243825
 50
105.2124699477281951
 51
135.333358316881089
  0
ARC
  5
30CDB
  8
0
 10
3021.3759558151900819
 20
187.1242320861238113
 30
0.0
 40
0.0060438469967407
 50
79.0473061926163467
 51
105.2124699477299004
  0
ARC
  5
30CDC
  8
0
 10
3021.3761590582998906
 20
187.1252823100167859
 30
0.0
 40
0.00497413769645
 50
56.4978846995419914
 51
79.0473061926163467
  0
ARC
  5
30CDD
  8
0
 10
3021.0497821351282255
 20
187.4563292293036056
 30
0.0
 40
0.0019272752004756
 50
79.5805415060855807
 51
102.1976893225202048
  0
ARC
  5
30CDE
  8
0
 10
3021.0511119514048914
 20
187.4520611627461051
 30
0.0
 40
0.0063923614552729
 50
105.7674704507698067
 51
122.4281891588922946
  0
ARC
  5
30CDF
  8
0
 10
3021.0608734881298005
 20
187.4367503839361859
 30
0.0
 40
0.0245502062289503
 50
122.4960543063577063
 51
135.6667188381962035
  0
LINE
  5
30CE0
  8
0
 10
3021.0433130465498834
 20
187.4539068263815977
 30
0.0
 11
3020.63825779039189
 21
187.0488515577239923
 31
0.0
  0
ARC
  5
30CE1
  8
0
 10
3020.6434305024667992
 20
187.0436789146959029
 30
0.0
 40
0.007315270747457
 50
135.0003824048613126
 51
169.9184280573819876
  0
ARC
  5
30CE2
  8
0
 10
3020.6443183614851478
 20
187.043521057523094
 30
0.0
 40
0.0082170537167617
 50
169.9184280573788044
 51
198.9779921194900112
  0
ARC
  5
30CE3
  8
0
 10
3020.6561938426189045
 20
187.0476050119648903
 30
0.0
 40
0.02077514815933
 50
198.9779921194869132
 51
221.276611123072712
  0
ARC
  5
30CE4
  8
0
 10
3020.7546969504710432
 20
187.1340708877202985
 30
0.0
 40
0.1518446332678676
 50
221.2766111230739057
 51
224.4323914256908949
  0
ARC
  5
30CE5
  8
0
 10
3020.6537668651949389
 20
187.0351210058003062
 30
0.0
 40
0.0105012172706154
 50
224.4323914256908949
 51
251.5269367663073865
  0
ARC
  5
30CE6
  8
0
 10
3020.6468594763168767
 20
187.0395679424134983
 30
0.0
 40
0.0148451869375049
 50
283.9547105617095895
 51
316.8620892035904717
  0
LINE
  5
30CE7
  8
0
 10
3020.657692157918973
 20
187.0294174456510916
 30
0.0
 11
3021.0627472925921211
 21
187.4344725804239999
 31
0.0
  0
ARC
  5
30CE8
  8
0
 10
3021.0695436247051475
 20
187.4275245608982914
 30
0.0
 40
0.0097193159570666
 50
79.8213340535472184
 51
134.3676896453027041
  0
ARC
  5
30CE9
  8
0
 10
3021.6554653939028867
 20
186.8478461027580124
 30
0.0
 40
0.0052383951666163
 50
327.0578135657239045
 51
357.5244036775445124
  0
ARC
  5
30CEA
  8
0
 10
3021.6395372612541905
 20
186.8581671178451984
 30
0.0
 40
0.0242180885820907
 50
314.1894468628258892
 51
327.0578135657265761
  0
LINE
  5
30CEB
  8
0
 10
3021.6564180692921582
 20
186.840801803723906
 30
0.0
 11
3021.2513628088991027
 21
186.4357465394290045
 31
0.0
  0
ARC
  5
30CEC
  8
0
 10
3021.2461737789290055
 20
186.4409586550430049
 30
0.0
 40
0.007354738690537
 50
290.4475153183482803
 51
314.8728305668557823
  0
ARC
  5
30CED
  8
0
 10
3021.2460329088808066
 20
186.4413364838351868
 30
0.0
 40
0.0077579743120483
 50
252.1483815387659035
 51
290.4475153183731777
  0
ARC
  5
30CEE
  8
0
 10
3021.2496019163359051
 20
186.4524183293279975
 30
0.0
 40
0.0194003586787709
 50
238.0697906977165133
 51
252.1483815387653067
  0
ARC
  5
30CEF
  8
0
 10
3021.2574637454831645
 20
186.4650340545368863
 30
0.0
 40
0.0342652461685652
 50
224.778537321876712
 51
238.0697906977173091
  0
ARC
  5
30CF0
  8
0
 10
3021.2603500314648954
 20
186.4678981138688982
 30
0.0
 40
0.0383313847084019
 50
211.5502129197215879
 51
224.778537321877792
  0
ARC
  5
30CF1
  8
0
 10
3021.2415132384671779
 20
186.4447538980519141
 30
0.0
 40
0.0141628295454727
 50
132.5896383329395007
 51
167.4397477482652903
  0
LINE
  5
30CF2
  8
0
 10
3021.2319286449919673
 20
186.4551808491239058
 30
0.0
 11
3021.6369838344421623
 21
186.8602360385739871
 31
0.0
  0
ARC
  5
30CF3
  8
0
 10
3021.6299276535469289
 20
186.8667977922445971
 30
0.0
 40
0.0096356784948338
 50
317.0793282063183938
 51
13.5895857503589799
  0
LINE
  5
30CF4
  8
0
 10
3020.5246261511001649
 20
186.9985297340016928
 30
0.0
 11
3021.2007342418919507
 21
186.3221405363239001
 31
0.0
  0
LINE
  5
30CF5
  8
0
 10
3021.0845996952921269
 20
186.3323009926239138
 30
0.0
 11
3020.5348122353921099
 21
186.882088452424
 31
0.0
  0
ARC
  5
30CF6
  8
0
 10
3021.312994297772093
 20
187.4991517624956998
 30
0.0
 40
0.2417386774613913
 50
194.9659916762967953
 51
197.6996239160897062
  0
LINE
  5
30CF7
  8
0
 10
3021.0794557172512214
 20
187.4367239553168929
 30
0.0
 11
3021.0992526393920343
 21
187.4576810220239054
 31
0.0
  0
LINE
  5
30CF8
  8
0
 10
3021.0992526393920343
 20
187.4576810220239054
 30
0.0
 11
3021.1263223728919911
 21
187.4492638895239054
 31
0.0
  0
ARC
  5
30CF9
  8
0
 10
3021.1290623086078995
 20
187.4580755994053902
 30
0.0
 40
0.0092278642577226
 50
252.7273065613929077
 51
17.189636385418499
  0
LINE
  5
30CFA
  8
0
 10
3021.1378779810920605
 20
187.4608027586239984
 30
0.0
 11
3021.1288025865669624
 21
187.4901394050718011
 31
0.0
  0
LINE
  5
30CFB
  8
0
 10
3021.1288025865669624
 20
187.4901394050718011
 30
0.0
 11
3021.1783030778601642
 21
187.5435985802926098
 31
0.0
  0
LINE
  5
30CFC
  8
0
 10
3021.1783030778601642
 20
187.5435985802926098
 30
0.0
 11
3022.0048575444920971
 21
188.3702587134239081
 31
0.0
  0
ARC
  5
30CFD
  8
0
 10
3023.4912825995538697
 20
186.8092723765510925
 30
0.0
 40
2.155490150341568
 50
91.401619621577467
 51
133.5984187727943038
  0
ARC
  5
30CFE
  8
0
 10
3023.404572199292943
 20
187.0186093663619999
 30
0.0
 40
1.1428640902783791
 50
91.7041222081151091
 51
136.7041131423779063
  0
LINE
  5
30CFF
  8
0
 10
3022.5727705836920904
 20
187.8023468231239974
 30
0.0
 11
3021.7461627105690241
 21
186.975738950146706
 31
0.0
  0
LINE
  5
30D00
  8
0
 10
3021.7461627105690241
 20
186.975738950146706
 30
0.0
 11
3021.718437956480102
 21
186.9511090334659116
 31
0.0
  0
LINE
  5
30D01
  8
0
 10
3021.718437956480102
 20
186.9511090334659116
 30
0.0
 11
3021.6881957911919017
 21
186.9606226184239119
 31
0.0
  0
ARC
  5
30D02
  8
0
 10
3021.6860124954191633
 20
186.9515349936158088
 30
0.0
 40
0.0093462134089326
 50
76.4907599535315654
 51
195.640341182071495
  0
LINE
  5
30D03
  8
0
 10
3021.6770123443920966
 20
186.9490152740739859
 30
0.0
 11
3021.6858399885918516
 21
186.920048817923913
 31
0.0
  0
LINE
  5
30D04
  8
0
 10
3021.6858399885918516
 20
186.920048817923913
 30
0.0
 11
3021.6659550231920548
 21
186.9016573957239871
 31
0.0
  0
LINE
  5
30D05
  8
0
 10
3021.6659550231920548
 20
186.9016573957239871
 30
0.0
 11
3021.6378387896920685
 21
186.9102233747238984
 31
0.0
  0
ARC
  5
30D06
  8
0
 10
3021.6356504038308231
 20
186.9009034583353071
 30
0.0
 40
0.009573394077878
 50
76.7859038361166881
 51
199.4999078238768107
  0
LINE
  5
30D07
  8
0
 10
3021.6266261202208625
 20
186.8977078082440073
 30
0.0
 11
3021.6343911295070939
 21
186.8739290965804116
 31
0.0
  0
ARC
  5
30D08
  8
0
 10
3018.1643010478260294
 20
183.9455453634894866
 30
0.0
 40
4.5482488139025019
 50
45.1171490647668705
 51
50.1379087044334781
  0
ARC
  5
30D09
  8
0
 10
3024.5666171887019118
 20
190.3740960045520012
 30
0.0
 40
4.524563060727778
 50
225.1171490647668065
 51
230.1266883020863929
  0
ARC
  5
30D0A
  8
0
 10
3025.4085469732749516
 20
191.2877176442578957
 30
0.0
 40
5.738909153344391
 50
225.3803076530369935
 51
229.5579595736294891
  0
ARC
  5
30D0B
  8
0
 10
3017.828663293633781
 20
183.60653530900899
 30
0.0
 40
5.0525318377479369
 50
45.380307653036958
 51
49.6603867568409783
  0
ARC
  5
30D0C
  8
0
 10
3019.833291225458197
 20
185.8693225453395996
 30
0.0
 40
2.074945054586709
 50
45.4467913554440202
 51
51.3648185693321722
  0
ARC
  5
30D0D
  8
0
 10
3115.2979707650038108
 20
287.0086133051942738
 30
0.0
 40
137.0034179832267114
 50
226.6715492044681923
 51
226.8522084715725953
  0
ARC
  5
30D0E
  8
0
 10
3027.273318070167079
 20
193.3827465013679898
 30
0.0
 40
8.4983912357542621
 50
228.1534584014057998
 51
229.1834664188230022
  0
ARC
  5
30D0F
  8
0
 10
3018.4203178844018112
 20
184.2090271317871952
 30
0.0
 40
4.2379014566368829
 50
46.0970034120602108
 51
50.1155192769277775
  0
ARC
  5
30D10
  8
0
 10
3029.7936876310968728
 20
196.0264698936933883
 30
0.0
 40
12.1634854611200698
 50
226.0970034120601895
 51
227.9289955809520904
  0
ARC
  5
30D11
  8
0
 10
3022.0535567976680795
 20
187.4515777316840115
 30
0.0
 40
0.6119314137772872
 50
227.9289955809520904
 51
233.3583678916141082
  0
ARC
  5
30D12
  8
0
 10
3023.2661439033568058
 20
188.9010518472921092
 30
0.0
 40
2.5178131158191159
 50
226.0594666565824014
 51
230.8645766286178116
  0
ARC
  5
30D13
  8
0
 10
3011.2545249730110299
 20
176.4367934367562043
 30
0.0
 40
14.7922049966053706
 50
46.0594666565824227
 51
47.8108300033769282
  0
ARC
  5
30D14
  8
0
 10
3020.4299568296910365
 20
186.5597294683884115
 30
0.0
 40
1.129760718325252
 50
47.8108300033769282
 51
51.9343228893252018
  0
ARC
  5
30D15
  8
0
 10
3019.648534574219866
 20
183.6347823384498099
 30
0.0
 40
0.0984318116261949
 50
270.2236149823486926
 51
314.7992505505129088
  0
LINE
  5
30D16
  8
0
 10
3019.7178920824458146
 20
183.5649370981483059
 30
0.0
 11
3019.7717376312639317
 21
183.6184080400292089
 31
0.0
  0
ARC
  5
30D17
  8
0
 10
3019.7661893303848046
 20
183.6239952112165952
 30
0.0
 40
0.0078740157811062
 50
314.7999998958812853
 51
44.9999999999953886
  0
LINE
  5
30D18
  8
0
 10
3019.7717571003390731
 20
183.6295629811706078
 30
0.0
 11
3017.8320742239889114
 21
185.569245857520599
 31
0.0
  0
ARC
  5
30D19
  8
0
 10
3017.8265064478141539
 20
185.5636816438241965
 30
0.0
 40
0.0078715059292199
 50
44.9816641067397285
 51
135.2183068718817083
  0
LINE
  5
30D1A
  8
0
 10
3017.8209192856379559
 20
185.5692263912856959
 30
0.0
 11
3017.7674483163477817
 21
185.5153808696107092
 31
0.0
  0
ARC
  5
30D1B
  8
0
 10
3017.8372878633040273
 20
185.4460271303512116
 30
0.0
 40
0.0984251160443805
 50
135.1999709786693984
 51
209.1097485930596065
  0
ARC
  5
30D1C
  8
0
 10
3021.4803947051791511
 20
187.4745663483197973
 30
0.0
 40
4.2682211326557837
 50
209.1097485930596065
 51
212.9592968252387948
  0
ARC
  5
30D1D
  8
0
 10
3021.5819927411839672
 20
187.119933160708797
 30
0.0
 40
4.0839691182605291
 50
236.95441132058059
 51
240.9777155544715868
  0
ARC
  5
30D1E
  8
0
 10
3019.6516609778359452
 20
183.6468910285861966
 30
0.0
 40
0.1105737613254057
 50
242.5306211148773059
 51
268.5789117707383866
  0
LINE
  5
30D1F
  8
0
 10
3018.5652854410182044
 20
184.2736898801616121
 30
0.0
 11
3018.4762011222469482
 21
184.3627741991901132
 31
0.0
  0
ARC
  5
30D20
  8
0
 10
3018.5040399718868684
 20
184.3906130487499979
 30
0.0
 40
0.0393700786651827
 50
134.9999999407999098
 51
224.9999999173118965
  0
LINE
  5
30D21
  8
0
 10
3018.4762011223160698
 20
184.4184518983786916
 30
0.0
 11
3018.4988695801512222
 21
184.4411203561666923
 31
0.0
  0
LINE
  5
30D22
  8
0
 10
3018.4988695801512222
 20
184.4411203561666923
 30
0.0
 11
3018.5282585165841738
 21
184.4231176251649913
 31
0.0
  0
LINE
  5
30D23
  8
0
 10
3018.6042598306289619
 20
184.33493534932731
 30
0.0
 11
3018.5374465915529072
 21
184.4017485885516976
 31
0.0
  0
ARC
  5
30D24
  8
0
 10
3018.5597176713208682
 20
184.424019668269608
 30
0.0
 40
0.0314960630207644
 50
134.999999898449488
 51
224.9999999362055121
  0
LINE
  5
30D25
  8
0
 10
3018.5374465916170266
 20
184.4462907480516947
 30
0.0
 11
3018.5647720878150722
 21
184.4736162441533054
 31
0.0
  0
ARC
  5
30D26
  8
0
 10
3018.4916390386429157
 20
184.2891274472166003
 30
0.0
 40
0.198455433476913
 50
21.6240221278144205
 51
68.3761718394368501
  0
LINE
  5
30D27
  8
0
 10
3018.6761275879957793
 20
184.3622611209515867
 30
0.0
 11
3018.64880199575191
 21
184.3349353435959017
 31
0.0
  0
ARC
  5
30D28
  8
0
 10
3018.626530916055799
 20
184.3572062724219052
 30
0.0
 40
0.0314959562737794
 50
224.9997912049765034
 51
315.0001940688043192
  0
ARC
  5
30D29
  8
0
 10
3018.5455440253399502
 20
184.2564781489321888
 30
0.0
 40
0.1058848496913809
 50
22.1255470794071805
 51
40.8408830450453522
  0
LINE
  5
30D2A
  8
0
 10
3018.6436315981009102
 20
184.2963583377984946
 30
0.0
 11
3018.620963140368076
 21
184.2736898800312133
 31
0.0
  0
ARC
  5
30D2B
  8
0
 10
3018.5931242907840897
 20
184.3015287300426905
 30
0.0
 40
0.0393700789451614
 50
225.0000001189667103
 51
314.9999995605281811
  0
LINE
  5
30D2C
  8
0
 10
3018.377208409251125
 20
184.461766912471802
 30
0.0
 11
3018.2881240904789593
 21
184.5508512315003884
 31
0.0
  0
ARC
  5
30D2D
  8
0
 10
3018.3159629401188795
 20
184.5786900810601878
 30
0.0
 40
0.0393700786651827
 50
134.9999999407999098
 51
224.9999999173118965
  0
LINE
  5
30D2E
  8
0
 10
3018.2881240905480809
 20
184.6065289306889952
 30
0.0
 11
3018.3107925483827785
 21
184.6291973884769959
 31
0.0
  0
LINE
  5
30D2F
  8
0
 10
3018.3107925483827785
 20
184.6291973884769959
 30
0.0
 11
3018.3401814848170943
 21
184.6111946574752949
 31
0.0
  0
LINE
  5
30D30
  8
0
 10
3018.416182798860973
 20
184.5230123816376135
 30
0.0
 11
3018.3493695597858277
 21
184.5898256208620012
 31
0.0
  0
ARC
  5
30D31
  8
0
 10
3018.3716406395528793
 20
184.6120967005799116
 30
0.0
 40
0.0314960630207644
 50
134.999999898449488
 51
224.9999999362055121
  0
LINE
  5
30D32
  8
0
 10
3018.3493695598499471
 20
184.6343677803619983
 30
0.0
 11
3018.3766950560479927
 21
184.661693276463609
 31
0.0
  0
ARC
  5
30D33
  8
0
 10
3018.3035620068749267
 20
184.4772044795269039
 30
0.0
 40
0.198455433476913
 50
21.6240221278144205
 51
68.3761718394368501
  0
LINE
  5
30D34
  8
0
 10
3018.4880505562291546
 20
184.5503381532618903
 30
0.0
 11
3018.460724963983921
 21
184.5230123759060916
 31
0.0
  0
ARC
  5
30D35
  8
0
 10
3018.4384538842878101
 20
184.5452833047322088
 30
0.0
 40
0.0314959562737794
 50
224.9997912049765034
 51
315.0001940688043192
  0
ARC
  5
30D36
  8
0
 10
3018.3574669935719612
 20
184.4445551812424924
 30
0.0
 40
0.1058848496913809
 50
22.1255470794071805
 51
40.8408830450453522
  0
LINE
  5
30D37
  8
0
 10
3018.4555545663338307
 20
184.4844353701087982
 30
0.0
 11
3018.432886108600087
 21
184.4617669123414885
 31
0.0
  0
ARC
  5
30D38
  8
0
 10
3018.4050472590161007
 20
184.4896057623529941
 30
0.0
 40
0.0393700789451614
 50
225.0000001189667103
 51
314.9999995605281811
  0
ARC
  5
30D39
  8
0
 10
3018.267650752542977
 20
184.6270022692241923
 30
0.0
 40
0.0393700789821471
 50
224.9999938644820929
 51
285.5866244129703091
  0
LINE
  5
30D3A
  8
0
 10
3018.2398118997380152
 20
184.5991634223811957
 30
0.0
 11
3018.1003766671888116
 21
184.7385986847926063
 31
0.0
  0
ARC
  5
30D3B
  8
0
 10
3018.1282155227058865
 20
184.7664375343470908
 30
0.0
 40
0.0393700828167918
 50
135.0000360699752946
 51
224.9999938644810129
  0
LINE
  5
30D3C
  8
0
 10
3018.1003766526450818
 20
184.7942763693571067
 30
0.0
 11
3018.1252856812729988
 21
184.8191854293480105
 31
0.0
  0
LINE
  5
30D3D
  8
0
 10
3018.1800139254892201
 20
184.7732117788675055
 30
0.0
 11
3018.150727584264132
 21
184.7439254375767916
 31
0.0
  0
ARC
  5
30D3E
  8
0
 10
3018.1785664340350195
 20
184.716086587869512
 30
0.0
 40
0.0393700788614773
 50
135.0000000647904983
 51
224.9529452974269077
  0
LINE
  5
30D3F
  8
0
 10
3018.2562742104310018
 20
184.6829209705294943
 30
0.0
 11
3018.189460971421795
 21
184.7497342096872046
 31
0.0
  0
ARC
  5
30D40
  8
0
 10
3018.2117320512561491
 20
184.7720052894717924
 30
0.0
 40
0.0314960631150427
 50
135.0000000699502891
 51
224.9999999362067058
  0
LINE
  5
30D41
  8
0
 10
3018.1894609714190665
 20
184.7942763692539074
 30
0.0
 11
3018.2225322417289135
 21
184.8273476396443016
 31
0.0
  0
ARC
  5
30D42
  8
0
 10
3018.1045173032111961
 20
184.6293318647126114
 30
0.0
 40
0.2305163179369659
 50
19.0389844883755117
 51
59.2055838327882284
  0
LINE
  5
30D43
  8
0
 10
3018.3224236495898367
 20
184.7045289194620068
 30
0.0
 11
3018.300816369957829
 21
184.6829209703932122
 31
0.0
  0
ARC
  5
30D44
  8
0
 10
3018.2785452902630823
 20
184.7051920503076019
 30
0.0
 40
0.0314960631090919
 50
224.999999949369311
 51
314.9999997188639895
  0
ARC
  5
30D45
  8
0
 10
3017.9723967004488259
 20
184.7365852403397071
 30
0.0
 40
0.2445855330923268
 50
17.5642098955837298
 51
31.1477827806336691
  0
ARC
  5
30D46
  8
0
 10
3017.5500608780512266
 20
184.4813353586077085
 30
0.0
 40
0.7380630391700108
 50
31.1477827806336691
 51
42.806654553413523
  0
ARC
  5
30D47
  8
0
 10
3017.9955324531588303
 20
184.8939426750096118
 30
0.0
 40
0.130864783426593
 50
42.806654553413523
 51
50.5901002607919068
  0
ARC
  5
30D48
  8
0
 10
3018.0669764034951186
 20
184.9808893301469936
 30
0.0
 40
0.0183305269568086
 50
50.5901002608172234
 51
62.7513002537626434
  0
ARC
  5
30D49
  8
0
 10
3018.0747916535628974
 20
184.9945425218483877
 30
0.0
 40
0.0027054941023676
 50
77.6762039847438786
 51
192.3237958498899047
  0
ARC
  5
30D4A
  8
0
 10
3018.1499957126270601
 20
185.0081301621463865
 30
0.0
 40
0.0791254571800437
 50
190.3127204717737868
 51
206.7939061410307033
  0
LINE
  5
30D4B
  8
0
 10
3018.1857891941690468
 20
184.8561081528793864
 30
0.0
 11
3018.1567091909869305
 21
184.8270281497811141
 31
0.0
  0
ARC
  5
30D4C
  8
0
 10
3018.1344676563408029
 20
184.8492696844909915
 30
0.0
 40
0.0314542799892195
 50
253.0273928175849107
 51
314.9999999173199967
  0
ARC
  5
30D4D
  8
0
 10
3018.1345719033110981
 20
184.8496112449307134
 30
0.0
 40
0.0318113947673567
 50
225.1424551439106096
 51
253.0273928176102913
  0
LINE
  5
30D4E
  8
0
 10
3018.1121338470388764
 20
184.8270613343374862
 30
0.0
 11
3018.0453206080351265
 21
184.8938745735339069
 31
0.0
  0
ARC
  5
30D4F
  8
0
 10
3018.0675916879208671
 20
184.9161456532067973
 30
0.0
 40
0.0314960631048815
 50
135.000000049009401
 51
225.0005310086187933
  0
LINE
  5
30D50
  8
0
 10
3018.0453206080987911
 20
184.9384167329897934
 30
0.0
 11
3018.0906867224462076
 21
184.9837828474142896
 31
0.0
  0
ARC
  5
30D51
  8
0
 10
3018.0238021359577942
 20
184.9599352051928918
 30
0.0
 40
0.0314960629999876
 50
224.9999999173026879
 51
304.4524960989223246
  0
LINE
  5
30D52
  8
0
 10
3018.0015310561980186
 20
184.9376641254970934
 30
0.0
 11
3017.8414753512288371
 21
185.0977198309280993
 31
0.0
  0
ARC
  5
30D53
  8
0
 10
3017.8637464309617826
 20
185.1199909105959875
 30
0.0
 40
0.0314960629604499
 50
134.9999999192706071
 51
224.99999991730499
  0
LINE
  5
30D54
  8
0
 10
3017.8414753512929565
 20
185.1422619903273983
 30
0.0
 11
3017.8805561737108292
 21
185.1813428126357906
 31
0.0
  0
LINE
  5
30D55
  8
0
 10
3017.9078131038390893
 20
185.1611704528513087
 30
0.0
 11
3017.8651899962369498
 21
185.1185473453718089
 31
0.0
  0
ARC
  5
30D56
  8
0
 10
3017.8874692788899665
 20
185.0962680626543886
 30
0.0
 40
0.0315076637333647
 50
134.9999999173211052
 51
223.4451603672762872
  0
ARC
  5
30D57
  8
0
 10
3018.1443966561591878
 20
185.3063203931297949
 30
0.0
 40
0.2873454520908838
 50
202.6590141776518124
 51
211.9969989718528041
  0
ARC
  5
30D58
  8
0
 10
3017.714992501416873
 20
185.0302775328144946
 30
0.0
 40
0.2330509412862856
 50
34.1699412724043796
 51
45.1923389614605711
  0
ARC
  5
30D59
  8
0
 10
3016.2223366566240657
 20
183.9412760969364911
 30
0.0
 40
2.0806184402026839
 50
33.1418952830119125
 51
35.8958260496300809
  0
LINE
  5
30D5A
  8
0
 10
3017.9720124878399474
 20
185.0863141906677072
 30
0.0
 11
3017.9347178183998039
 21
185.0490195254903938
 31
0.0
  0
ARC
  5
30D5B
  8
0
 10
3017.9572683081769355
 20
185.0264690331345889
 30
0.0
 40
0.0318912103048171
 50
134.9999967249279109
 51
215.9711780410100914
  0
ARC
  5
30D5C
  8
0
 10
3017.6980250188839818
 20
184.7881889810579992
 30
0.0
 40
0.4049046477262845
 50
24.8700722571243595
 51
47.4159068657843932
  0
LINE
  5
30D5D
  8
0
 10
3018.1362039441428351
 20
184.8178633629248964
 30
0.0
 11
3018.1757503666831326
 21
184.7689710439736928
 31
0.0
  0
ARC
  5
30D5E
  8
0
 10
3017.4728885397848899
 20
184.0293718439789927
 30
0.0
 40
1.024651018886384
 50
35.5436126722465602
 51
39.0895447401236922
  0
ARC
  5
30D5F
  8
0
 10
3025.4315725937981369
 20
191.0872187572190057
 30
0.0
 40
9.6309550601229663
 50
223.4297290689358988
 51
223.7942604425442141
  0
LINE
  5
30D60
  8
0
 10
3018.6642781540140277
 20
184.1746971668798096
 30
0.0
 11
3018.7533624727848292
 21
184.0856128478513085
 31
0.0
  0
ARC
  5
30D61
  8
0
 10
3018.7812013224261136
 20
184.1134516974111079
 30
0.0
 40
0.0393700786651827
 50
224.9999999173118965
 51
314.9999998938446879
  0
LINE
  5
30D62
  8
0
 10
3018.8090401719741749
 20
184.0856128477595064
 30
0.0
 11
3018.8317086298279719
 21
184.1082813055290046
 31
0.0
  0
LINE
  5
30D63
  8
0
 10
3018.8317086298279719
 20
184.1082813055290046
 30
0.0
 11
3018.8137058989109391
 21
184.1376702420141953
 31
0.0
  0
LINE
  5
30D64
  8
0
 10
3018.7255236232917923
 20
184.2136715563134999
 30
0.0
 11
3018.7923368623241913
 21
184.146858317045087
 31
0.0
  0
ARC
  5
30D65
  8
0
 10
3018.8146079421057948
 20
184.1691293967481897
 30
0.0
 40
0.0314960630207644
 50
224.9999998984368119
 51
314.9999999361940013
  0
LINE
  5
30D66
  8
0
 10
3018.8368790218241884
 20
184.1468583169807971
 30
0.0
 11
3018.8642045180040441
 21
184.1741838131003988
 31
0.0
  0
ARC
  5
30D67
  8
0
 10
3018.6797157208570752
 20
184.1010507644596998
 30
0.0
 40
0.198455433476913
 50
21.6238279952043193
 51
68.3759777068275838
  0
LINE
  5
30D68
  8
0
 10
3018.7528493951240307
 20
184.285539313601987
 30
0.0
 11
3018.7255236176888502
 21
184.2582137214369027
 31
0.0
  0
ARC
  5
30D69
  8
0
 10
3018.7477945464511322
 20
184.2359426416767008
 30
0.0
 40
0.0314959562737794
 50
134.9998057658368111
 51
225.0002086296726986
  0
ARC
  5
30D6A
  8
0
 10
3018.6470664227281304
 20
184.1549557512512081
 30
0.0
 40
0.1058848496913809
 50
49.159116789604802
 51
67.8744527552415349
  0
LINE
  5
30D6B
  8
0
 10
3018.6869466118769196
 20
184.2530433238970886
 30
0.0
 11
3018.6642781540449505
 21
184.2303748662297949
 31
0.0
  0
ARC
  5
30D6C
  8
0
 10
3018.692117003975909
 20
184.2025360165650909
 30
0.0
 40
0.0393700789451614
 50
135.0000002741153082
 51
224.9999997156768075
  0
ARC
  5
30D6D
  8
0
 10
3018.8295135104499423
 20
184.0651395096953138
 30
0.0
 40
0.0393700789821471
 50
164.4133754216807972
 51
225.0000059701602027
  0
LINE
  5
30D6E
  8
0
 10
3018.8016746635271375
 20
184.0373006569705012
 30
0.0
 11
3018.941109925535784
 21
183.8978654240194999
 31
0.0
  0
ARC
  5
30D6F
  8
0
 10
3018.9689487751711567
 20
183.925704279455914
 30
0.0
 40
0.0393700828167918
 50
225.0000059701613964
 51
314.9999637646795918
  0
LINE
  5
30D70
  8
0
 10
3018.9967876101009097
 20
183.8978654093143064
 30
0.0
 11
3019.0216966701641468
 21
183.9227744378709133
 31
0.0
  0
LINE
  5
30D71
  8
0
 10
3018.975723019841098
 20
183.9775026822192956
 30
0.0
 11
3018.9464366784650338
 21
183.9482163410793873
 31
0.0
  0
ARC
  5
30D72
  8
0
 10
3018.9185978288378465
 20
183.9760551909299977
 30
0.0
 40
0.0393700788614773
 50
225.0470545372141942
 51
314.9999997698541279
  0
LINE
  5
30D73
  8
0
 10
3018.8854322117231277
 20
184.0537629674215907
 30
0.0
 11
3018.9522454506882241
 21
183.9869497282197983
 31
0.0
  0
ARC
  5
30D74
  8
0
 10
3018.9745165305371302
 20
184.009220807989692
 30
0.0
 40
0.0314960631150427
 50
224.9999998984357035
 51
314.9999997646942802
  0
LINE
  5
30D75
  8
0
 10
3018.9967876102541595
 20
183.9869497280888879
 30
0.0
 11
3019.0298588807399938
 21
184.0200209983030959
 31
0.0
  0
ARC
  5
30D76
  8
0
 10
3018.8318431054681241
 20
183.9020060603565128
 30
0.0
 40
0.2305163179369659
 50
30.7944160018585009
 51
70.9610153462728022
  0
LINE
  5
30D77
  8
0
 10
3018.9070401608460088
 20
184.1199124065184094
 30
0.0
 11
3018.8854322117149422
 21
184.0983051269494979
 31
0.0
  0
ARC
  5
30D78
  8
0
 10
3018.9077032915652126
 20
184.0760340471894096
 30
0.0
 40
0.0314960631090919
 50
135.0000001157804945
 51
224.9999998852557894
  0
ARC
  5
30D79
  8
0
 10
3018.9390964807139426
 20
183.7698854572846869
 30
0.0
 40
0.2445855330923268
 50
58.8522170540023595
 51
72.4357899390647901
  0
ARC
  5
30D7A
  8
0
 10
3018.6838465977630221
 20
183.3475496356236079
 30
0.0
 40
0.7380630391700108
 50
47.1933452812178587
 51
58.8522170540023595
  0
ARC
  5
30D7B
  8
0
 10
3019.0964539154501836
 20
183.7930212095409956
 30
0.0
 40
0.130864783426593
 50
39.4098995738371229
 51
47.1933452812178587
  0
ARC
  5
30D7C
  8
0
 10
3019.1834005707942197
 20
183.8644651596260928
 30
0.0
 40
0.0183305269568086
 50
27.2486995808867007
 51
39.409899573829577
  0
ARC
  5
30D7D
  8
0
 10
3019.1970537625179531
 20
183.8722804096543086
 30
0.0
 40
0.0027054941023676
 50
257.6762039847438928
 51
12.3237958498898994
  0
ARC
  5
30D7E
  8
0
 10
3019.2106414030331507
 20
183.9474844686797042
 30
0.0
 40
0.0791254571800437
 50
243.2060936936167082
 51
259.6872793628717204
  0
LINE
  5
30D7F
  8
0
 10
3019.0586193938688666
 20
183.9832779506598968
 30
0.0
 11
3019.029539390687205
 21
183.9541979475617097
 31
0.0
  0
ARC
  5
30D80
  8
0
 10
3019.0517809253319683
 20
183.9319564128518039
 30
0.0
 40
0.0314542799892195
 50
134.999999917324601
 51
196.9726070170457035
  0
ARC
  5
30D81
  8
0
 10
3019.0521224857729976
 20
183.9320606598209054
 30
0.0
 40
0.0318113947673567
 50
196.9726070170441119
 51
224.8575446907254047
  0
LINE
  5
30D82
  8
0
 10
3019.0295725751147984
 20
183.9096226036135988
 30
0.0
 11
3019.0963858141180935
 21
183.8428093644172066
 31
0.0
  0
ARC
  5
30D83
  8
0
 10
3019.1186568938551318
 20
183.8650804442384015
 30
0.0
 40
0.0314960631048815
 50
224.9994688260130999
 51
314.9999997856351115
  0
LINE
  5
30D84
  8
0
 10
3019.1409279735739801
 20
183.8428093643528882
 30
0.0
 11
3019.1862940881301256
 21
183.8881754785689111
 31
0.0
  0
ARC
  5
30D85
  8
0
 10
3019.162446445714977
 20
183.8212908921497899
 30
0.0
 40
0.0314960629999876
 50
145.5475037357246038
 51
224.9999999173406877
  0
LINE
  5
30D86
  8
0
 10
3019.1401753659552014
 20
183.7990198124539916
 30
0.0
 11
3019.3002310709239282
 21
183.6389641070230994
 31
0.0
  0
ARC
  5
30D87
  8
0
 10
3019.3225021506559642
 20
183.6612351866909876
 30
0.0
 40
0.0314960629604499
 50
224.9999999173373055
 51
314.9999999153728822
  0
LINE
  5
30D88
  8
0
 10
3019.3447732303238809
 20
183.6389641069580989
 30
0.0
 11
3019.3838189939519907
 21
183.6780098704707882
 31
0.0
  0
LINE
  5
30D89
  8
0
 10
3019.3636816930388704
 20
183.705301859450401
 30
0.0
 11
3019.3210585854371857
 21
183.6626787519709865
 31
0.0
  0
ARC
  5
30D8A
  8
0
 10
3019.2987793027828047
 20
183.6849580346882931
 30
0.0
 40
0.0315076637333647
 50
226.5548394673623136
 51
314.9999999173223273
  0
ARC
  5
30D8B
  8
0
 10
3019.5088316340002166
 20
183.9418854113505972
 30
0.0
 40
0.2873454520908838
 50
238.0030008628008034
 51
247.3409856569923022
  0
ARC
  5
30D8C
  8
0
 10
3019.2327887724459288
 20
183.5124812574055113
 30
0.0
 40
0.2330509412862856
 50
44.8076608731750667
 51
55.8300585622279328
  0
ARC
  5
30D8D
  8
0
 10
3018.1437873322602172
 20
182.0198254157554913
 30
0.0
 40
2.0806184402026839
 50
54.1041737850240096
 51
56.8581045516422066
  0
LINE
  5
30D8E
  8
0
 10
3019.2888254310410048
 20
183.7695012436674915
 30
0.0
 11
3019.2515307657549783
 21
183.7322065743342137
 31
0.0
  0
ARC
  5
30D8F
  8
0
 10
3019.2289802734649129
 20
183.7547570641771131
 30
0.0
 40
0.0318912103048171
 50
234.0288217936289072
 51
315.0000031097155215
  0
ARC
  5
30D90
  8
0
 10
3018.9907002206400648
 20
183.4955137755707995
 30
0.0
 40
0.4049046477262845
 50
42.5840929688466119
 51
65.1299275775240716
  0
LINE
  5
30D91
  8
0
 10
3019.0203746037709607
 20
183.9336927007441034
 30
0.0
 11
3018.9714822849350639
 21
183.973239123425401
 31
0.0
  0
ARC
  5
30D92
  8
0
 10
3018.2318830829121907
 20
183.2703772986627939
 30
0.0
 40
1.024651018886384
 50
50.9104550945197474
 51
54.4563871623919766
  0
ARC
  5
30D93
  8
0
 10
3025.2897300191211798
 20
191.2290613323060029
 30
0.0
 40
9.6309550601229663
 50
226.2057393921041069
 51
226.5702707656982966
  0
ARC
  5
30D94
  8
0
 10
3017.8568433000878031
 20
185.5733122938617896
 30
0.0
 40
0.0208623386433102
 50
136.463879756425996
 51
212.7818829166336059
  0
ARC
  5
30D95
  8
0
 10
3019.758364244241875
 20
186.4837347950063986
 30
0.0
 40
0.0219520910441042
 50
132.9104684879621061
 51
204.3749725132697961
  0
LINE
  5
30D96
  8
0
 10
3019.7434180598747844
 20
186.4998129128715902
 30
0.0
 11
3020.2778281901628361
 21
186.9620335839356073
 31
0.0
  0
ARC
  5
30D97
  8
0
 10
3020.2919364550671162
 20
186.9449684866845018
 30
0.0
 40
0.0221418551763163
 50
69.7040640442399138
 51
129.5816382212292126
  0
ARC
  5
30D98
  8
0
 10
3020.330258220495125
 20
186.9089048655519036
 30
0.0
 40
0.0190115354216349
 50
58.0753322393962677
 51
133.5109674356222058
  0
LINE
  5
30D99
  8
0
 10
3020.317168903592119
 20
186.9226928408239132
 30
0.0
 11
3019.7814481816330954
 21
186.4617782003338959
 31
0.0
  0
ARC
  5
30D9A
  8
0
 10
3019.7975134681041709
 20
186.4442548594992957
 30
0.0
 40
0.0237731130350769
 50
132.5143983526504883
 51
193.690882023468987
  0
ARC
  5
30D9B
  8
0
 10
3020.3846153888712252
 20
186.8522578852260949
 30
0.0
 40
0.0205453429917542
 50
56.4312268132445212
 51
130.065027663141592
  0
LINE
  5
30D9C
  8
0
 10
3020.3713912429420816
 20
186.8679815324844924
 30
0.0
 11
3019.8431180800621405
 21
186.3997809218224972
 31
0.0
  0
ARC
  5
30D9D
  8
0
 10
3019.8569500098769822
 20
186.3839368209434042
 30
0.0
 40
0.021032304083586
 50
131.1210204357792009
 51
204.4024380393109936
  0
LINE
  5
30D9E
  8
0
 10
3020.3988815614920895
 20
186.8664708505239105
 30
0.0
 11
3019.8423692119918087
 21
186.3706776208238978
 31
0.0
  0
ARC
  5
30D9F
  8
0
 10
3019.8074749767260982
 20
186.4337110194080935
 30
0.0
 40
0.0220067247215078
 50
131.232690558368887
 51
199.721780351862094
  0
LINE
  5
30DA0
  8
0
 10
3019.7929699340547813
 20
186.4502609339124035
 30
0.0
 11
3020.3254672761768234
 21
186.9143948559498085
 31
0.0
  0
ARC
  5
30DA1
  8
0
 10
3020.340524705407006
 20
186.8968620150664037
 30
0.0
 40
0.0231383443325426
 50
76.2810631452097851
 51
130.6566754158824892
  0
ARC
  5
30DA2
  8
0
 10
3020.8095398871801081
 20
186.4418982390978954
 30
0.0
 40
0.0110720448452687
 50
72.2991316985055334
 51
93.1634661150782364
  0
ARC
  5
30DA3
  8
0
 10
3020.8097043950829175
 20
186.4389217480004959
 30
0.0
 40
0.0140530785759201
 50
93.1634661150782364
 51
124.3741808090994994
  0
ARC
  5
30DA4
  8
0
 10
3020.8709813431210023
 20
186.3493424545874007
 30
0.0
 40
0.1225856274691711
 50
124.3741808090994994
 51
128.6922479850150864
  0
ARC
  5
30DA5
  8
0
 10
3020.8059990681458657
 20
186.4408671134810049
 30
0.0
 40
0.0132564596081177
 50
358.825714265317572
 51
35.4239582007471725
  0
ARC
  5
30DA6
  8
0
 10
3020.8003657272488454
 20
186.4409825858298859
 30
0.0
 40
0.0188909838575828
 50
337.3539378080834013
 51
358.8257142653121718
  0
ARC
  5
30DA7
  8
0
 10
3020.7937671038389453
 20
186.4437355537999963
 30
0.0
 40
0.0260408554330888
 50
317.9066820503948065
 51
337.3539378080894267
  0
LINE
  5
30DA8
  8
0
 10
3020.8130908253920097
 20
186.4262793246240051
 30
0.0
 11
3020.3221315604919255
 21
185.9206154826239867
 31
0.0
  0
LINE
  5
30DA9
  8
0
 10
3020.7943485243918076
 20
186.4450223749240081
 30
0.0
 11
3020.3033428663711675
 21
185.9394033271900923
 31
0.0
  0
ARC
  5
30DAA
  8
0
 10
3020.3192114751582267
 20
185.9201764830536945
 30
0.0
 40
0.0249295864442512
 50
129.5340880957905085
 51
183.3507554777262101
  0
ARC
  5
30DAB
  8
0
 10
3020.3068931102047827
 20
185.9311412860992903
 30
0.0
 40
0.0185797630303555
 50
242.9945331894209062
 51
266.1277803868088085
  0
ARC
  5
30DAC
  8
0
 10
3020.3052426863728215
 20
185.9322197415060032
 30
0.0
 40
0.019619794228104
 50
271.1556537903820754
 51
289.2456558637676949
  0
ARC
  5
30DAD
  8
0
 10
3020.2958101032932063
 20
185.9489536424171945
 30
0.0
 40
0.0386764839347942
 50
294.2735292673502272
 51
312.8869929093453948
  0
ARC
  5
30DAE
  8
0
 10
3020.8792487952609918
 20
186.3625056406415013
 30
0.0
 40
0.019101314106734
 50
74.1253530423910973
 51
90.9681011825170742
  0
ARC
  5
30DAF
  8
0
 10
3020.8797015813020153
 20
186.3675725642995928
 30
0.0
 40
0.0140530785759201
 50
93.1634661150782364
 51
124.3741808090994994
  0
ARC
  5
30DB0
  8
0
 10
3020.9409785293401001
 20
186.2779932708864123
 30
0.0
 40
0.1225856274691711
 50
124.3741808090994994
 51
128.6922479850150864
  0
ARC
  5
30DB1
  8
0
 10
3020.8688205669491254
 20
186.3685126101636911
 30
0.0
 40
0.0204425317699383
 50
2.0566835054455899
 51
30.7369480234716796
  0
ARC
  5
30DB2
  8
0
 10
3020.8703629134679431
 20
186.3696334021290113
 30
0.0
 40
0.0188909838575828
 50
337.3539378080834013
 51
358.8257142653121718
  0
ARC
  5
30DB3
  8
0
 10
3020.8637642900580431
 20
186.3723863700990933
 30
0.0
 40
0.0260408554330888
 50
317.9066820503948065
 51
337.3539378080894267
  0
LINE
  5
30DB4
  8
0
 10
3020.883088011610198
 20
186.3549301409229884
 30
0.0
 11
3020.3921287467101138
 21
185.8492662989229984
 31
0.0
  0
LINE
  5
30DB5
  8
0
 10
3020.8643457106099959
 20
186.3736731912229914
 30
0.0
 11
3020.3733400525898105
 21
185.8680541434891893
 31
0.0
  0
ARC
  5
30DB6
  8
0
 10
3020.3892086613759602
 20
185.8488272993527062
 30
0.0
 40
0.0249295864442512
 50
129.5340880957905085
 51
180.1416203283534969
  0
ARC
  5
30DB7
  8
0
 10
3020.3768902964220615
 20
185.8597921023983019
 30
0.0
 40
0.0185797630303555
 50
250.8950049617426998
 51
266.1277803868088085
  0
ARC
  5
30DB8
  8
0
 10
3020.3752398725910098
 20
185.8608705578051001
 30
0.0
 40
0.019619794228104
 50
271.1556537903820754
 51
289.2456558637676949
  0
ARC
  5
30DB9
  8
0
 10
3020.3658072895109399
 20
185.8776044587162914
 30
0.0
 40
0.0386764839347942
 50
294.2735292673502272
 51
312.8869929093453948
  0
ARC
  5
30DBA
  8
0
 10
3020.9321676149797895
 20
186.2192429935014957
 30
0.0
 40
0.1050383143838682
 50
84.9109987155344186
 51
88.4964569421862848
  0
ARC
  5
30DBB
  8
0
 10
3020.9356992076877759
 20
186.3102134797860003
 30
0.0
 40
0.0140530785759201
 50
93.1634661150782364
 51
124.3741808090994994
  0
ARC
  5
30DBC
  8
0
 10
3020.9969761557258607
 20
186.2206341863727914
 30
0.0
 40
0.1225856274691711
 50
124.3741808090994994
 51
128.6922479850150864
  0
ARC
  5
30DBD
  8
0
 10
3021.0601718160901328
 20
186.3301166777835931
 30
0.0
 40
0.1163610777308784
 50
184.3952689517560941
 51
189.0132730743638092
  0
ARC
  5
30DBE
  8
0
 10
3020.9263605398541586
 20
186.3122743176153904
 30
0.0
 40
0.0188909838575828
 50
337.3539378080834013
 51
358.8257142653121718
  0
ARC
  5
30DBF
  8
0
 10
3020.9197619164438038
 20
186.3150272855853871
 30
0.0
 40
0.0260408554330888
 50
317.9066820503948065
 51
337.3539378080894267
  0
LINE
  5
30DC0
  8
0
 10
3020.9390856379968682
 20
186.2975710564093959
 30
0.0
 11
3020.4481263730967839
 21
185.7919072144094059
 31
0.0
  0
LINE
  5
30DC1
  8
0
 10
3020.9203433369971208
 20
186.3163141067093989
 30
0.0
 11
3020.4293376789760259
 21
185.8106950589755968
 31
0.0
  0
ARC
  5
30DC2
  8
0
 10
3020.4452062877630851
 20
185.7914682148391137
 30
0.0
 40
0.0249295864442512
 50
129.5340880957905085
 51
177.0850887191197103
  0
ARC
  5
30DC3
  8
0
 10
3020.4328879228091864
 20
185.8024330178847947
 30
0.0
 40
0.0185797630303555
 50
257.0291438837755891
 51
266.1277803868088085
  0
ARC
  5
30DC4
  8
0
 10
3020.4312374989781347
 20
185.8035114732915076
 30
0.0
 40
0.019619794228104
 50
271.1556537903820754
 51
289.2456558637676949
  0
ARC
  5
30DC5
  8
0
 10
3020.4218049158980648
 20
185.8202453742026989
 30
0.0
 40
0.0386764839347942
 50
294.2735292673502272
 51
312.8869929093453948
  0
ARC
  5
30DC6
  8
0
 10
3021.1540379146158557
 20
186.0708849958768951
 30
0.0
 40
0.0347442695530573
 50
345.840954583966095
 51
10.3663145529636598
  0
ARC
  5
30DC7
  8
0
 10
3021.1684647183019479
 20
186.0688848455841935
 30
0.0
 40
0.020328726040891
 50
320.0124918859933132
 51
341.3560984090296984
  0
LINE
  5
30DC8
  8
0
 10
3021.1840402744887797
 20
186.0558211879072985
 30
0.0
 11
3020.7275194372500664
 21
185.5157059140771878
 31
0.0
  0
ARC
  5
30DC9
  8
0
 10
3020.7112627521769355
 20
185.5296352843164129
 30
0.0
 40
0.0214081097905265
 50
248.0781254812333998
 51
319.408725869739385
  0
ARC
  5
30DCA
  8
0
 10
3021.1404669004868992
 20
186.0815965357791129
 30
0.0
 40
0.0339514337237637
 50
4.4912247097067599
 51
19.3665178237279605
  0
ARC
  5
30DCB
  8
0
 10
3021.1607203458529511
 20
186.0831873953513025
 30
0.0
 40
0.0136356053289374
 50
330.7680001447212135
 51
4.4912247097051372
  0
ARC
  5
30DCC
  8
0
 10
3021.1518909947158136
 20
186.0856638798915981
 30
0.0
 40
0.02265224599069
 50
318.6568860872383766
 51
336.2160723498666925
  0
LINE
  5
30DCD
  8
0
 10
3021.168897559891775
 20
186.0707005584239084
 30
0.0
 11
3020.7008553399928132
 21
185.5121899763479121
 31
0.0
  0
LINE
  5
30DCE
  8
0
 10
3025.7000257090921878
 20
189.6139929596762101
 30
0.0
 11
3025.7000257090921878
 21
187.5110926357035908
 31
0.0
  0
ARC
  5
30DD0
  8
0
 10
3020.3806359722439083
 20
140.8215034656645059
 30
0.0
 40
11.3378094563462302
 50
67.8172972179301468
 51
75.8064506807382514
  0
ARC
  5
30DD1
  8
0
 10
3019.5940693509501216
 20
166.7282214819105093
 30
0.0
 40
13.8812262643906301
 50
284.8882932034555893
 51
291.4104050924564717
  0
ARC
  5
30DD2
  8
0
 10
3023.1685587705619582
 20
153.2840695557435993
 30
0.0
 40
0.0300000024023886
 50
105.291479035578206
 51
180.0188982852313018
  0
LINE
  5
30DD3
  8
0
 10
3023.1185587697918891
 20
153.2748000769240093
 30
0.0
 11
3023.1185587697918891
 21
151.8507246056539941
 31
0.0
  0
LINE
  5
30DD4
  8
0
 10
3023.1385587697918709
 20
153.2840794508719
 30
0.0
 11
3023.1385587697918709
 21
151.8421410796240139
 31
0.0
  0
ARC
  5
30DD5
  8
0
 10
3023.1685587698771087
 20
151.8421410796298119
 30
0.0
 40
0.0300000000847003
 50
179.9999637238859123
 51
254.7085209881365984
  0
ARC
  5
30DD6
  8
0
 10
3023.0985591730682245
 20
151.8508550504141965
 30
0.0
 40
0.0200000221235942
 50
254.7631140921540975
 51
359.9982021907222247
  0
ARC
  5
30DD7
  8
0
 10
3021.1712614801472228
 20
144.7752275844264034
 30
0.0
 40
7.3134153100787742
 50
74.7631140921540691
 51
78.5611384688501886
  0
ARC
  5
30DD8
  8
0
 10
3022.3978738835940021
 20
150.8373235641558949
 30
0.0
 40
1.1284669953600941
 50
78.5611384688501886
 51
95.2750372512463741
  0
ARC
  5
30DD9
  8
0
 10
3022.3199439233371777
 20
151.6813811064029949
 30
0.0
 40
0.2808195371973348
 50
95.2750372512463741
 51
130.7935070530787129
  0
ARC
  5
30DDA
  8
0
 10
3022.4798842701288777
 20
151.5352819488389002
 30
0.0
 40
0.4965833676756252
 50
133.7524989638401109
 51
164.8574300640026138
  0
LINE
  5
30DDB
  8
0
 10
3022.0005428662598206
 20
151.6650003345411051
 30
0.0
 11
3021.6677725085428392
 21
149.7050399115802861
 31
0.0
  0
ARC
  5
30DDC
  8
0
 10
3021.6282240607920357
 20
149.7111208146239107
 30
0.0
 40
0.0400135114999948
 50
273.3665265230891919
 51
351.2579521546031742
  0
ARC
  5
30DDD
  8
0
 10
3021.5198578897411608
 20
154.8451436217324044
 30
0.0
 40
5.1751517169967673
 50
268.4602305657494981
 51
271.2258649872937895
  0
ARC
  5
30DDE
  8
0
 10
3021.3834796255678157
 20
149.7135597455132086
 30
0.0
 40
0.0417853468560505
 50
180.1231883429396134
 51
266.3195690299253897
  0
ARC
  5
30DDF
  8
0
 10
3048.6162921072250356
 20
149.7721115313696032
 30
0.0
 40
27.2746607729418393
 50
175.4180649032799124
 51
180.1231883429396134
  0
ARC
  5
30DE0
  8
0
 10
3039.2710184954507895
 20
150.5210489037179968
 30
0.0
 40
17.899424985687439
 50
174.0615462255640864
 51
175.4180649032799124
  0
ARC
  5
30DE1
  8
0
 10
3022.0237975015911616
 20
152.3150756279162863
 30
0.0
 40
0.559149212269794
 50
142.215415407327896
 51
174.0615462255640864
  0
ARC
  5
30DE2
  8
0
 10
3022.2439339330908297
 20
152.1444151521953927
 30
0.0
 40
0.8376901364565251
 50
113.9178901899725957
 51
142.215415407327896
  0
ARC
  5
30DE3
  8
0
 10
3025.1319036760510244
 20
144.9476228606523023
 30
0.0
 40
8.5918285296634931
 50
103.7257086395745063
 51
112.0650075988983048
  0
ARC
  5
30DE4
  8
0
 10
3023.0985643864619306
 20
153.2748074372570102
 30
0.0
 40
0.0199943846843498
 50
359.978908276840798
 51
105.3081427769392064
  0
LINE
  5
30DE5
  8
0
 10
3023.1185587697918891
 20
153.240989876523912
 30
0.0
 11
3023.1385587697918709
 21
153.240640775223909
 31
0.0
  0
LINE
  5
30DE6
  8
0
 10
3023.1185587697918891
 20
151.8852207611240033
 30
0.0
 11
3023.1385587697918709
 21
151.8855698624240063
 31
0.0
  0
LINE
  5
30DE7
  8
0
 10
3020.7802910531918315
 20
137.2752470511240119
 30
0.0
 11
3020.8876354314779746
 21
137.2752470511240119
 31
0.0
  0
LINE
  5
30DE8
  8
0
 10
3025.8885587293138997
 20
137.2746580268006937
 30
0.0
 11
3025.8885587293138997
 21
139.8746212576238861
 31
0.0
  0
ARC
  5
30DE9
  8
0
 10
3021.9293405790181168
 20
137.2368256341837025
 30
0.0
 40
0.0196942659076454
 50
268.8182507093953859
 51
7.9493365843202968
  0
ARC
  5
30DEA
  8
0
 10
3021.1931042335249913
 20
137.1340181520855879
 30
0.0
 40
0.7630739366005633
 50
7.9493365843202968
 51
17.4686430391936014
  0
ARC
  5
30DEB
  8
0
 10
3022.2370836478107776
 20
137.4567768842628084
 30
0.0
 40
0.3296916125946005
 50
84.8791119264522536
 51
196.510661331147503
  0
ARC
  5
30DEC
  8
0
 10
3022.1021872672918107
 20
125.7813709546926049
 30
0.0
 40
12.0049062974143901
 50
83.0820441582292659
 51
89.2157078055772246
  0
ARC
  5
30DED
  8
0
 10
3022.0263955458558485
 20
123.6559055891292047
 30
0.0
 40
14.1251832183914807
 50
78.0808914958801665
 51
83.8153109157182428
  0
ARC
  5
30DEE
  8
0
 10
3024.7828360544840507
 20
135.1883887451581927
 30
0.0
 40
2.2938093660184391
 50
71.454251755140703
 51
85.9791475766645732
  0
ARC
  5
30DEF
  8
0
 10
3023.0482592845050931
 20
128.677259153606002
 30
0.0
 40
9.0285950287451602
 50
71.8359344629136984
 51
74.1614690000086227
  0
ARC
  5
30DF0
  8
0
 10
3025.8687799355998322
 20
137.2748006015405053
 30
0.0
 40
0.0197793075807951
 50
252.4781815215254994
 51
359.5869925393520248
  0
ARC
  5
30DF1
  8
0
 10
3567.1867973656399045
 20
9925.6626038321446686
 30
0.0
 40
9803.6202916305210238
 50
266.7993049806822228
 51
266.8116774787524719
  0
ARC
  5
30DF2
  8
0
 10
3019.8163213403581722
 20
137.3547629226727054
 30
0.0
 40
0.0196864225557548
 50
155.0069896223311048
 51
266.7993049806822228
  0
ARC
  5
30DF3
  8
0
 10
3024.6253543605348568
 20
135.3955797339727951
 30
0.0
 40
5.2124650082127104
 50
141.7268834564576139
 51
157.8235170617126926
  0
ARC
  5
30DF4
  8
0
 10
3018.2708258977459082
 20
142.0914717971292021
 30
0.0
 40
4.1400658995748723
 50
303.1247117510018256
 51
314.688101957080903
  0
ARC
  5
30DF5
  8
0
 10
3022.128199686123935
 20
137.1937105369486005
 30
0.0
 40
2.1712615290393571
 50
96.7115797221644158
 51
115.8259121526497069
  0
ARC
  5
30DF6
  8
0
 10
3024.6803454045798389
 20
118.7327944010956031
 30
0.0
 40
20.8073563951422607
 50
94.7246076571617408
 51
97.7500357222092333
  0
ARC
  5
30DF7
  8
0
 10
3020.9145753537081873
 20
167.8031031200717109
 30
0.0
 40
28.407857758492451
 50
274.1421630513657988
 51
278.0444949562584043
  0
ARC
  5
30DF8
  8
0
 10
3023.9340556355991794
 20
146.2010382073027017
 30
0.0
 40
6.5958953922822454
 50
278.3335016585571111
 51
287.0031777808284232
  0
ARC
  5
30DF9
  8
0
 10
3025.868506705524851
 20
139.874214598885203
 30
0.0
 40
0.020056146922829
 50
1.1618097087533461
 51
106.356436551431301
  0
LINE
  5
30DFA
  8
0
 10
3020.7776302614920496
 20
137.2813873397238922
 30
0.0
 11
3020.7802910531918315
 21
137.2752470511240119
 31
0.0
  0
ARC
  5
30DFB
  8
0
 10
3021.1791498728271108
 20
139.9431352379151008
 30
0.0
 40
0.0299999999724541
 50
323.6912579979078828
 51
62.8511966135359614
  0
ARC
  5
30DFC
  8
0
 10
3022.0503418266998779
 20
139.3029764549638116
 30
0.0
 40
1.0511006835359931
 50
143.6912580219826054
 51
171.7091024524868033
  0
ARC
  5
30DFD
  8
0
 10
3022.0577775878950888
 20
139.3018929011342095
 30
0.0
 40
1.058614978807928
 50
171.7091024524868033
 51
178.3716997406488076
  0
ARC
  5
30DFE
  8
0
 10
3020.9695814024080391
 20
139.3328268953758027
 30
0.0
 40
0.0300207959614239
 50
270.0385909593501879
 51
358.3716997406471023
  0
LINE
  5
30DFF
  8
0
 10
3020.9696016225921085
 20
139.3028061062240113
 30
0.0
 11
3020.7287691993919907
 21
139.3028061062240113
 31
0.0
  0
ARC
  5
30E00
  8
0
 10
3020.7287691993819863
 20
139.332806106200195
 30
0.0
 40
0.0299999999762037
 50
181.5897093492536101
 51
270.0000000184469968
  0
ARC
  5
30E01
  8
0
 10
3019.647796520178872
 20
139.3028061058172966
 30
0.0
 40
1.0513888908522599
 50
1.5897092873261081
 51
15.4722971063424097
  0
ARC
  5
30E02
  8
0
 10
3019.6477965220919941
 20
139.3028061062238976
 30
0.0
 40
1.051388888900086
 50
15.4722971127963795
 51
36.3087211444956921
  0
ARC
  5
30E03
  8
0
 10
3020.5192209491438007
 20
139.9431352379064037
 30
0.0
 40
0.0299999999573978
 50
117.1488032940178954
 51
216.3087420026224095
  0
ARC
  5
30E04
  8
0
 10
3020.7350121826921168
 20
139.2673730353239137
 30
0.0
 40
0.0354330709000053
 50
90.0
 51
258.7499999999894271
  0
LINE
  5
30E05
  8
0
 10
3021.0482334892922154
 20
139.2323966574238909
 30
0.0
 11
3020.6501373326918838
 21
139.2323966574238909
 31
0.0
  0
ARC
  5
30E06
  8
0
 10
3020.6501373326918838
 20
139.2127115207802035
 30
0.0
 40
0.0196851366437159
 50
90.0
 51
173.1901666500255033
  0
LINE
  5
30E07
  8
0
 10
3020.5055318589547824
 20
139.9698299716239092
 30
0.0
 11
3021.1928389630302263
 21
139.9698299716239092
 31
0.0
  0
ARC
  5
30E08
  8
0
 10
3020.8529759631410343
 20
139.2894305572143878
 30
0.0
 40
0.7639769424940078
 50
90.0172192627047707
 51
117.0510047978601023
  0
ARC
  5
30E09
  8
0
 10
3020.8452150200100732
 20
139.2890217640519097
 30
0.0
 40
0.7644228026805108
 50
62.9509250584183775
 51
89.4354941443657339
  0
ARC
  5
30E0A
  8
0
 10
3020.963357005492071
 20
139.2673730353239137
 30
0.0
 40
0.0354330709000053
 50
281.2500000000105729
 51
90.0
  0
ARC
  5
30E0B
  8
0
 10
3021.0482368549151033
 20
139.212711617474497
 30
0.0
 40
0.0196850402371778
 50
6.8096183009466031
 51
90.0097960665830357
  0
ARC
  5
30E0C
  8
0
 10
3021.1467015030520997
 20
139.2186272797565039
 30
0.0
 40
0.0789997044818675
 50
182.5984982252562077
 51
296.7955063664539921
  0
ARC
  5
30E0D
  8
0
 10
3008.9085859166129922
 20
140.6145910761769073
 30
0.0
 40
11.8052586663678003
 50
350.4834298603317961
 51
353.1914173004400936
  0
ARC
  5
30E0E
  8
0
 10
3020.4737223723950592
 20
138.6758119939862013
 30
0.0
 40
0.0787397638814577
 50
319.0794905553154877
 51
350.4837643272791752
  0
ENDSEC
  0
EOF
