  0
SECTION
  2
HEADER
  9
$ACADVER
  1
AC1009
  9
$INSBASE
 10
3042.1420681089412028
 20
152.5621881631801955
 30
0.0
  9
$EXTMIN
 10
3033.9923720865081123
 20
137.0105398890129038
 30
0.0
  9
$EXTMAX
 10
3042.1536109344729084
 20
189.6349550173216869
 30
0.0
  9
$LIMMIN
 10
0.0
 20
0.0
  9
$LIMMAX
 10
11.6929133858000007
 20
8.2677165353999982
  9
$ORTHOMODE
 70
     1
  9
$REGENMODE
 70
     1
  9
$FILLMODE
 70
     1
  9
$QTEXTMODE
 70
     0
  9
$MIRRTEXT
 70
     0
  9
$DRAGMODE
 70
     2
  9
$LTSCALE
 40
0.6431102362
  9
$OSMODE
 70
  4095
  9
$ATTMODE
 70
     1
  9
$TEXTSIZE
 40
0.2
  9
$TRACEWID
 40
0.05
  9
$TEXTSTYLE
  7
STANDARD
  9
$CLAYER
  8
0
  9
$CELTYPE
  6
BYLAYER
  9
$CECOLOR
 62
   256
  9
$DIMSCALE
 40
1.0
  9
$DIMASZ
 40
0.1875
  9
$DIMEXO
 40
0.0625
  9
$DIMDLI
 40
0.4443307087
  9
$DIMRND
 40
0.0
  9
$DIMDLE
 40
0.0
  9
$DIMEXE
 40
0.125
  9
$DIMTP
 40
0.01
  9
$DIMTM
 40
0.01
  9
$DIMTXT
 40
2.0
  9
$DIMCEN
 40
0.1052362205
  9
$DIMTSZ
 40
0.0
  9
$DIMTOL
 70
     1
  9
$DIMLIM
 70
     0
  9
$DIMTIH
 70
     1
  9
$DIMTOH
 70
     1
  9
$DIMSE1
 70
     0
  9
$DIMSE2
 70
     0
  9
$DIMTAD
 70
     0
  9
$DIMZIN
 70
     0
  9
$DIMBLK
  1

  9
$DIMASO
 70
     1
  9
$DIMSHO
 70
     1
  9
$DIMPOST
  1
\X
  9
$DIMAPOST
  1

  9
$DIMALT
 70
     1
  9
$DIMALTD
 70
     2
  9
$DIMALTF
 40
25.3999999999999986
  9
$DIMLFAC
 40
1.0
  9
$DIMTOFL
 70
     0
  9
$DIMTVP
 40
0.0
  9
$DIMTIX
 70
     0
  9
$DIMSOXD
 70
     0
  9
$DIMSAH
 70
     0
  9
$DIMBLK1
  1

  9
$DIMBLK2
  1

  9
$DIMSTYLE
  2
STANDARD
  9
$DIMCLRD
 70
     0
  9
$DIMCLRE
 70
     0
  9
$DIMCLRT
 70
     0
  9
$DIMTFAC
 40
1.0
  9
$DIMGAP
 40
0.09
  9
$LUNITS
 70
     2
  9
$LUPREC
 70
     4
  9
$SKETCHINC
 40
0.1
  9
$FILLETRAD
 40
0.0
  9
$AUNITS
 70
     0
  9
$AUPREC
 70
     0
  9
$MENU
  1
.
  9
$ELEVATION
 40
0.0
  9
$PELEVATION
 40
0.0
  9
$THICKNESS
 40
0.0
  9
$LIMCHECK
 70
     0
  9
$BLIPMODE
 70
     0
  9
$CHAMFERA
 40
0.0
  9
$CHAMFERB
 40
0.0
  9
$SKPOLY
 70
     0
  9
$TDCREATE
 40
2458060.468368056230247
  9
$TDUPDATE
 40
2459663.437800926156342
  9
$TDINDWG
 40
0.4440579861
  9
$TDUSRTIMER
 40
0.4440579861
  9
$USRTIMER
 70
     1
  9
$ANGBASE
 50
0.0
  9
$ANGDIR
 70
     0
  9
$PDMODE
 70
     0
  9
$PDSIZE
 40
0.3125
  9
$PLINEWID
 40
0.0
  9
$COORDS
 70
     1
  9
$SPLFRAME
 70
     0
  9
$SPLINETYPE
 70
     6
  9
$SPLINESEGS
 70
     8
  9
$ATTDIA
 70
     1
  9
$ATTREQ
 70
     1
  9
$HANDLING
 70
     1
  9
$HANDSEED
  5
2F8BC
  9
$SURFTAB1
 70
     6
  9
$SURFTAB2
 70
     6
  9
$SURFTYPE
 70
     6
  9
$SURFU
 70
     6
  9
$SURFV
 70
     6
  9
$UCSNAME
  2

  9
$UCSORG
 10
0.0
 20
0.0
 30
0.0
  9
$UCSXDIR
 10
1.0
 20
0.0
 30
0.0
  9
$UCSYDIR
 10
0.0
 20
1.0
 30
0.0
  9
$PUCSNAME
  2

  9
$PUCSORG
 10
0.0
 20
0.0
 30
0.0
  9
$PUCSXDIR
 10
1.0
 20
0.0
 30
0.0
  9
$PUCSYDIR
 10
0.0
 20
1.0
 30
0.0
  9
$USERI1
 70
     0
  9
$USERI2
 70
     0
  9
$USERI3
 70
     0
  9
$USERI4
 70
     0
  9
$USERI5
 70
     0
  9
$USERR1
 40
0.0
  9
$USERR2
 40
0.0
  9
$USERR3
 40
0.0
  9
$USERR4
 40
0.0
  9
$USERR5
 40
0.0
  9
$WORLDVIEW
 70
     1
  9
$SHADEDGE
 70
     3
  9
$SHADEDIF
 70
    70
  9
$TILEMODE
 70
     1
  9
$MAXACTVP
 70
    64
  9
$PLIMCHECK
 70
     0
  9
$PEXTMIN
 10
1.0000000000000000E+20
 20
1.0000000000000000E+20
 30
1.0000000000000000E+20
  9
$PEXTMAX
 10
-1.0000000000000000E+20
 20
-1.0000000000000000E+20
 30
-1.0000000000000000E+20
  9
$PLIMMIN
 10
0.0
 20
0.0
  9
$PLIMMAX
 10
12.0
 20
9.0
  9
$UNITMODE
 70
     0
  9
$VISRETAIN
 70
     1
  9
$PLINEGEN
 70
     0
  9
$PSLTSCALE
 70
     1
  0
ENDSEC
  0
SECTION
  2
TABLES
  0
TABLE
  2
VPORT
 70
     1
  0
VPORT
  2
*ACTIVE
 70
     0
 10
0.0
 20
0.0
 11
1.0
 21
1.0
 12
-765.3826490883557199
 22
37.3275873205319186
 13
0.0
 23
0.0
 14
1.0
 24
1.0
 15
0.0
 25
0.0
 16
0.0
 26
0.0
 36
17.1152628219792007
 17
3803.5440673828129547
 27
125.9952621967499056
 37
0.0
 40
53.0106165937993694
 41
2.2831541218637992
 42
50.0
 43
0.0
 44
0.0
 50
0.0
 51
0.0
 71
     0
 72
   100
 73
     1
 74
     1
 75
     0
 76
     0
 77
     0
 78
     0
  0
ENDTAB
  0
TABLE
  2
LTYPE
 70
     2
  0
LTYPE
  2
CONTINUOUS
 70
     0
  3
Solid line
 72
    65
 73
     0
 40
0.0
  0
LTYPE
  2
PHANTOM2
 70
     0
  3
___ _ _ ___ _ _ ___ _ _ ___ _ _
 72
    65
 73
     6
 40
1.25
 49
0.625
 49
-0.125
 49
0.125
 49
-0.125
 49
0.125
 49
-0.125
  0
ENDTAB
  0
TABLE
  2
LAYER
 70
     2
  0
LAYER
  2
0
 70
     0
 62
   255
  6
CONTINUOUS
  0
LAYER
  2
DEFPOINTS
 70
     0
 62
     7
  6
CONTINUOUS
  0
ENDTAB
  0
TABLE
  2
STYLE
 70
     1
  0
STYLE
  2
STANDARD
 70
     0
 40
0.0
 41
0.8
 50
0.0
 71
     0
 42
0.2
  3
txt
  4

  0
ENDTAB
  0
TABLE
  2
VIEW
 70
     0
  0
ENDTAB
  0
TABLE
  2
UCS
 70
     0
  0
ENDTAB
  0
TABLE
  2
APPID
 70
     9
  0
APPID
  2
ACAD
 70
     0
  0
APPID
  2
ACAD_MLEADERVER
 70
     0
  0
APPID
  2
ACAD_EXEMPT_FROM_CAD_STANDARDS
 70
     0
  0
APPID
  2
ACAD_NAV_VCDISPLAY
 70
     0
  0
APPID
  2
ACAECLAYERSTANDARD
 70
     0
  0
APPID
  2
ACCMTRANSPARENCY
 70
     0
  0
APPID
  2
ACAD_DSTYLE_DIMJAG
 70
     0
  0
APPID
  2
ACAD_DSTYLE_DIMTALN
 70
     0
  0
APPID
  2
ACDBATTR
 70
     0
  0
ENDTAB
  0
TABLE
  2
DIMSTYLE
 70
     1
  0
DIMSTYLE
  2
STANDARD
 70
     0
  3

  4

  5

  6

  7

 40
1.0
 41
0.1875
 42
0.0625
 43
0.38
 44
0.125
 45
0.0
 46
0.0
 47
0.01
 48
0.01
140
0.15625
141
0.09
142
0.0
143
25.3999999999999986
144
1.0
145
0.0
146
1.0
147
0.09
 71
     1
 72
     0
 73
     1
 74
     1
 75
     0
 76
     0
 77
     0
 78
     4
170
     0
171
     2
172
     0
173
     0
174
     0
175
     0
176
     0
177
     0
178
     0
  0
ENDTAB
  0
ENDSEC
  0
SECTION
  2
BLOCKS
  0
BLOCK
  8
0
  2
$MODEL_SPACE
 70
     0
 10
0.0
 20
0.0
 30
0.0
  3
$MODEL_SPACE
  1

  0
ENDBLK
  5
21
  8
0
  0
BLOCK
 67
     1
  8
0
  2
$PAPER_SPACE
 70
     0
 10
0.0
 20
0.0
 30
0.0
  3
$PAPER_SPACE
  1

  0
ENDBLK
  5
1D
 67
     1
  8
0
  0
ENDSEC
  0
SECTION
  2
ENTITIES
  0
ATTDEF
  5
2D537
  8
DEFPOINTS
 10
3042.1429442678040687
 20
152.5670293861942923
 30
0.0
 40
0.001
  1
TS27375-4G
  3

  2
MODELNUMBER
 70
     0
1001
ACDBATTR
1070
     0
1070
     1
  0
ATTDEF
  5
2D538
  8
DEFPOINTS
 10
3042.1429442678040687
 20
152.5653627195275988
 30
0.0
 40
0.001
  1
LUDGINTON 
  3

  2
TRADENAME
 70
     0
1001
ACDBATTR
1070
     0
1070
     1
  0
ATTDEF
  5
2D539
  8
DEFPOINTS
 10
3042.1429442678040687
 20
152.5636960528609052
 30
0.0
 40
0.001
  1
BATH AND SHOWER TRIM
  3

  2
PRODUCT
 70
     0
1001
ACDBATTR
1070
     0
1070
     1
  0
LINE
  5
2EF0C
  8
0
 10
3042.0002752342397798
 20
189.6349550173216869
 30
0.0
 11
3042.1420681089412028
 21
189.6349550173216869
 31
0.0
  0
LINE
  5
2EF0D
  8
0
 10
3042.1420681089412028
 20
189.6349550173216869
 30
0.0
 11
3042.1420681089412028
 21
187.4870908474445059
 31
0.0
  0
LINE
  5
2EF0E
  8
0
 10
3042.1420681089412028
 20
187.4870908474445059
 30
0.0
 11
3042.0002752342397798
 21
187.4870908474445059
 31
0.0
  0
ARC
  5
2EF0F
  8
0
 10
3042.0002752342397798
 20
187.5470908474443945
 30
0.0
 40
0.0599999999999952
 50
218.8306095672616891
 51
270.0
  0
LINE
  5
2EF10
  8
0
 10
3041.9535350483411094
 20
187.5094696430242038
 30
0.0
 11
3041.8837408452568525
 21
187.5961812216970088
 31
0.0
  0
ARC
  5
2EF11
  8
0
 10
3041.9304810314151837
 20
187.6338024263245927
 30
0.0
 40
0.060000000330701
 50
183.2293798202128983
 51
218.8306095672629965
  0
LINE
  5
2EF12
  8
0
 10
3041.8705763105399456
 20
187.6304224179444873
 30
0.0
 11
3041.8705763106099766
 21
189.4914171917444889
 31
0.0
  0
ARC
  5
2EF13
  8
0
 10
3041.9304810331150293
 20
189.4880371823024063
 30
0.0
 40
0.0600000020860963
 50
141.1693906609908993
 51
176.7706192981451068
  0
LINE
  5
2EF14
  8
0
 10
3041.8837408454401157
 20
189.5256583878444872
 30
0.0
 11
3041.9535350480709894
 21
189.612369966662186
 31
0.0
  0
ARC
  5
2EF15
  8
0
 10
3042.0009555615110912
 20
189.573889695737904
 30
0.0
 40
0.0610691112210411
 50
90.6383044855195408
 51
140.9417453844714032
  0
ARC
  5
2EF16
  8
0
 10
3042.6282256031668112
 20
177.3380303698137936
 30
0.0
 40
11.8676881178881093
 50
133.0271226198437944
 51
135.9728773794325889
  0
ARC
  5
2EF17
  8
0
 10
3035.5495933134898223
 20
184.9765105083224057
 30
0.0
 40
1.454138748126647
 50
80.8726214011383888
 51
134.4999999950308904
  0
ARC
  5
2EF18
  8
0
 10
3035.8114902459960831
 20
186.6065949063442986
 30
0.0
 40
0.1968503941557248
 50
260.8724090492507912
 51
314.999999947499191
  0
LINE
  5
2EF19
  8
0
 10
3035.9506844944548902
 20
186.4674006576300087
 30
0.0
 11
3035.9601844744470327
 21
186.4769006376513971
 31
0.0
  0
LINE
  5
2EF1A
  8
0
 10
3035.9601876151400575
 20
186.4769037783443935
 30
0.0
 11
3036.934547353040216
 21
185.5025440404444907
 31
0.0
  0
LINE
  5
2EF1B
  8
0
 10
3036.934547353040216
 20
185.5025440404444907
 30
0.0
 11
3036.9250442325887889
 21
185.493040920021599
 31
0.0
  0
ARC
  5
2EF1C
  8
0
 10
3037.064238480837048
 20
185.3538466713480091
 30
0.0
 40
0.1968503939778426
 50
134.9999999124987085
 51
189.1275909327569877
  0
ARC
  5
2EF1D
  8
0
 10
3035.4341654645218114
 20
185.0919461095384975
 30
0.0
 40
1.454128086436884
 50
315.5000480848984807
 51
9.1275909327570321
  0
LINE
  5
2EF1E
  8
0
 10
3036.4713238306640051
 20
184.072735132700501
 30
0.0
 11
3036.0437034645478889
 21
183.6375847562538013
 31
0.0
  0
ARC
  5
2EF1F
  8
0
 10
3036.0295897952719315
 20
183.6514541971407084
 30
0.0
 40
0.0197878005586551
 50
230.8675314769201066
 51
315.5000480849008113
  0
ARC
  5
2EF20
  8
0
 10
3041.3945034668831795
 20
189.4892768184930958
 30
0.0
 40
0.476077655079591
 50
321.6520336939702815
 51
0.2575940360722492
  0
ARC
  5
2EF21
  8
0
 10
3041.4571310432497739
 20
189.4704489089862989
 30
0.0
 40
0.4159781752151415
 50
288.7454166212319251
 51
318.3320162934052746
  0
ARC
  5
2EF22
  8
0
 10
3041.3111136206721312
 20
189.9001803637063972
 30
0.0
 40
0.8698396042130601
 50
272.2056033367368855
 51
288.7567431550194783
  0
ARC
  5
2EF23
  8
0
 10
3041.3479652597688982
 20
188.9711026747611129
 30
0.0
 40
0.059977554050883
 50
93.2261783236555743
 51
159.9783324744765025
  0
ARC
  5
2EF24
  8
0
 10
3041.3007702880590841
 20
188.9882496557976879
 30
0.0
 40
0.0097643055941144
 50
159.6982655490195953
 51
180.11904502599441
  0
LINE
  5
2EF25
  8
0
 10
3041.291006003540133
 20
188.9882293682445038
 30
0.0
 11
3041.291006003540133
 21
188.1336102413445133
 31
0.0
  0
ARC
  5
2EF26
  8
0
 10
3041.301006003540806
 20
188.1336102413445133
 30
0.0
 40
0.0100000000001757
 50
180.0000000002034994
 51
200.0582005177467977
  0
ARC
  5
2EF27
  8
0
 10
3041.3479732392720507
 20
188.1507589662193141
 30
0.0
 40
0.0599999999710647
 50
200.0582005177498104
 51
266.7673978310502889
  0
ARC
  5
2EF28
  8
0
 10
3041.2824231701561075
 20
186.9901594816498118
 30
0.0
 40
1.102449128010049
 50
78.1014193125462555
 51
86.7673978310503173
  0
ARC
  5
2EF29
  8
0
 10
3041.4129644524109608
 20
187.5747032936650101
 30
0.0
 40
0.5036014660600832
 50
51.2130289491093222
 51
78.922343893752867
  0
ARC
  5
2EF2A
  8
0
 10
3041.4807947520012021
 20
187.6812904375892117
 30
0.0
 40
0.3782835102030359
 50
16.8369975769396909
 51
49.1077366986013715
  0
ARC
  5
2EF2B
  8
0
 10
3041.2281546796398288
 20
187.6020629541964126
 30
0.0
 40
0.643047285222812
 50
2.5276597859288898
 51
17.0734742058606805
  0
LINE
  5
2EF2C
  8
0
 10
3039.6240948651420695
 20
188.1593450016445104
 30
0.0
 11
3041.2916125564402137
 21
188.1593450016445104
 31
0.0
  0
LINE
  5
2EF2D
  8
0
 10
3036.9696862882001369
 20
185.4952453968031136
 30
0.0
 11
3035.9697674229319091
 21
186.4951628202531992
 31
0.0
  0
ARC
  5
2EF2E
  8
0
 10
3035.9836868478569158
 20
186.5090822450773942
 30
0.0
 40
0.0196850394381216
 50
130.1611015233669093
 51
224.9999997926188939
  0
LINE
  5
2EF2F
  8
0
 10
3035.9709911983450183
 20
186.5241262226489027
 30
0.0
 11
3036.5114920359878852
 21
186.980256203068393
 31
0.0
  0
ARC
  5
2EF30
  8
0
 10
3036.5241876851700908
 20
186.9652122258868019
 30
0.0
 40
0.0196850389278418
 50
44.9999861852344125
 51
130.1611015233690125
  0
LINE
  5
2EF31
  8
0
 10
3036.5381071130400414
 20
186.9791316470445111
 30
0.0
 11
3037.4533699948101457
 21
186.0638683239108957
 31
0.0
  0
ARC
  5
2EF32
  8
0
 10
3037.4392665398740974
 20
186.0497648757753097
 30
0.0
 40
0.0199452924387047
 50
320.5271158728431828
 51
44.9999861852367076
  0
LINE
  5
2EF33
  8
0
 10
3037.4546628202729153
 20
186.0370853947007959
 30
0.0
 11
3036.99853284858591
 21
185.4965845615614057
 31
0.0
  0
ARC
  5
2EF34
  8
0
 10
3036.9834883656130842
 20
185.5092817708508903
 30
0.0
 40
0.0196864316639835
 50
225.4688887321846096
 51
319.8363778120813095
  0
LINE
  5
2EF35
  8
0
 10
3036.8927890785412274
 20
185.5443023149445025
 30
0.0
 11
3036.9067085032988871
 21
185.5582217396732005
 31
0.0
  0
LINE
  5
2EF36
  8
0
 10
3036.0019458896408651
 20
186.4351455038444954
 30
0.0
 11
3036.0158653477260486
 21
186.4490649619295937
 31
0.0
  0
ARC
  5
2EF37
  8
0
 10
3036.7032889749762035
 20
186.8730260709747881
 30
0.0
 40
0.0853574104035126
 50
285.6836223498020217
 51
5.0000001798287981
  0
LINE
  5
2EF38
  8
0
 10
3036.788321574640122
 20
186.8804654597444994
 30
0.0
 11
3036.7781611183399946
 21
186.9966000064445097
 31
0.0
  0
ARC
  5
2EF39
  8
0
 10
3036.8173814104129633
 20
187.0000313373876963
 30
0.0
 40
0.0393701072168129
 50
135.0000191563227077
 51
185.0000000098035002
  0
LINE
  5
2EF3A
  8
0
 10
3036.7895425313158739
 20
187.0278701978691061
 30
0.0
 11
3037.2553891207639936
 21
187.4937170988206958
 31
0.0
  0
ARC
  5
2EF3B
  8
0
 10
3037.2609568906627828
 20
187.4881493326448947
 30
0.0
 40
0.0078740130705862
 50
44.9983777980541575
 51
135.0000191563204055
  0
LINE
  5
2EF3C
  8
0
 10
3037.2665248163370961
 20
187.4937169430411075
 30
0.0
 11
3037.9513399376041889
 21
186.8088630426570091
 31
0.0
  0
ARC
  5
2EF3D
  8
0
 10
3037.9457706229200085
 20
186.8032940433292026
 30
0.0
 40
0.0078759773720731
 50
315.2137519462173145
 51
44.9983777980806394
  0
LINE
  5
2EF3E
  8
0
 10
3037.9513605178399303
 20
186.7977457017445033
 30
0.0
 11
3037.4855137710901545
 21
186.3318989549945002
 31
0.0
  0
ARC
  5
2EF3F
  8
0
 10
3037.4576749223838306
 20
186.3597378087079051
 30
0.0
 40
0.0393700812086052
 50
264.9999816315769863
 51
315.0066668898303988
  0
LINE
  5
2EF40
  8
0
 10
3037.4542435811408723
 20
186.3205175436445131
 30
0.0
 11
3037.3381090379630223
 21
186.3306780371327136
 31
0.0
  0
ARC
  5
2EF41
  8
0
 10
3037.3306696257741351
 20
186.2456454806815884
 30
0.0
 40
0.0853573693967349
 50
84.9999816315770289
 51
164.3006823454711025
  0
ARC
  5
2EF42
  8
0
 10
3037.5754084265568054
 20
187.172033433722703
 30
0.0
 40
0.0105632660762649
 50
336.7953098680430912
 51
13.9622042493648006
  0
ARC
  5
2EF43
  8
0
 10
3037.5758727679990443
 20
187.1732598340072968
 30
0.0
 40
0.0107002219506797
 50
314.9001082294271896
 51
329.7623043386664108
  0
LINE
  5
2EF44
  8
0
 10
3037.5834257647397862
 20
187.1656804547444892
 30
0.0
 11
3037.1783705160592035
 21
186.7606251784636129
 31
0.0
  0
ARC
  5
2EF45
  8
0
 10
3037.1824881598918182
 20
186.7565075349122026
 30
0.0
 40
0.0058232275537994
 50
135.0000019520356034
 51
186.0649391721678114
  0
ARC
  5
2EF46
  8
0
 10
3037.192600900476009
 20
186.7575820165847915
 30
0.0
 40
0.0159928899369162
 50
186.0649391721792085
 51
207.1034525006622005
  0
ARC
  5
2EF47
  8
0
 10
3037.2045638485701602
 20
186.7637046760600015
 30
0.0
 40
0.0294316058777768
 50
207.1034525006622005
 51
220.0226714740149987
  0
ARC
  5
2EF48
  8
0
 10
3037.3011867063628415
 20
186.8448460542390137
 30
0.0
 40
0.1556056915734081
 50
220.0226714740149987
 51
232.0062377613456874
  0
ARC
  5
2EF49
  8
0
 10
3037.2161173187901113
 20
186.737283448689908
 30
0.0
 40
0.0184899117073169
 50
234.5740147563118114
 51
258.8577270904251009
  0
ARC
  5
2EF4A
  8
0
 10
3037.2136307888840747
 20
186.7263483682438903
 30
0.0
 40
0.0072877593802649
 50
261.4255040853689138
 51
309.5243823900669895
  0
LINE
  5
2EF4B
  8
0
 10
3037.2182687665408594
 20
186.7207269271443977
 30
0.0
 11
3037.6233240300880425
 21
187.1257821905921048
 31
0.0
  0
ARC
  5
2EF4C
  8
0
 10
3037.6305424919851248
 20
187.1186472406616872
 30
0.0
 40
0.0101495666243825
 50
105.2124699477030987
 51
135.333358316881089
  0
ARC
  5
2EF4D
  8
0
 10
3037.629465154438094
 20
187.122609093444396
 30
0.0
 40
0.0060438469967407
 50
79.0473061926163467
 51
105.2124699477299004
  0
ARC
  5
2EF4E
  8
0
 10
3037.6296683975479027
 20
187.1236593173373137
 30
0.0
 40
0.00497413769645
 50
56.4978846995419914
 51
79.0473061926163467
  0
ARC
  5
2EF4F
  8
0
 10
3037.3032914743757829
 20
187.454706236624105
 30
0.0
 40
0.0019272752004756
 50
79.5805415060855807
 51
102.1976893225202048
  0
ARC
  5
2EF50
  8
0
 10
3037.3046212906529036
 20
187.4504381700666045
 30
0.0
 40
0.0063923614552729
 50
105.7674704507698067
 51
122.4281891588922946
  0
ARC
  5
2EF51
  8
0
 10
3037.3143828273778126
 20
187.4351273912567137
 30
0.0
 40
0.0245502062289503
 50
122.4960543063356937
 51
135.6667188381962035
  0
LINE
  5
2EF52
  8
0
 10
3037.2968223857978955
 20
187.4522838337020971
 30
0.0
 11
3036.8917671296399021
 21
187.0472285650444917
 31
0.0
  0
ARC
  5
2EF53
  8
0
 10
3036.8969398417161756
 20
187.0420559220164023
 30
0.0
 40
0.007315270747457
 50
135.0003824048613126
 51
169.9184280573819876
  0
ARC
  5
2EF54
  8
0
 10
3036.8978277007340694
 20
187.0418980648437071
 30
0.0
 40
0.0082170537167617
 50
169.9184280573788044
 51
198.9779921194900112
  0
ARC
  5
2EF55
  8
0
 10
3036.9097031818678261
 20
187.0459820192853897
 30
0.0
 40
0.02077514815933
 50
198.9779921194869132
 51
221.276611123072712
  0
ARC
  5
2EF56
  8
0
 10
3037.0082062897190553
 20
187.1324478950407979
 30
0.0
 40
0.1518446332678676
 50
221.276611123072712
 51
224.4323914256908949
  0
ARC
  5
2EF57
  8
0
 10
3036.9072762044438605
 20
187.0334980131208056
 30
0.0
 40
0.0105012172706154
 50
224.4323914256908949
 51
251.5269367663073865
  0
ARC
  5
2EF58
  8
0
 10
3036.9003688155657983
 20
187.0379449497339976
 30
0.0
 40
0.0148451869375049
 50
283.9547105617095895
 51
316.8620892035904717
  0
LINE
  5
2EF59
  8
0
 10
3036.9112014971678946
 20
187.0277944529717047
 30
0.0
 11
3037.3162566318401332
 21
187.4328495877444993
 31
0.0
  0
ARC
  5
2EF5A
  8
0
 10
3037.3230529639531596
 20
187.4259015682189045
 30
0.0
 40
0.0097193159570666
 50
79.8213340535472184
 51
134.3676896453027041
  0
ARC
  5
2EF5B
  8
0
 10
3037.9089747331508988
 20
186.8462231100785118
 30
0.0
 40
0.0052383951666163
 50
327.0578135657239045
 51
357.5244036775445124
  0
ARC
  5
2EF5C
  8
0
 10
3037.8930466005022026
 20
186.8565441251658115
 30
0.0
 40
0.0242180885820907
 50
314.1894468628258892
 51
327.0578135657265761
  0
LINE
  5
2EF5D
  8
0
 10
3037.9099274085401703
 20
186.8391788110444907
 30
0.0
 11
3037.5048721481480243
 21
186.4341235467495039
 31
0.0
  0
ARC
  5
2EF5E
  8
0
 10
3037.4996831181770176
 20
186.4393356623635043
 30
0.0
 40
0.007354738690537
 50
290.4475153183482803
 51
314.8728305668557823
  0
ARC
  5
2EF5F
  8
0
 10
3037.4995422481288188
 20
186.4397134911556861
 30
0.0
 40
0.0077579743120483
 50
252.1483815387659035
 51
290.4475153183731777
  0
ARC
  5
2EF60
  8
0
 10
3037.5031112555848267
 20
186.4507953366484969
 30
0.0
 40
0.0194003586787709
 50
238.0697906977165133
 51
252.1483815387653067
  0
ARC
  5
2EF61
  8
0
 10
3037.5109730847320861
 20
186.4634110618574141
 30
0.0
 40
0.0342652461685652
 50
224.778537321876712
 51
238.0697906977173091
  0
ARC
  5
2EF62
  8
0
 10
3037.513859370713817
 20
186.4662751211893976
 30
0.0
 40
0.0383313847084019
 50
211.550212919723009
 51
224.778537321877792
  0
ARC
  5
2EF63
  8
0
 10
3037.49502257771519
 20
186.4431309053724135
 30
0.0
 40
0.0141628295454727
 50
132.5896383329395007
 51
167.4397477482652903
  0
LINE
  5
2EF64
  8
0
 10
3037.4854379842408889
 20
186.4535578564444904
 30
0.0
 11
3037.8904931736901744
 21
186.8586130458944865
 31
0.0
  0
ARC
  5
2EF65
  8
0
 10
3037.8834369927958505
 20
186.8651747995650965
 30
0.0
 40
0.0096356784948338
 50
317.0793282063183938
 51
13.5895857503589799
  0
LINE
  5
2EF66
  8
0
 10
3036.778135490348177
 20
186.9969067413221921
 30
0.0
 11
3037.4542435811408723
 21
186.3205175436445131
 31
0.0
  0
LINE
  5
2EF67
  8
0
 10
3037.338109034540139
 20
186.3306779999444984
 30
0.0
 11
3036.788321574640122
 21
186.8804654597444994
 31
0.0
  0
ARC
  5
2EF68
  8
0
 10
3037.5665036370201051
 20
187.4975287698163129
 30
0.0
 40
0.2417386774613913
 50
194.9659916762967953
 51
197.6996239160897062
  0
LINE
  5
2EF69
  8
0
 10
3037.3329650564987787
 20
187.4351009626373923
 30
0.0
 11
3037.3527619786400464
 21
187.45605802934449
 31
0.0
  0
LINE
  5
2EF6A
  8
0
 10
3037.3527619786400464
 20
187.45605802934449
 30
0.0
 11
3037.3798317121400032
 21
187.44764089684449
 31
0.0
  0
ARC
  5
2EF6B
  8
0
 10
3037.3825716478559116
 20
187.4564526067258896
 30
0.0
 40
0.0092278642577226
 50
252.7273065613929077
 51
17.189636385418499
  0
LINE
  5
2EF6C
  8
0
 10
3037.3913873203409821
 20
187.4591797659444978
 30
0.0
 11
3037.3823119258149745
 21
187.4885164123923005
 31
0.0
  0
LINE
  5
2EF6D
  8
0
 10
3037.3823119258149745
 20
187.4885164123923005
 30
0.0
 11
3037.4318124171090858
 21
187.5419755876131092
 31
0.0
  0
LINE
  5
2EF6E
  8
0
 10
3037.4318124171090858
 20
187.5419755876131092
 30
0.0
 11
3038.2583668837401092
 21
188.3686357207444928
 31
0.0
  0
ARC
  5
2EF6F
  8
0
 10
3039.7447919388027913
 20
186.8076493838717056
 30
0.0
 40
2.155490150341568
 50
88.598380378422533
 51
133.5984187727943038
  0
ARC
  5
2EF70
  8
0
 10
3039.6580815385409551
 20
187.0169863736824993
 30
0.0
 40
1.1428640902783791
 50
91.704122208141186
 51
136.7041131423779063
  0
LINE
  5
2EF71
  8
0
 10
3038.8262799229401026
 20
187.8007238304444968
 30
0.0
 11
3037.9996720498179457
 21
186.9741159574672906
 31
0.0
  0
LINE
  5
2EF72
  8
0
 10
3037.9996720498179457
 20
186.9741159574672906
 30
0.0
 11
3037.9719472957290236
 21
186.9494860407864962
 31
0.0
  0
LINE
  5
2EF73
  8
0
 10
3037.9719472957290236
 20
186.9494860407864962
 30
0.0
 11
3037.9417051304408233
 21
186.9589996257444966
 31
0.0
  0
ARC
  5
2EF74
  8
0
 10
3037.9395218346680849
 20
186.9499120009363082
 30
0.0
 40
0.0093462134089326
 50
76.4907599535315654
 51
195.640341182071495
  0
LINE
  5
2EF75
  8
0
 10
3037.9305216836401087
 20
186.9473922813945137
 30
0.0
 11
3037.9393493278407732
 21
186.9184258252444977
 31
0.0
  0
LINE
  5
2EF76
  8
0
 10
3037.9393493278407732
 20
186.9184258252444977
 30
0.0
 11
3037.9194643624400669
 21
186.9000344030444012
 31
0.0
  0
LINE
  5
2EF77
  8
0
 10
3037.9194643624400669
 20
186.9000344030444012
 30
0.0
 11
3037.8913481289400806
 21
186.9086003820445114
 31
0.0
  0
ARC
  5
2EF78
  8
0
 10
3037.8891597430788352
 20
186.8992804656558064
 30
0.0
 40
0.009573394077878
 50
76.7859038361166881
 51
199.4999078238768107
  0
LINE
  5
2EF79
  8
0
 10
3037.8801354594688746
 20
186.8960848155645067
 30
0.0
 11
3037.887900468755106
 21
186.872306103900911
 31
0.0
  0
ARC
  5
2EF7A
  8
0
 10
3034.4178103870740415
 20
183.9439223708100997
 30
0.0
 40
4.5482488139025019
 50
45.1171490647668705
 51
50.1379087044334781
  0
ARC
  5
2EF7B
  8
0
 10
3040.8201265279508334
 20
190.3724730118725006
 30
0.0
 40
4.524563060727778
 50
225.1171490647668065
 51
230.1266883020863929
  0
ARC
  5
2EF7C
  8
0
 10
3041.6620563125238732
 20
191.2860946515785088
 30
0.0
 40
5.738909153344391
 50
225.3803076530369935
 51
229.5579595736294891
  0
ARC
  5
2EF7D
  8
0
 10
3034.0821726328831573
 20
183.6049123163294894
 30
0.0
 40
5.0525318377479369
 50
45.380307653036958
 51
49.6603867568409783
  0
ARC
  5
2EF7E
  8
0
 10
3036.0868005647071186
 20
185.867699552660099
 30
0.0
 40
2.074945054586709
 50
45.4467913554440202
 51
51.3648185693321722
  0
ARC
  5
2EF7F
  8
0
 10
3131.5514801042518229
 20
287.0069903125148016
 30
0.0
 40
137.0034179832267114
 50
226.6715492044681923
 51
226.8522084715725953
  0
ARC
  5
2EF80
  8
0
 10
3043.5268274094150911
 20
193.3811235086884892
 30
0.0
 40
8.4983912357542621
 50
228.1534584014057998
 51
229.1834664188230022
  0
ARC
  5
2EF81
  8
0
 10
3034.6738272236498233
 20
184.2074041391076946
 30
0.0
 40
4.2379014566368829
 50
46.0970034120602108
 51
50.1155192769277775
  0
ARC
  5
2EF82
  8
0
 10
3046.0471969703448849
 20
196.0248469010140013
 30
0.0
 40
12.1634854611200698
 50
226.0970034120601895
 51
227.9289955809520904
  0
ARC
  5
2EF83
  8
0
 10
3038.3070661369170011
 20
187.4499547390045109
 30
0.0
 40
0.6119314137772872
 50
227.9289955809520904
 51
233.3583678916141082
  0
ARC
  5
2EF84
  8
0
 10
3039.5196532426048179
 20
188.8994288546126086
 30
0.0
 40
2.5178131158191159
 50
226.0594666565824014
 51
230.8645766286178116
  0
ARC
  5
2EF85
  8
0
 10
3027.5080343122590421
 20
176.4351704440767037
 30
0.0
 40
14.7922049966053706
 50
46.0594666565824227
 51
47.8108300033769282
  0
ARC
  5
2EF86
  8
0
 10
3036.6834661689399582
 20
186.5581064757089109
 30
0.0
 40
1.129760718325252
 50
47.8108300033769282
 51
51.9343228893252018
  0
ARC
  5
2EF87
  8
0
 10
3035.9020439134678782
 20
183.6331593457703093
 30
0.0
 40
0.098431811626202
 50
270.2236149823486926
 51
314.7992505505105783
  0
LINE
  5
2EF88
  8
0
 10
3035.9714014216938267
 20
183.5633141054688053
 30
0.0
 11
3036.0252469705119438
 21
183.6167850473497083
 31
0.0
  0
ARC
  5
2EF89
  8
0
 10
3036.0196986696328167
 20
183.6223722185370946
 30
0.0
 40
0.0078740157811062
 50
314.7999998958812853
 51
44.9999999999953886
  0
LINE
  5
2EF8A
  8
0
 10
3036.0252664395870852
 20
183.6279399884911072
 30
0.0
 11
3034.0855835632369235
 21
185.5676228648410984
 31
0.0
  0
ARC
  5
2EF8B
  8
0
 10
3034.0800157870621661
 20
185.5620586511446959
 30
0.0
 40
0.0078715059292249
 50
44.9816641067765701
 51
135.2183068718449022
  0
LINE
  5
2EF8C
  8
0
 10
3034.074428624885968
 20
185.5676033986061952
 30
0.0
 11
3034.0209576555957938
 21
185.5137578769312086
 31
0.0
  0
ARC
  5
2EF8D
  8
0
 10
3034.0907972025529489
 20
185.4444041376717962
 30
0.0
 40
0.0984251160443805
 50
135.1999709786693984
 51
209.1097485930596065
  0
ARC
  5
2EF8E
  8
0
 10
3037.7339040444271632
 20
187.4729433556402967
 30
0.0
 40
4.2682211326557837
 50
209.1097485930596065
 51
212.9592968252387948
  0
ARC
  5
2EF8F
  8
0
 10
3037.8355020804328888
 20
187.1183101680292964
 30
0.0
 40
4.0839691182605291
 50
236.95441132058059
 51
240.9777155544715868
  0
ARC
  5
2EF90
  8
0
 10
3035.9091981911319635
 20
183.6609043112360098
 30
0.0
 40
0.12635752604002
 50
244.1808574620563093
 51
266.9286754235653234
  0
LINE
  5
2EF91
  8
0
 10
3034.8187947802662165
 20
184.2720668874821115
 30
0.0
 11
3034.7297104614949603
 21
184.3611512065106126
 31
0.0
  0
ARC
  5
2EF92
  8
0
 10
3034.75754931113579
 20
184.3889900560704973
 30
0.0
 40
0.0393700786651827
 50
134.9999999407999098
 51
224.9999999173118965
  0
LINE
  5
2EF93
  8
0
 10
3034.7297104615640819
 20
184.416828905699191
 30
0.0
 11
3034.7523789193987795
 21
184.4394973634871917
 31
0.0
  0
LINE
  5
2EF94
  8
0
 10
3034.7523789193987795
 20
184.4394973634871917
 30
0.0
 11
3034.7817678558321859
 21
184.4214946324854907
 31
0.0
  0
LINE
  5
2EF95
  8
0
 10
3034.857769169876974
 20
184.3333123566478093
 30
0.0
 11
3034.7909559308018288
 21
184.4001255958723107
 31
0.0
  0
ARC
  5
2EF96
  8
0
 10
3034.8132270105688804
 20
184.4223966755901074
 30
0.0
 40
0.0314960630207644
 50
134.999999898449488
 51
224.9999999362055121
  0
LINE
  5
2EF97
  8
0
 10
3034.7909559308659482
 20
184.4446677553723077
 30
0.0
 11
3034.8182814270639938
 21
184.4719932514738048
 31
0.0
  0
ARC
  5
2EF98
  8
0
 10
3034.7451483778909278
 20
184.2875044545370997
 30
0.0
 40
0.198455433476913
 50
21.6240221278144205
 51
68.3761718394368501
  0
LINE
  5
2EF99
  8
0
 10
3034.9296369272451557
 20
184.3606381282720861
 30
0.0
 11
3034.9023113350008316
 21
184.3333123509164011
 31
0.0
  0
ARC
  5
2EF9A
  8
0
 10
3034.8800402553038111
 20
184.3555832797424046
 30
0.0
 40
0.0314959562737794
 50
224.9997912049765034
 51
315.0001940688043192
  0
ARC
  5
2EF9B
  8
0
 10
3034.7990533645879623
 20
184.2548551562526882
 30
0.0
 40
0.1058848496913809
 50
22.1255470794071805
 51
40.8408830450453522
  0
LINE
  5
2EF9C
  8
0
 10
3034.8971409373489223
 20
184.294735345118994
 30
0.0
 11
3034.8744724796169976
 21
184.272066887351798
 31
0.0
  0
ARC
  5
2EF9D
  8
0
 10
3034.8466336300321018
 20
184.2999057373631899
 30
0.0
 40
0.0393700789451614
 50
225.0000001189667103
 51
314.9999995605281811
  0
LINE
  5
2EF9E
  8
0
 10
3034.6307177484991371
 20
184.4601439197923867
 30
0.0
 11
3034.5416334297278809
 21
184.5492282388208878
 31
0.0
  0
ARC
  5
2EF9F
  8
0
 10
3034.5694722793678011
 20
184.5770670883806872
 30
0.0
 40
0.0393700786651827
 50
134.9999999407999098
 51
224.9999999173118965
  0
LINE
  5
2EFA0
  8
0
 10
3034.541633429796093
 20
184.6049059380094945
 30
0.0
 11
3034.5643018876307906
 21
184.6275743957974953
 31
0.0
  0
LINE
  5
2EFA1
  8
0
 10
3034.5643018876307906
 20
184.6275743957974953
 30
0.0
 11
3034.5936908240651064
 21
184.6095716647957943
 31
0.0
  0
LINE
  5
2EFA2
  8
0
 10
3034.6696921381089851
 20
184.5213893889581129
 30
0.0
 11
3034.6028788990338398
 21
184.5882026281825006
 31
0.0
  0
ARC
  5
2EFA3
  8
0
 10
3034.6251499788008914
 20
184.610473707900411
 30
0.0
 40
0.0314960630207644
 50
134.999999898449488
 51
224.9999999362055121
  0
LINE
  5
2EFA4
  8
0
 10
3034.6028788990979592
 20
184.6327447876824976
 30
0.0
 11
3034.6302043952969143
 21
184.6600702837841084
 31
0.0
  0
ARC
  5
2EFA5
  8
0
 10
3034.5570713461238483
 20
184.4755814868474033
 30
0.0
 40
0.198455433476913
 50
21.6240221278144205
 51
68.3761718394368501
  0
LINE
  5
2EFA6
  8
0
 10
3034.7415598954771667
 20
184.5487151605823897
 30
0.0
 11
3034.7142343032328426
 21
184.5213893832267047
 31
0.0
  0
ARC
  5
2EFA7
  8
0
 10
3034.6919632235371864
 20
184.5436603120527082
 30
0.0
 40
0.0314959562737794
 50
224.9997912049765034
 51
315.0001940688043192
  0
ARC
  5
2EFA8
  8
0
 10
3034.6109763328208828
 20
184.4429321885629918
 30
0.0
 40
0.1058848496913809
 50
22.1255470794071805
 51
40.8408830450453522
  0
LINE
  5
2EFA9
  8
0
 10
3034.7090639055818428
 20
184.4828123774292976
 30
0.0
 11
3034.6863954478490086
 21
184.4601439196619879
 31
0.0
  0
ARC
  5
2EFAA
  8
0
 10
3034.6585565982650223
 20
184.4879827696734935
 30
0.0
 40
0.0393700789451614
 50
225.0000001189667103
 51
314.9999995605281811
  0
ARC
  5
2EFAB
  8
0
 10
3034.5211600917918986
 20
184.6253792765448054
 30
0.0
 40
0.0393700789821471
 50
224.9999938644820929
 51
285.5866244129703091
  0
LINE
  5
2EFAC
  8
0
 10
3034.4933212389860273
 20
184.5975404297018088
 30
0.0
 11
3034.3538860064381879
 21
184.7369756921131057
 31
0.0
  0
ARC
  5
2EFAD
  8
0
 10
3034.3817248619548081
 20
184.7648145416675902
 30
0.0
 40
0.0393700828167918
 50
135.0000360699752946
 51
224.9999938644810129
  0
LINE
  5
2EFAE
  8
0
 10
3034.3538859918930939
 20
184.792653376677606
 30
0.0
 11
3034.3787950205219204
 21
184.8175624366685099
 31
0.0
  0
LINE
  5
2EFAF
  8
0
 10
3034.4335232647381417
 20
184.7715887861880049
 30
0.0
 11
3034.4042369235130536
 21
184.742302444897291
 31
0.0
  0
ARC
  5
2EFB0
  8
0
 10
3034.4320757732830316
 20
184.7144635951900966
 30
0.0
 40
0.0393700788614773
 50
135.0000000647904983
 51
224.9529452974269077
  0
LINE
  5
2EFB1
  8
0
 10
3034.509783549679014
 20
184.6812979778499937
 30
0.0
 11
3034.4429703106698071
 21
184.748111217007704
 31
0.0
  0
ARC
  5
2EFB2
  8
0
 10
3034.4652413905041612
 20
184.7703822967922918
 30
0.0
 40
0.0314960631150427
 50
135.0000000699502891
 51
224.9999999362067058
  0
LINE
  5
2EFB3
  8
0
 10
3034.4429703106679881
 20
184.7926533765744068
 30
0.0
 11
3034.4760415809769256
 21
184.825724646964801
 31
0.0
  0
ARC
  5
2EFB4
  8
0
 10
3034.3580266424592082
 20
184.6277088720331108
 30
0.0
 40
0.2305163179369659
 50
19.0389844883755117
 51
59.2055838327882284
  0
LINE
  5
2EFB5
  8
0
 10
3034.5759329888378488
 20
184.7029059267825062
 30
0.0
 11
3034.5543257092072054
 21
184.6812979777137116
 31
0.0
  0
ARC
  5
2EFB6
  8
0
 10
3034.5320546295120039
 20
184.7035690576281013
 30
0.0
 40
0.0314960631090919
 50
224.999999949369311
 51
314.9999997188639895
  0
ARC
  5
2EFB7
  8
0
 10
3034.225906039696838
 20
184.7349622476602065
 30
0.0
 40
0.2445855330923268
 50
17.5642098955837298
 51
31.1477827806336691
  0
ARC
  5
2EFB8
  8
0
 10
3033.803570217298784
 20
184.4797123659282079
 30
0.0
 40
0.7380630391700108
 50
31.1477827806336691
 51
42.806654553413523
  0
ARC
  5
2EFB9
  8
0
 10
3034.2490417924068424
 20
184.8923196823301112
 30
0.0
 40
0.130864783426593
 50
42.806654553413523
 51
50.5901002607919068
  0
ARC
  5
2EFBA
  8
0
 10
3034.3204857427440402
 20
184.979266337467493
 30
0.0
 40
0.0183305269568086
 50
50.5901002608172234
 51
62.7513002537626434
  0
ARC
  5
2EFBB
  8
0
 10
3034.3283009928109095
 20
184.992919529168887
 30
0.0
 40
0.0027054941023676
 50
77.6762039847438786
 51
192.3237958498899047
  0
ARC
  5
2EFBC
  8
0
 10
3034.4035050518759817
 20
185.0065071694669996
 30
0.0
 40
0.0791254571800437
 50
190.3127204717737868
 51
206.7939061410307033
  0
LINE
  5
2EFBD
  8
0
 10
3034.4392985334170589
 20
184.8544851601999142
 30
0.0
 11
3034.4102185302349426
 21
184.8254051571016134
 31
0.0
  0
ARC
  5
2EFBE
  8
0
 10
3034.387976995588815
 20
184.8476466918114056
 30
0.0
 40
0.0314542799892195
 50
253.0273928175849107
 51
314.9999999173199967
  0
ARC
  5
2EFBF
  8
0
 10
3034.3880812425600197
 20
184.8479882522512128
 30
0.0
 40
0.0318113947673567
 50
225.1424551439106096
 51
253.0273928176102913
  0
LINE
  5
2EFC0
  8
0
 10
3034.3656431862868885
 20
184.825438341658014
 30
0.0
 11
3034.2988299472840481
 21
184.8922515808544063
 31
0.0
  0
ARC
  5
2EFC1
  8
0
 10
3034.3211010271688792
 20
184.9145226605272967
 30
0.0
 40
0.0314960631048815
 50
135.000000049009401
 51
225.0005310086187933
  0
LINE
  5
2EFC2
  8
0
 10
3034.2988299473481675
 20
184.9367937403104065
 30
0.0
 11
3034.3441960616951292
 21
184.9821598547349026
 31
0.0
  0
ARC
  5
2EFC3
  8
0
 10
3034.2773114752071706
 20
184.9583122125135048
 30
0.0
 40
0.0314960629999876
 50
224.9999999173026879
 51
304.4524960989223246
  0
LINE
  5
2EFC4
  8
0
 10
3034.2550403954469402
 20
184.9360411328175928
 30
0.0
 11
3034.0949846904782135
 21
185.0960968382485987
 31
0.0
  0
ARC
  5
2EFC5
  8
0
 10
3034.1172557702097947
 20
185.1183679179164869
 30
0.0
 40
0.0314960629604499
 50
134.9999999192706071
 51
224.99999991730499
  0
LINE
  5
2EFC6
  8
0
 10
3034.0949846905409686
 20
185.1406389976478977
 30
0.0
 11
3034.1340655129602055
 21
185.1797198199562899
 31
0.0
  0
LINE
  5
2EFC7
  8
0
 10
3034.1613224430880109
 20
185.1595474601718081
 30
0.0
 11
3034.1186993354849619
 21
185.1169243526923083
 31
0.0
  0
ARC
  5
2EFC8
  8
0
 10
3034.1409786181379786
 20
185.0946450699750017
 30
0.0
 40
0.0315076637333647
 50
134.9999999173211052
 51
223.4451603672762872
  0
ARC
  5
2EFC9
  8
0
 10
3034.3979059954072
 20
185.3046974004504079
 30
0.0
 40
0.2873454520908838
 50
202.6590141776518124
 51
211.9969989718528041
  0
ARC
  5
2EFCA
  8
0
 10
3033.9685018406657946
 20
185.028654540134994
 30
0.0
 40
0.2330509412862856
 50
34.1699412724043796
 51
45.1923389614605711
  0
ARC
  5
2EFCB
  8
0
 10
3032.4758459958729873
 20
183.9396531042569904
 30
0.0
 40
2.0806184402026839
 50
33.1418952830119125
 51
35.8958260496300809
  0
LINE
  5
2EFCC
  8
0
 10
3034.225521827088869
 20
185.0846911979882066
 30
0.0
 11
3034.1882271576491803
 21
185.0473965328108932
 31
0.0
  0
ARC
  5
2EFCD
  8
0
 10
3034.2107776474258571
 20
185.0248460404550883
 30
0.0
 40
0.0318912103048171
 50
134.9999967249279109
 51
215.9711780410100914
  0
ARC
  5
2EFCE
  8
0
 10
3033.9515343581319939
 20
184.7865659883784986
 30
0.0
 40
0.4049046477262845
 50
24.8700722571243595
 51
47.4159068657843932
  0
LINE
  5
2EFCF
  8
0
 10
3034.3897132833908472
 20
184.8162403702453958
 30
0.0
 11
3034.4292597059311447
 21
184.7673480512941921
 31
0.0
  0
ARC
  5
2EFD0
  8
0
 10
3033.7263978790338115
 20
184.0277488512996058
 30
0.0
 40
1.024651018886384
 50
35.5436126722465602
 51
39.0895447401236922
  0
ARC
  5
2EFD1
  8
0
 10
3041.6850819330470586
 20
191.0855957645395051
 30
0.0
 40
9.6309550601229663
 50
223.4297290689358988
 51
223.7942604425442141
  0
LINE
  5
2EFD2
  8
0
 10
3034.9177874932629493
 20
184.1730741742003943
 30
0.0
 11
3035.0068718120342055
 21
184.0839898551718079
 31
0.0
  0
ARC
  5
2EFD3
  8
0
 10
3035.0347106616741257
 20
184.1118287047316073
 30
0.0
 40
0.0393700786651827
 50
224.9999999173118965
 51
314.9999998938446879
  0
LINE
  5
2EFD4
  8
0
 10
3035.0625495112230965
 20
184.0839898550800058
 30
0.0
 11
3035.085217969075984
 21
184.106658312849504
 31
0.0
  0
LINE
  5
2EFD5
  8
0
 10
3035.085217969075984
 20
184.106658312849504
 30
0.0
 11
3035.0672152381589513
 21
184.1360472493346947
 31
0.0
  0
LINE
  5
2EFD6
  8
0
 10
3034.9790329625411687
 20
184.2120485636339993
 30
0.0
 11
3035.0458462015731129
 21
184.1452353243655864
 31
0.0
  0
ARC
  5
2EFD7
  8
0
 10
3035.0681172813551711
 20
184.1675064040686891
 30
0.0
 40
0.0314960630207644
 50
224.9999998984368119
 51
314.9999999361940013
  0
LINE
  5
2EFD8
  8
0
 10
3035.0903883610722005
 20
184.1452353243012965
 30
0.0
 11
3035.1177138572520562
 21
184.1725608204208982
 31
0.0
  0
ARC
  5
2EFD9
  8
0
 10
3034.9332250601050873
 20
184.0994277717801992
 30
0.0
 40
0.198455433476913
 50
21.6238279952043193
 51
68.3759777068275838
  0
LINE
  5
2EFDA
  8
0
 10
3035.0063587343729523
 20
184.2839163209226001
 30
0.0
 11
3034.9790329569382266
 21
184.2565907287574873
 31
0.0
  0
ARC
  5
2EFDB
  8
0
 10
3035.0013038857000538
 20
184.2343196489972001
 30
0.0
 40
0.0314959562737794
 50
134.9998057658368111
 51
225.0002086296726986
  0
ARC
  5
2EFDC
  8
0
 10
3034.9005757619761425
 20
184.1533327585717075
 30
0.0
 40
0.1058848496913809
 50
49.159116789604802
 51
67.8744527552415349
  0
LINE
  5
2EFDD
  8
0
 10
3034.9404559511249317
 20
184.2514203312177017
 30
0.0
 11
3034.9177874932929626
 21
184.2287518735504079
 31
0.0
  0
ARC
  5
2EFDE
  8
0
 10
3034.9456263432239211
 20
184.2009130238855903
 30
0.0
 40
0.0393700789451614
 50
135.0000002741153082
 51
224.9999997156768075
  0
ARC
  5
2EFDF
  8
0
 10
3035.0830228496988639
 20
184.0635165170158984
 30
0.0
 40
0.0393700789821471
 50
164.4133754216807972
 51
225.0000059701602027
  0
LINE
  5
2EFE0
  8
0
 10
3035.0551840027751496
 20
184.0356776642910006
 30
0.0
 11
3035.1946192647837961
 21
183.8962424313399993
 31
0.0
  0
ARC
  5
2EFE1
  8
0
 10
3035.2224581144191689
 20
183.9240812867764134
 30
0.0
 40
0.0393700828167918
 50
225.0000059701613964
 51
314.9999637646795918
  0
LINE
  5
2EFE2
  8
0
 10
3035.2502969493489218
 20
183.8962424166348057
 30
0.0
 11
3035.2752060094121589
 21
183.9211514451914127
 31
0.0
  0
LINE
  5
2EFE3
  8
0
 10
3035.2292323590891101
 20
183.975879689539795
 30
0.0
 11
3035.1999460177139554
 21
183.9465933483998867
 31
0.0
  0
ARC
  5
2EFE4
  8
0
 10
3035.1721071680872228
 20
183.9744321982504971
 30
0.0
 40
0.0393700788614773
 50
225.0470545372141942
 51
314.9999997698541279
  0
LINE
  5
2EFE5
  8
0
 10
3035.1389415509711398
 20
184.0521399747420901
 30
0.0
 11
3035.2057547899357814
 21
183.9853267355404114
 31
0.0
  0
ARC
  5
2EFE6
  8
0
 10
3035.2280258697851423
 20
184.0075978153101914
 30
0.0
 40
0.0314960631150427
 50
224.9999998984357035
 51
314.9999997646942802
  0
LINE
  5
2EFE7
  8
0
 10
3035.2502969495030811
 20
183.9853267354093873
 30
0.0
 11
3035.2833682199889154
 21
184.0183980056235953
 31
0.0
  0
ARC
  5
2EFE8
  8
0
 10
3035.0853524447161362
 20
183.9003830676770121
 30
0.0
 40
0.2305163179369659
 50
30.7944160018585009
 51
70.9610153462728022
  0
LINE
  5
2EFE9
  8
0
 10
3035.1605495000949304
 20
184.1182894138389088
 30
0.0
 11
3035.1389415509629544
 21
184.096682134270111
 31
0.0
  0
ARC
  5
2EFEA
  8
0
 10
3035.1612126308141342
 20
184.0744110545099943
 30
0.0
 40
0.0314960631090919
 50
135.0000001157804945
 51
224.9999998852557894
  0
ARC
  5
2EFEB
  8
0
 10
3035.1926058199619547
 20
183.7682624646051863
 30
0.0
 40
0.2445855330923268
 50
58.8522170540023595
 51
72.4357899390647901
  0
ARC
  5
2EFEC
  8
0
 10
3034.9373559370110343
 20
183.3459266429441072
 30
0.0
 40
0.7380630391700108
 50
47.1933452812369723
 51
58.8522170540023595
  0
ARC
  5
2EFED
  8
0
 10
3035.3499632546991052
 20
183.791398216861495
 30
0.0
 40
0.130864783426593
 50
39.4098995738371229
 51
47.1933452812178587
  0
ARC
  5
2EFEE
  8
0
 10
3035.4369099100431413
 20
183.8628421669465922
 30
0.0
 40
0.0183305269568086
 50
27.2486995808867007
 51
39.409899573829577
  0
ARC
  5
2EFEF
  8
0
 10
3035.4505631017668748
 20
183.870657416974808
 30
0.0
 40
0.0027054941023676
 50
257.6762039847438928
 51
12.3237958498898994
  0
ARC
  5
2EFF0
  8
0
 10
3035.4641507422811628
 20
183.9458614760002035
 30
0.0
 40
0.0791254571800437
 50
243.2060936936167082
 51
259.6872793628717204
  0
LINE
  5
2EFF1
  8
0
 10
3035.3121287331177882
 20
183.9816549579803961
 30
0.0
 11
3035.2830487299352171
 21
183.9525749548822091
 31
0.0
  0
ARC
  5
2EFF2
  8
0
 10
3035.3052902645808899
 20
183.9303334201723885
 30
0.0
 40
0.0314542799892195
 50
134.999999917324601
 51
196.9726070170457035
  0
ARC
  5
2EFF3
  8
0
 10
3035.3056318250210097
 20
183.93043766714149
 30
0.0
 40
0.0318113947673567
 50
196.9726070170441119
 51
224.8575446907254047
  0
LINE
  5
2EFF4
  8
0
 10
3035.2830819143628105
 20
183.9079996109340982
 30
0.0
 11
3035.3498951533670152
 21
183.8411863717377059
 31
0.0
  0
ARC
  5
2EFF5
  8
0
 10
3035.3721662331040534
 20
183.8634574515589009
 30
0.0
 40
0.0314960631048815
 50
224.9994688260130999
 51
314.9999997856351115
  0
LINE
  5
2EFF6
  8
0
 10
3035.3944373128219922
 20
183.8411863716735013
 30
0.0
 11
3035.4398034273781377
 21
183.8865524858894105
 31
0.0
  0
ARC
  5
2EFF7
  8
0
 10
3035.4159557849638986
 20
183.8196678994702893
 30
0.0
 40
0.0314960629999876
 50
145.5475037357246038
 51
224.9999999173406877
  0
LINE
  5
2EFF8
  8
0
 10
3035.393684705204123
 20
183.797396819774491
 30
0.0
 11
3035.5537404101719403
 21
183.6373411143435987
 31
0.0
  0
ARC
  5
2EFF9
  8
0
 10
3035.5760114899048858
 20
183.659612194011487
 30
0.0
 40
0.0314960629604499
 50
224.9999999173373055
 51
314.9999999153728822
  0
LINE
  5
2EFFA
  8
0
 10
3035.598282569571893
 20
183.6373411142785983
 30
0.0
 11
3035.6373283332000028
 21
183.6763868777912876
 31
0.0
  0
LINE
  5
2EFFB
  8
0
 10
3035.6171910322868825
 20
183.7036788667710141
 30
0.0
 11
3035.5745679246851978
 21
183.6610557592914859
 31
0.0
  0
ARC
  5
2EFFC
  8
0
 10
3035.5522886420321811
 20
183.6833350420087925
 30
0.0
 40
0.0315076637333647
 50
226.5548394673623136
 51
314.9999999173223273
  0
ARC
  5
2EFFD
  8
0
 10
3035.7623409732491382
 20
183.9402624186712103
 30
0.0
 40
0.2873454520908838
 50
238.0030008628008034
 51
247.3409856569923022
  0
ARC
  5
2EFFE
  8
0
 10
3035.4862981116939409
 20
183.5108582647260107
 30
0.0
 40
0.2330509412862856
 50
44.8076608731750667
 51
55.8300585622279328
  0
ARC
  5
2EFFF
  8
0
 10
3034.3972966715077746
 20
182.0182024230759907
 30
0.0
 40
2.0806184402026839
 50
54.1041737850240096
 51
56.8581045516422066
  0
LINE
  5
2F000
  8
0
 10
3035.5423347702890169
 20
183.7678782509879909
 30
0.0
 11
3035.5050401050039
 21
183.730583581654713
 31
0.0
  0
ARC
  5
2F001
  8
0
 10
3035.482489612712925
 20
183.7531340714976125
 30
0.0
 40
0.0318912103048171
 50
234.0288217936289072
 51
315.0000031097155215
  0
ARC
  5
2F002
  8
0
 10
3035.2442095598889864
 20
183.4938907828912988
 30
0.0
 40
0.4049046477262845
 50
42.5840929688466119
 51
65.1299275775240716
  0
LINE
  5
2F003
  8
0
 10
3035.2738839430198823
 20
183.9320697080646028
 30
0.0
 11
3035.2249916241830761
 21
183.9716161307459004
 31
0.0
  0
ARC
  5
2F004
  8
0
 10
3034.4853924221602028
 20
183.2687543059832933
 30
0.0
 40
1.024651018886384
 50
50.9104550945197474
 51
54.4563871623919766
  0
ARC
  5
2F005
  8
0
 10
3041.5432393583691919
 20
191.2274383396265023
 30
0.0
 40
9.6309550601229663
 50
226.2057393921041069
 51
226.5702707656982966
  0
ARC
  5
2F006
  8
0
 10
3034.1103526393358152
 20
185.5716893011824027
 30
0.0
 40
0.0208623386433102
 50
136.463879756425996
 51
212.7818829166336059
  0
ARC
  5
2F036
  8
0
 10
3036.0118735834898871
 20
186.482111802326898
 30
0.0
 40
0.0219520910441042
 50
132.9104684879621061
 51
204.3749725132697961
  0
LINE
  5
2F037
  8
0
 10
3035.9969273991241607
 20
186.4981899201920896
 30
0.0
 11
3036.5313375294108482
 21
186.9604105912561067
 31
0.0
  0
ARC
  5
2F038
  8
0
 10
3036.5454457943151283
 20
186.9433454940048875
 30
0.0
 40
0.0221418551763163
 50
69.7040640442399138
 51
129.5816382212292126
  0
ARC
  5
2F039
  8
0
 10
3036.5837675597440466
 20
186.9072818728724883
 30
0.0
 40
0.0190115354216349
 50
58.0753322393962677
 51
133.5109674356222058
  0
LINE
  5
2F03A
  8
0
 10
3036.5706782428401311
 20
186.9210698481444979
 30
0.0
 11
3036.034957520882017
 21
186.460155207654509
 31
0.0
  0
ARC
  5
2F03B
  8
0
 10
3036.051022807352183
 20
186.4426318668199087
 30
0.0
 40
0.0237731130350769
 50
132.5143983526504883
 51
193.690882023468987
  0
ARC
  5
2F03C
  8
0
 10
3036.6381247281187825
 20
186.8506348925465943
 30
0.0
 40
0.0205453429917542
 50
56.4312268132445212
 51
130.065027663141592
  0
LINE
  5
2F03D
  8
0
 10
3036.6249005821910032
 20
186.8663585398051055
 30
0.0
 11
3036.0966274193110621
 21
186.3981579291429966
 31
0.0
  0
ARC
  5
2F03E
  8
0
 10
3036.1104593491259038
 20
186.3823138282639036
 30
0.0
 40
0.021032304083586
 50
131.1210204357792009
 51
204.4024380393109936
  0
LINE
  5
2F03F
  8
0
 10
3036.6523909007401016
 20
186.8648478578444951
 30
0.0
 11
3036.0958785512398208
 21
186.3690546281445108
 31
0.0
  0
ARC
  5
2F040
  8
0
 10
3036.0609843159741104
 20
186.4320880267285929
 30
0.0
 40
0.0220067247215078
 50
131.2326905583493897
 51
199.721780351862094
  0
LINE
  5
2F041
  8
0
 10
3036.0464792733041577
 20
186.4486379412329029
 30
0.0
 11
3036.5789766154248355
 21
186.9127718632703079
 31
0.0
  0
ARC
  5
2F042
  8
0
 10
3036.5940340446550181
 20
186.8952390223869031
 30
0.0
 40
0.0231383443325426
 50
76.2810631452097851
 51
130.6566754158824892
  0
ARC
  5
2F043
  8
0
 10
3037.0630492264290297
 20
186.4402752464185085
 30
0.0
 40
0.0110720448452687
 50
72.2991316985055334
 51
93.1634661150782364
  0
ARC
  5
2F044
  8
0
 10
3037.0632137343309296
 20
186.437298755321109
 30
0.0
 40
0.0140530785759201
 50
93.1634661150782364
 51
124.3741808090994994
  0
ARC
  5
2F045
  8
0
 10
3037.1244906823699239
 20
186.3477194619079
 30
0.0
 40
0.1225856274691711
 50
124.3741808090994994
 51
128.6922479850150864
  0
ARC
  5
2F046
  8
0
 10
3037.0595084073938779
 20
186.4392441208015896
 30
0.0
 40
0.0132564596081177
 50
358.825714265317572
 51
35.4239582007471725
  0
ARC
  5
2F047
  8
0
 10
3037.0538750664982217
 20
186.439359593150499
 30
0.0
 40
0.0188909838575828
 50
337.3539378080834013
 51
358.8257142653121718
  0
ARC
  5
2F048
  8
0
 10
3037.0472764430878669
 20
186.4421125611204957
 30
0.0
 40
0.0260408554330888
 50
317.9066820503948065
 51
337.3539378080894267
  0
LINE
  5
2F049
  8
0
 10
3037.0666001646409313
 20
186.4246563319445045
 30
0.0
 11
3036.5756408997408471
 21
185.9189924899444009
 31
0.0
  0
LINE
  5
2F04A
  8
0
 10
3037.0478578636411839
 20
186.4433993822443938
 30
0.0
 11
3036.5568522056200891
 21
185.9377803345105917
 31
0.0
  0
ARC
  5
2F04B
  8
0
 10
3036.572720814405784
 20
185.9185534903741939
 30
0.0
 40
0.0249295864442512
 50
129.5340880957905085
 51
183.3507554777262101
  0
ARC
  5
2F04C
  8
0
 10
3036.5604024494527948
 20
185.9295182934197896
 30
0.0
 40
0.0185797630303555
 50
242.9945331894209062
 51
266.1277803868088085
  0
ARC
  5
2F04D
  8
0
 10
3036.5587520256221978
 20
185.9305967488265878
 30
0.0
 40
0.019619794228104
 50
271.1556537903820754
 51
289.2456558637676949
  0
ARC
  5
2F04E
  8
0
 10
3036.5493194425412185
 20
185.9473306497378076
 30
0.0
 40
0.0386764839347942
 50
294.2735292673502272
 51
312.8869929093453948
  0
ARC
  5
2F04F
  8
0
 10
3037.1327581345099134
 20
186.3608826479620006
 30
0.0
 40
0.019101314106734
 50
74.1253530423910973
 51
90.9681011825170742
  0
ARC
  5
2F050
  8
0
 10
3037.1332109205500274
 20
186.3659495716200922
 30
0.0
 40
0.0140530785759201
 50
93.1634661150782364
 51
124.3741808090994994
  0
ARC
  5
2F051
  8
0
 10
3037.1944878685881122
 20
186.2763702782069117
 30
0.0
 40
0.1225856274691711
 50
124.3741808090994994
 51
128.6922479850150864
  0
ARC
  5
2F052
  8
0
 10
3037.1223299061971375
 20
186.3668896174841905
 30
0.0
 40
0.0204425317699383
 50
2.0566835054455899
 51
30.7369480234716796
  0
ARC
  5
2F053
  8
0
 10
3037.1238722527159553
 20
186.3680104094495107
 30
0.0
 40
0.0188909838575828
 50
337.3539378080834013
 51
358.8257142653121718
  0
ARC
  5
2F054
  8
0
 10
3037.1172736293060552
 20
186.3707633774195926
 30
0.0
 40
0.0260408554330888
 50
317.9066820503948065
 51
337.3539378080894267
  0
LINE
  5
2F055
  8
0
 10
3037.1365973508591196
 20
186.3533071482434877
 30
0.0
 11
3036.6456380859590354
 21
185.8476433062434978
 31
0.0
  0
LINE
  5
2F056
  8
0
 10
3037.1178550498589175
 20
186.3720501985434908
 30
0.0
 11
3036.6268493918378226
 21
185.8664311508096887
 31
0.0
  0
ARC
  5
2F057
  8
0
 10
3036.6427180006248818
 20
185.8472043066732056
 30
0.0
 40
0.0249295864442512
 50
129.5340880957905085
 51
180.1416203283534969
  0
ARC
  5
2F058
  8
0
 10
3036.6303996356709831
 20
185.8581691097188866
 30
0.0
 40
0.0185797630303555
 50
250.8950049617426998
 51
266.1277803868088085
  0
ARC
  5
2F059
  8
0
 10
3036.6287492118399314
 20
185.8592475651255995
 30
0.0
 40
0.019619794228104
 50
271.1556537903820754
 51
289.2456558637676949
  0
ARC
  5
2F05A
  8
0
 10
3036.6193166287598615
 20
185.8759814660367908
 30
0.0
 40
0.0386764839347942
 50
294.2735292673502272
 51
312.8869929093453948
  0
ARC
  5
2F05B
  8
0
 10
3037.1856769542278016
 20
186.2176200008221088
 30
0.0
 40
0.1050383143838682
 50
84.9109987155344186
 51
88.4964569421862848
  0
ARC
  5
2F05C
  8
0
 10
3037.189208546935788
 20
186.3085904871064997
 30
0.0
 40
0.0140530785759201
 50
93.1634661150782364
 51
124.3741808090994994
  0
ARC
  5
2F05D
  8
0
 10
3037.2504854949738728
 20
186.2190111936932908
 30
0.0
 40
0.1225856274691711
 50
124.3741808090994994
 51
128.6922479850150864
  0
ARC
  5
2F05E
  8
0
 10
3037.3136811553390544
 20
186.3284936851042062
 30
0.0
 40
0.1163610777308784
 50
184.3952689517560941
 51
189.0132730743638092
  0
ARC
  5
2F05F
  8
0
 10
3037.1798698791021707
 20
186.3106513249358898
 30
0.0
 40
0.0188909838575828
 50
337.3539378080834013
 51
358.8257142653121718
  0
ARC
  5
2F060
  8
0
 10
3037.1732712556931801
 20
186.3134042929060001
 30
0.0
 40
0.0260408554330888
 50
317.9066820503948065
 51
337.3539378080894267
  0
LINE
  5
2F061
  8
0
 10
3037.1925949772448803
 20
186.2959480637298952
 30
0.0
 11
3036.7016357123461603
 21
185.7902842217299053
 31
0.0
  0
LINE
  5
2F062
  8
0
 10
3037.1738526762451329
 20
186.3146911140298982
 30
0.0
 11
3036.6828470182249475
 21
185.8090720662960962
 31
0.0
  0
ARC
  5
2F063
  8
0
 10
3036.6987156270120067
 20
185.7898452221596131
 30
0.0
 40
0.0249295864442512
 50
129.5340880957905085
 51
177.0850887191197103
  0
ARC
  5
2F064
  8
0
 10
3036.686397262058108
 20
185.8008100252052941
 30
0.0
 40
0.0185797630303555
 50
257.0291438837755891
 51
266.1277803868088085
  0
ARC
  5
2F065
  8
0
 10
3036.6847468382261468
 20
185.801888480612007
 30
0.0
 40
0.019619794228104
 50
271.1556537903820754
 51
289.2456558637676949
  0
ARC
  5
2F066
  8
0
 10
3036.6753142551460769
 20
185.8186223815231983
 30
0.0
 40
0.0386764839347942
 50
294.2735292673502272
 51
312.8869929093453948
  0
ARC
  5
2F067
  8
0
 10
3037.4075472538638678
 20
186.0692620031973945
 30
0.0
 40
0.0347442695530573
 50
345.840954583966095
 51
10.3663145529636598
  0
ARC
  5
2F068
  8
0
 10
3037.42197405754996
 20
186.0672618529046929
 30
0.0
 40
0.020328726040891
 50
320.0124918859933132
 51
341.3560984090296984
  0
LINE
  5
2F069
  8
0
 10
3037.437549613738156
 20
186.0541981952279116
 30
0.0
 11
3036.9810287764980785
 21
185.5140829213976872
 31
0.0
  0
ARC
  5
2F06A
  8
0
 10
3036.9647720914258571
 20
185.5280122916369123
 30
0.0
 40
0.0214081097905265
 50
248.0781254812333998
 51
319.408725869739385
  0
ARC
  5
2F06B
  8
0
 10
3037.3939762397349114
 20
186.0799735430996122
 30
0.0
 40
0.0339514337237637
 50
4.4912247097067599
 51
19.3665178237279605
  0
ARC
  5
2F06C
  8
0
 10
3037.4142296851009633
 20
186.0815644026718019
 30
0.0
 40
0.0136356053289374
 50
330.7680001447212135
 51
4.4912247097051372
  0
ARC
  5
2F06D
  8
0
 10
3037.4054003339651899
 20
186.0840408872120975
 30
0.0
 40
0.02265224599069
 50
318.6568860872383766
 51
336.2160723498666925
  0
LINE
  5
2F06E
  8
0
 10
3037.4224068991397871
 20
186.0690775657444931
 30
0.0
 11
3036.9543646792408254
 21
185.5105669836684115
 31
0.0
  0
LINE
  5
2F06F
  8
0
 10
3041.9535350483411094
 20
189.6123699669967948
 30
0.0
 11
3041.9535350483411094
 21
187.5094696430242038
 31
0.0
  0
LINE
  5
2F480
  8
0
 10
3038.5632163868031057
 20
153.0770176491305108
 30
0.0
 11
3038.5950480611431885
 21
153.0770176491305108
 31
0.0
  0
LINE
  5
2F481
  8
0
 10
3042.1420681089412028
 20
155.6568819285159009
 30
0.0
 11
3042.1420681089412028
 21
149.4674943978444901
 31
0.0
  0
LINE
  5
2F482
  8
0
 10
3041.8857159361409686
 20
155.6363913498979912
 30
0.0
 11
3041.8857159361409686
 21
149.4854725106912099
 31
0.0
  0
LINE
  5
2F483
  8
0
 10
3041.4388620181020997
 20
155.308511673395401
 30
0.0
 11
3041.4388620181020997
 21
149.8109105021769096
 31
0.0
  0
LINE
  5
2F484
  8
0
 10
3041.5153945737288268
 20
155.3992879612252977
 30
0.0
 11
3041.5153945737288268
 21
149.722291821544502
 31
0.0
  0
LINE
  5
2F485
  8
0
 10
3041.0510428948400659
 20
153.7685636922304866
 30
0.0
 11
3041.0510428948400659
 21
151.3543304988444902
 31
0.0
  0
LINE
  5
2F486
  8
0
 10
3039.0790681089401915
 20
153.2869328644763982
 30
0.0
 11
3039.0790681089401915
 21
151.8349309961124902
 31
0.0
  0
LINE
  5
2F487
  8
0
 10
3039.0690680923789841
 20
153.3198679742054935
 30
0.0
 11
3039.0690680923789841
 21
151.8019716354833974
 31
0.0
  0
ARC
  5
2F488
  8
0
 10
3039.1341077841889273
 20
152.5611867951664919
 30
0.0
 40
0.805277776636582
 50
148.6988972357497971
 51
180.0179202725965126
  0
ARC
  5
2F489
  8
0
 10
3038.5022888575808793
 20
152.9453553800844929
 30
0.0
 40
0.0658315935652378
 50
128.1422050183371937
 51
148.6988972357497971
  0
ARC
  5
2F48A
  8
0
 10
3038.5788521661270352
 20
152.7882128364416872
 30
0.0
 40
0.2395571366478375
 50
112.6728843386282932
 51
119.296394684992606
  0
ARC
  5
2F48B
  8
0
 10
3038.4647836885687866
 20
153.0579316574780933
 30
0.0
 40
0.0533033793911258
 50
294.0542467426587905
 51
328.6414181135468198
  0
ARC
  5
2F48C
  8
0
 10
3060.2945498853810022
 20
138.0636368686463982
 30
0.0
 40
26.4301211865296288
 50
145.4404560189059907
 51
145.5095463277278043
  0
ARC
  5
2F48D
  8
0
 10
3038.5633163812799467
 20
153.0329236508034967
 30
0.0
 40
0.044094111708483
 50
89.8700673130364578
 51
117.5716549554888957
  0
ARC
  5
2F48E
  8
0
 10
3038.573966211079096
 20
153.0284040385041919
 30
0.0
 40
0.0535365179297933
 50
125.4609777898058951
 51
148.4071835563289028
  0
ARC
  5
2F48F
  8
0
 10
3038.5984203650368727
 20
153.2271310791464032
 30
0.0
 40
0.1501513047051812
 50
268.7130646089979109
 51
290.4550873555526209
  0
ARC
  5
2F490
  8
0
 10
3038.5669169008619974
 20
153.2000075774485026
 30
0.0
 40
0.14123778287063
 50
306.4827658264641173
 51
342.902477110084817
  0
ARC
  5
2F491
  8
0
 10
3042.146850547008853
 20
151.9709504463650944
 30
0.0
 40
3.6438759160325471
 50
158.4449828186673983
 51
160.9799862919743987
  0
ARC
  5
2F492
  8
0
 10
3038.8909489338261665
 20
153.2564651871385024
 30
0.0
 40
0.1433852810731698
 50
126.4984312615573003
 51
158.2101344591974907
  0
ARC
  5
2F493
  8
0
 10
3038.8672097886260417
 20
153.2641837855144047
 30
0.0
 40
0.1239108468432543
 50
93.2369603146494654
 51
119.781920213155999
  0
ARC
  5
2F494
  8
0
 10
3039.012723195057788
 20
151.7076473330712929
 30
0.0
 40
1.6871567999914521
 50
91.5888940496859334
 51
95.1863166728888359
  0
ARC
  5
2F495
  8
0
 10
3038.9535033581942116
 20
152.5927919196882101
 30
0.0
 40
0.8014600441016254
 50
86.0191568517879688
 51
89.1107410617586879
  0
ARC
  5
2F496
  8
0
 10
3039.0058291301970712
 20
153.3227323725494102
 30
0.0
 40
0.0696647888626685
 50
47.2503912171202884
 51
87.2734256972738791
  0
ARC
  5
2F497
  8
0
 10
3039.0111136431401064
 20
153.3370724830492122
 30
0.0
 40
0.0558549110369658
 50
11.1640261506747596
 51
41.2349022909135527
  0
ARC
  5
2F498
  8
0
 10
3038.9467397973990046
 20
153.3222911929096028
 30
0.0
 40
0.1218895674401625
 50
3.0658155991676619
 51
12.1218810546131106
  0
ARC
  5
2F499
  8
0
 10
3039.2240599900478628
 20
153.3349881110918886
 30
0.0
 40
0.1557276689690649
 50
182.2735850275628877
 51
185.5718228817775071
  0
ARC
  5
2F49A
  8
0
 10
3039.2045086254229318
 20
153.2877516507747941
 30
0.0
 40
0.1254431886810224
 50
166.1777866187184998
 51
180.3739807065595073
  0
ARC
  5
2F49B
  8
0
 10
3039.1582169888611134
 20
153.299140998965612
 30
0.0
 40
0.0777710493561346
 50
142.59062823529041
 51
166.1777866187184998
  0
ARC
  5
2F49C
  8
0
 10
3039.1386874782751875
 20
153.3140774995908089
 30
0.0
 40
0.0531844506757226
 50
107.2538118322995047
 51
142.59062823529041
  0
ARC
  5
2F49D
  8
0
 10
3039.1409858305601119
 20
153.3066773340418933
 30
0.0
 40
0.0609333133906856
 50
67.1373569115404223
 51
107.2538118322995047
  0
ARC
  5
2F49E
  8
0
 10
3039.0973075753690864
 20
153.2030880536696884
 30
0.0
 40
0.1733545257326621
 50
46.1140262495842066
 51
67.1373569115404223
  0
ARC
  5
2F49F
  8
0
 10
3039.6202508863348157
 20
153.7467728837962113
 30
0.0
 40
0.5810080535308235
 50
226.1140262495842137
 51
233.1208858232803038
  0
ARC
  5
2F4A0
  8
0
 10
3039.3997458956009723
 20
153.4528647366076939
 30
0.0
 40
0.2135785365856804
 50
233.1208858232803038
 51
242.2061905262407038
  0
ARC
  5
2F4A1
  8
0
 10
3039.3931468137338925
 20
153.4763000094216068
 30
0.0
 40
0.2318400074629878
 50
246.3531305295373954
 51
268.4443869214297251
  0
ARC
  5
2F4A2
  8
0
 10
3039.4879711773369309
 20
154.630203407028489
 30
0.0
 40
1.3893426023652511
 50
265.8262475872900268
 51
270.5797169073277928
  0
ARC
  5
2F4A3
  8
0
 10
3039.5501841750528911
 20
155.8917263978192125
 30
0.0
 40
2.651231856396365
 50
268.9592451995043234
 51
277.1320805319382998
  0
ARC
  5
2F4A4
  8
0
 10
3039.7575808998490174
 20
154.1097100163821096
 30
0.0
 40
0.8573932764266636
 50
278.1651213948424015
 51
303.4289250980294241
  0
ARC
  5
2F4A5
  8
0
 10
3039.3794572284459719
 20
154.6812672074408965
 30
0.0
 40
1.54270697272341
 50
303.454868758642192
 51
312.4729111374642798
  0
ARC
  5
2F4A6
  8
0
 10
3040.4482723539608742
 20
153.5126680048838921
 30
0.0
 40
0.0409628365877923
 50
90.5295909225824431
 51
131.4486132602227997
  0
LINE
  5
2F4A7
  8
0
 10
3040.447893735541129
 20
153.553629091654301
 30
0.0
 11
3040.6585633604331633
 21
153.553629091654301
 31
0.0
  0
ARC
  5
2F4A8
  8
0
 10
3040.9451469782170534
 20
152.5609319299740889
 30
0.0
 40
1.184000000271312
 50
84.8706799621677845
 51
85.2889890044843071
  0
LINE
  5
2F4A9
  8
0
 10
3041.0423889444400629
 20
153.7409319302485073
 30
0.0
 11
3040.8104829552407864
 21
153.7409319302444999
 31
0.0
  0
ARC
  5
2F4AA
  8
0
 10
3040.8104829552407864
 20
153.7009319302445078
 30
0.0
 40
0.0399999999999956
 50
89.9999999999478888
 51
150.0000000000069065
  0
ARC
  5
2F4AB
  8
0
 10
3040.6552662970261736
 20
153.5949064564364903
 30
0.0
 40
0.041408833242096
 50
274.5668515126836837
 51
330.0133286883441883
  0
LINE
  5
2F4AC
  8
0
 10
3040.7758419390570452
 20
153.7209319302729966
 30
0.0
 11
3040.691132214056779
 21
153.574210382751204
 31
0.0
  0
ARC
  5
2F4AD
  8
0
 10
3041.0833576393338262
 20
153.7671253890470098
 30
0.0
 40
0.0323467375130066
 50
166.9144391844162953
 51
177.451493153702188
  0
ARC
  5
2F4AE
  8
0
 10
3041.4780307035061924
 20
153.664174204082002
 30
0.0
 40
0.4402155988653843
 50
150.4459695815162092
 51
165.4928086255459903
  0
ARC
  5
2F4AF
  8
0
 10
3038.0898337137277849
 20
155.6853117033481908
 30
0.0
 40
3.5051393319128361
 50
329.0243390226358997
 51
333.324983735203773
  0
ARC
  5
2F4B0
  8
0
 10
3039.6086470822069714
 20
154.8648783263610937
 30
0.0
 40
1.78039924522486
 50
334.9752306440373104
 51
347.0145161877049986
  0
ARC
  5
2F4B1
  8
0
 10
3038.1760075029869768
 20
155.2000474480082914
 30
0.0
 40
3.2517192388018921
 50
346.9320936647021085
 51
354.403285909031581
  0
ARC
  5
2F4B2
  8
0
 10
3035.8117388457858397
 20
155.4470845118113118
 30
0.0
 40
5.6288306533712911
 50
354.2477285507528109
 51
358.5948676408896745
  0
ARC
  5
2F4B3
  8
0
 10
3041.4710430823729439
 20
155.3091524089624897
 30
0.0
 40
0.032166333147084
 50
137.5403223036211955
 51
180.1719797144357926
  0
LINE
  5
2F4B4
  8
0
 10
3041.4473122862841592
 20
155.3308669733173986
 30
0.0
 11
3041.5153945737288268
 21
155.3992879612252977
 31
0.0
  0
ARC
  5
2F4B5
  8
0
 10
3041.5368168204117865
 20
155.3781286974983971
 30
0.0
 40
0.0301102489928757
 50
93.1604553015606172
 51
135.3538536269495864
  0
ARC
  5
2F4B6
  8
0
 10
3041.4847023801721662
 20
156.3522735646097033
 30
0.0
 40
0.945427667240389
 50
273.0591420955175863
 51
280.1408478722100881
  0
ARC
  5
2F4B7
  8
0
 10
3041.5988399114630738
 20
155.7143084415808119
 30
0.0
 40
0.2973328658402533
 50
280.1352862998093087
 51
311.6642556961357968
  0
ARC
  5
2F4B8
  8
0
 10
3041.5691374528742017
 20
155.732553768001992
 30
0.0
 40
0.3308612197262908
 50
313.4067120167366056
 51
343.1035589196533806
  0
ARC
  5
2F4B9
  8
0
 10
3041.9141459862930787
 20
155.6269137450412927
 30
0.0
 40
0.0299681955664655
 50
89.9485303196310753
 51
161.5633802421019993
  0
LINE
  5
2F4BA
  8
0
 10
3040.7758419390411291
 20
153.7209319302444896
 30
0.0
 11
3040.7758419390411291
 21
151.4009319302444965
 31
0.0
  0
ARC
  5
2F4BB
  8
0
 10
3040.7271464874229423
 20
152.5056387106627938
 30
0.0
 40
1.0686001710400881
 50
90.4184519670153151
 51
91.9496423895597275
  0
ARC
  5
2F4BC
  8
0
 10
3040.7193631593158898
 20
153.5713379003379089
 30
0.0
 40
0.0028725589972392
 50
12.8576333305980501
 51
90.4184519670413636
  0
ARC
  5
2F4BD
  8
0
 10
3040.711346398662954
 20
153.5695080548312035
 30
0.0
 40
0.0110955016550311
 50
358.3039028846779956
 51
12.85763333059964
  0
LINE
  5
2F4BE
  8
0
 10
3040.7224370391409138
 20
153.5691796483781104
 30
0.0
 11
3040.7224370391409138
 21
153.5218553946444899
 31
0.0
  0
ARC
  5
2F4BF
  8
0
 10
3042.587550150396055
 20
153.1089331939406009
 30
0.0
 40
1.9102752842482451
 50
167.5164983854573109
 51
171.4130869759540019
  0
ARC
  5
2F4C0
  8
0
 10
3041.5814619853158547
 20
153.2765185321160004
 30
0.0
 40
0.8905774616934857
 50
172.4095836668211916
 51
194.5689100850981959
  0
ARC
  5
2F4C1
  8
0
 10
3040.610917885318031
 20
153.0271300490165913
 30
0.0
 40
0.1115260918791081
 50
359.360897424397308
 51
13.1481808374399396
  0
LINE
  5
2F4C2
  8
0
 10
3040.7224370391409138
 20
153.0258860632445135
 30
0.0
 11
3040.7224370391409138
 21
152.9116352078443981
 31
0.0
  0
ARC
  5
2F4C3
  8
0
 10
3040.5321506156328724
 20
152.9125607851308075
 30
0.0
 40
0.1902886745574643
 50
349.95146904177642
 51
359.7213082329142253
  0
ARC
  5
2F4C4
  8
0
 10
3042.4698601656809842
 20
152.5609317873741873
 30
0.0
 40
1.7790686668325411
 50
169.6893426485380871
 51
190.3106482827942045
  0
ARC
  5
2F4C5
  8
0
 10
3040.5321467881130957
 20
152.2093024279388942
 30
0.0
 40
0.1902925051833337
 50
0.2788811228525824
 51
10.0485218895542605
  0
LINE
  5
2F4C6
  8
0
 10
3040.7224370391409138
 20
152.2102286528445063
 30
0.0
 11
3040.7224370391409138
 21
152.0959776004555124
 31
0.0
  0
ARC
  5
2F4C7
  8
0
 10
3040.6049363576080395
 20
152.0953893748460928
 30
0.0
 40
0.117502153895226
 50
347.203993626767101
 51
0.2868286620539208
  0
ARC
  5
2F4C8
  8
0
 10
3041.587513029900947
 20
151.8442031483509993
 30
0.0
 40
0.8967213461617893
 50
165.457712195199008
 51
194.5422879574761055
  0
ARC
  5
2F4C9
  8
0
 10
3040.5876768758980688
 20
151.5890969260962891
 30
0.0
 40
0.1352011956271426
 50
4.6291444443207208
 51
12.7960065259068294
  0
LINE
  5
2F4CA
  8
0
 10
3040.7224370391409138
 20
151.6000084659443985
 30
0.0
 11
3040.7224370391409138
 21
151.5526842121444986
 31
0.0
  0
ARC
  5
2F4CB
  8
0
 10
3040.7133943057569923
 20
151.5521808292303945
 30
0.0
 40
0.0090567334281922
 50
338.5982818896937943
 51
3.1861962021361689
  0
ARC
  5
2F4CC
  8
0
 10
3040.7195513552378543
 20
151.5497676949360084
 30
0.0
 40
0.0024436800155627
 50
269.2742734909385831
 51
338.5982818896998197
  0
LINE
  5
2F4CD
  8
0
 10
3040.7195204036402174
 20
151.5473242109445096
 30
0.0
 11
3040.6907915206411417
 21
151.5482435761445004
 31
0.0
  0
LINE
  5
2F4CE
  8
0
 10
3038.5283344755398502
 20
153.0564075487799869
 30
0.0
 11
3038.5283344755398502
 21
152.0654320609089041
 31
0.0
  0
LINE
  5
2F4CF
  8
0
 10
3038.4460393268409462
 20
152.9795575584190885
 30
0.0
 11
3038.4460393268409462
 21
152.1422820512698877
 31
0.0
  0
LINE
  5
2F4D0
  8
0
 10
3038.5950386940658063
 20
153.0770176491305108
 30
0.0
 11
3038.5950386940658063
 21
152.0448219605584086
 31
0.0
  0
LINE
  5
2F4D1
  8
0
 10
3039.0690680923789841
 20
153.2359319302445044
 30
0.0
 11
3039.0790681089401915
 21
153.2359319302445044
 31
0.0
  0
ARC
  5
2F4D2
  8
0
 10
3040.5056690714559409
 20
153.5221301118689894
 30
0.0
 40
0.0317125455709558
 50
96.791989696321437
 51
146.0687009937321932
  0
LINE
  5
2F4D3
  8
0
 10
3040.4793569351400038
 20
153.5398320052445058
 30
0.0
 11
3040.4793569351400038
 21
153.4938852409445076
 31
0.0
  0
ARC
  5
2F4D4
  8
0
 10
3040.4704321663871269
 20
153.4943138010345081
 30
0.0
 40
0.0089350523816728
 50
330.796968488242328
 51
357.2508153323790907
  0
ARC
  5
2F4D5
  8
0
 10
3040.9376504737720097
 20
153.2539568991861074
 30
0.0
 40
0.5164886707774008
 50
152.8110331071115979
 51
207.1889575983036025
  0
ARC
  5
2F4D6
  8
0
 10
3040.470090123783848
 20
153.0134089100974109
 30
0.0
 40
0.009326855617233
 50
353.4956662874708968
 51
29.2030222171664917
  0
LINE
  5
2F4D7
  8
0
 10
3040.479356945139898
 20
153.0123523791444882
 30
0.0
 11
3040.4793569351400038
 21
152.9021410821270024
 31
0.0
  0
ARC
  5
2F4D8
  8
0
 10
3040.4575210717921436
 20
152.9016217907542909
 30
0.0
 40
0.0218420372339932
 50
341.4761515416229827
 51
1.36232449442932
  0
ARC
  5
2F4D9
  8
0
 10
3041.4255690527152183
 20
152.5609319299537106
 30
0.0
 40
1.0044092445624171
 50
160.5924432057605884
 51
199.4075575023670979
  0
ARC
  5
2F4DA
  8
0
 10
3040.4576233030938965
 20
152.2202763092174962
 30
0.0
 40
0.0217342245268763
 50
0.4230616788263501
 51
18.5238491664971683
  0
LINE
  5
2F4DB
  8
0
 10
3040.4793569351400038
 20
152.2204367893442907
 30
0.0
 11
3040.4793569351400038
 21
152.1095114855444876
 31
0.0
  0
ARC
  5
2F4DC
  8
0
 10
3040.4652728320202186
 20
152.1094217986506862
 30
0.0
 40
0.0140843886783548
 50
336.9371965637708968
 51
0.3648518467735855
  0
ARC
  5
2F4DD
  8
0
 10
3040.9376607798599252
 20
151.8679069559084951
 30
0.0
 40
0.5164978328671401
 50
152.8115566455217049
 51
207.1884360105817109
  0
ARC
  5
2F4DE
  8
0
 10
3040.4629838084670155
 20
151.6254175918705016
 30
0.0
 40
0.0165722184313081
 50
8.8899386579763373
 51
23.0627960923294815
  0
LINE
  5
2F4DF
  8
0
 10
3040.479356945139898
 20
151.6279786110445116
 30
0.0
 11
3040.4793569351400038
 21
151.5825838088323962
 31
0.0
  0
LINE
  5
2F4E0
  8
0
 10
3038.5632163868031057
 20
152.0448219605584086
 30
0.0
 11
3038.5950480611431885
 21
152.0448219605584086
 31
0.0
  0
ARC
  5
2F4E1
  8
0
 10
3039.1341077841889273
 20
152.5606528145225127
 30
0.0
 40
0.805277776636582
 50
179.9820797274034874
 51
211.3011027642502029
  0
ARC
  5
2F4E2
  8
0
 10
3038.5022888575808793
 20
152.1764842296045117
 30
0.0
 40
0.0658315935652378
 50
211.3011027642502029
 51
231.8577949816628063
  0
ARC
  5
2F4E3
  8
0
 10
3038.5788521661270352
 20
152.3336267732472038
 30
0.0
 40
0.2395571366478375
 50
240.703605315007394
 51
247.3271156613716073
  0
ARC
  5
2F4E4
  8
0
 10
3038.4647836885687866
 20
152.0639079522107977
 30
0.0
 40
0.0533033793911258
 50
31.3585818864532513
 51
65.9457532573411953
  0
ARC
  5
2F4E5
  8
0
 10
3060.2945498853810022
 20
167.0582027410424928
 30
0.0
 40
26.4301211865296288
 50
214.4904536722721957
 51
214.5595439810938956
  0
ARC
  5
2F4E6
  8
0
 10
3038.5633163812799467
 20
152.0889159588853943
 30
0.0
 40
0.044094111708483
 50
242.4283450445111043
 51
270.1299326869636275
  0
ARC
  5
2F4E7
  8
0
 10
3038.573966211079096
 20
152.093435571184699
 30
0.0
 40
0.0535365179297933
 50
211.5928164436710119
 51
234.5390222101941049
  0
ARC
  5
2F4E8
  8
0
 10
3038.5984203650368727
 20
151.8947085305426015
 30
0.0
 40
0.1501513047051812
 50
69.5449126444474217
 51
91.2869353910020891
  0
ARC
  5
2F4E9
  8
0
 10
3038.5669169008619974
 20
151.921832032240502
 30
0.0
 40
0.14123778287063
 50
17.0975228899152683
 51
53.5172341735358614
  0
ARC
  5
2F4EA
  8
0
 10
3042.146850547008853
 20
153.1508891633237965
 30
0.0
 40
3.6438759160325471
 50
199.0200137080254876
 51
201.555017181332488
  0
ARC
  5
2F4EB
  8
0
 10
3038.8909489338261665
 20
151.8653744225503885
 30
0.0
 40
0.1433852810731698
 50
201.7898655408023956
 51
233.501568738442586
  0
ARC
  5
2F4EC
  8
0
 10
3038.8672097886260417
 20
151.8576558241744863
 30
0.0
 40
0.1239108468432543
 50
240.2180797868439868
 51
266.7630396853505204
  0
ARC
  5
2F4ED
  8
0
 10
3039.012723195057788
 20
153.4141922766177117
 30
0.0
 40
1.6871567999914521
 50
264.8136833271112209
 51
268.411105950314095
  0
ARC
  5
2F4EE
  8
0
 10
3038.9535033581942116
 20
152.5290476900007093
 30
0.0
 40
0.8014600441016254
 50
270.8892589382413121
 51
273.9808431482121023
  0
ARC
  5
2F4EF
  8
0
 10
3039.0058291301970712
 20
151.7991072371395092
 30
0.0
 40
0.0696647888626685
 50
272.7265743027260783
 51
312.7496087828797044
  0
ARC
  5
2F4F0
  8
0
 10
3039.0111136431401064
 20
151.7847671266397072
 30
0.0
 40
0.0558549110369658
 50
318.7650977090863762
 51
348.8359738493252848
  0
ARC
  5
2F4F1
  8
0
 10
3038.9467397973990046
 20
151.7995484167794018
 30
0.0
 40
0.1218895674401625
 50
347.878118945386916
 51
356.9341844008322937
  0
ARC
  5
2F4F2
  8
0
 10
3039.2240599900478628
 20
151.7868514985970876
 30
0.0
 40
0.1557276689690649
 50
174.4281771182224077
 51
177.7264149724369986
  0
ARC
  5
2F4F3
  8
0
 10
3039.2045086254229318
 20
151.8340879589142105
 30
0.0
 40
0.1254431886810224
 50
179.6260192934404074
 51
193.8222133812813865
  0
ARC
  5
2F4F4
  8
0
 10
3039.1582169888611134
 20
151.8226986107233074
 30
0.0
 40
0.0777710493561346
 50
193.8222133812813865
 51
217.409371764708311
  0
ARC
  5
2F4F5
  8
0
 10
3039.1386874782751875
 20
151.8077621100981105
 30
0.0
 40
0.0531844506757226
 50
217.40937176470959
 51
252.7461881677004953
  0
ARC
  5
2F4F6
  8
0
 10
3039.1409858305601119
 20
151.8151622756469976
 30
0.0
 40
0.0609333133906856
 50
252.7461881677004953
 51
292.8626430884594924
  0
ARC
  5
2F4F7
  8
0
 10
3039.0973075753690864
 20
151.9187515560192026
 30
0.0
 40
0.1733545257326621
 50
292.8626430884594924
 51
313.8859737504158147
  0
ARC
  5
2F4F8
  8
0
 10
3039.6202508863348157
 20
151.3750667258927081
 30
0.0
 40
0.5810080535308235
 50
126.8791141767196962
 51
133.8859737504157863
  0
ARC
  5
2F4F9
  8
0
 10
3039.3997458956009723
 20
151.6689748730813108
 30
0.0
 40
0.2135785365856804
 50
117.7938094737591967
 51
126.8791141767196962
  0
ARC
  5
2F4FA
  8
0
 10
3039.3931468137338925
 20
151.6455396002673126
 30
0.0
 40
0.2318400074629878
 50
91.5556130785703033
 51
113.6468694704626046
  0
ARC
  5
2F4FB
  8
0
 10
3039.4879711773369309
 20
150.491636202660402
 30
0.0
 40
1.3893426023652511
 50
89.420283092672264
 51
94.1737524127099448
  0
ARC
  5
2F4FC
  8
0
 10
3039.5501841750528911
 20
149.2301132118697922
 30
0.0
 40
2.651231856396365
 50
82.8679194680616575
 51
91.040754800495634
  0
ARC
  5
2F4FD
  8
0
 10
3039.7575808998490174
 20
151.0121295933068097
 30
0.0
 40
0.8573932764266636
 50
56.5710749019705617
 51
81.8348786051575701
  0
ARC
  5
2F4FE
  8
0
 10
3039.3794572284459719
 20
150.4405724022479944
 30
0.0
 40
1.54270697272341
 50
47.5270888625357202
 51
56.5451312413578506
  0
ARC
  5
2F4FF
  8
0
 10
3040.4482348825317786
 20
151.6091097795049905
 30
0.0
 40
0.0408916933282162
 50
228.5333980392958892
 51
269.5219931490469776
  0
LINE
  5
2F500
  8
0
 10
3039.0690680923789841
 20
151.8859076794445002
 30
0.0
 11
3039.0790681089401915
 21
151.8859076794445002
 31
0.0
  0
LINE
  5
2F501
  8
0
 10
3040.447893735541129
 20
151.5682195092444999
 30
0.0
 11
3040.6562099034531457
 21
151.5682408263843968
 31
0.0
  0
ARC
  5
2F502
  8
0
 10
3040.6559510206961932
 20
151.5279538368112924
 30
0.0
 40
0.0402904276335092
 50
41.1593939041856771
 51
89.7157278326992724
  0
ARC
  5
2F503
  8
0
 10
3040.654769503064017
 20
151.5269209744845966
 30
0.0
 40
0.0418597550377757
 50
30.6226673460831194
 51
41.1593939041832328
  0
ARC
  5
2F504
  8
0
 10
3033.9560194454729753
 20
147.5617133401885042
 30
0.0
 40
7.8262109750912296
 50
29.3773326734658511
 51
30.6226673460831194
  0
ARC
  5
2F505
  8
0
 10
3040.8100562663989876
 20
151.420192883493911
 30
0.0
 40
0.0392632718124793
 50
209.3773326734657871
 51
270.6226671872381075
  0
LINE
  5
2F506
  8
0
 10
3040.8104829552407864
 20
151.3809319302444862
 30
0.0
 11
3041.0423889444400629
 21
151.3809319302444862
 31
0.0
  0
LINE
  5
2F507
  8
0
 10
3041.0423889445578425
 20
151.3809319302501137
 30
0.0
 11
3041.0510449283760863
 21
151.3816772401299886
 31
0.0
  0
ARC
  5
2F508
  8
0
 10
3041.0810428948398112
 20
151.3543304988444902
 30
0.0
 40
0.0300000000000118
 50
180.0000000000243858
 51
193.3277273599834132
  0
ARC
  5
2F509
  8
0
 10
3041.4103826083219246
 20
151.4323514120866889
 30
0.0
 40
0.368455181344626
 50
193.3277273599834132
 51
209.1996205396260109
  0
ARC
  5
2F50A
  8
0
 10
3039.066992429226957
 20
149.9949069746118937
 30
0.0
 40
2.3810267078059351
 50
22.4835847123800185
 51
31.8848756106890114
  0
ARC
  5
2F50B
  8
0
 10
3038.9731529552718712
 20
150.0658510196429063
 30
0.0
 40
2.4427101179444399
 50
6.4982117209093904
 51
20.1036001937709514
  0
ARC
  5
2F50C
  8
0
 10
3036.8009185102619085
 20
149.755365768578514
 30
0.0
 40
4.6365504425779669
 50
3.5556575218143971
 51
7.2724761233443838
  0
ARC
  5
2F50D
  8
0
 10
3035.3285268787099085
 20
149.6553992233382075
 30
0.0
 40
6.1123133456715983
 50
1.4581906890867069
 51
3.6349523802626611
  0
ARC
  5
2F50E
  8
0
 10
3041.4693770563221733
 20
149.8119236902286104
 30
0.0
 40
0.0305320205810471
 50
181.842156596861912
 51
224.463187001960307
  0
LINE
  5
2F50F
  8
0
 10
3041.4475863336401744
 20
149.7905375104444943
 30
0.0
 11
3041.5153788560401154
 21
149.7223064349444996
 31
0.0
  0
ARC
  5
2F510
  8
0
 10
3041.5374831298499885
 20
149.7460652993183032
 30
0.0
 40
0.0324512335202499
 50
227.0661464358136072
 51
266.6805484170740215
  0
ARC
  5
2F511
  8
0
 10
3041.5380324112347807
 20
149.2382187865752883
 30
0.0
 40
0.4754559264668555
 50
64.3280062329985185
 51
90.2926289276643246
  0
ARC
  5
2F512
  8
0
 10
3041.6076928735587899
 20
149.4189524923505132
 30
0.0
 40
0.2828102271577068
 50
25.6257437493125408
 51
61.1835805241108517
  0
ARC
  5
2F513
  8
0
 10
3041.4934673499601558
 20
149.3562073314612064
 30
0.0
 40
0.4129993219373157
 50
18.2395906910111201
 51
26.6207635355930385
  0
ARC
  5
2F514
  8
0
 10
3041.9141729073398892
 20
149.4949699203444879
 30
0.0
 40
0.0300000000000025
 50
198.4562423593895915
 51
270.0
  0
LINE
  5
2F515
  8
0
 10
3041.9141729073398892
 20
149.4649699203444868
 30
0.0
 11
3042.0820681089398931
 21
149.4649699203444868
 31
0.0
  0
ARC
  5
2F516
  8
0
 10
3042.1020077964271877
 20
149.3904425629748971
 30
0.0
 40
0.0771486755139075
 50
86.8061258329912846
 51
104.9785812164154066
  0
ARC
  5
2F517
  8
0
 10
3042.1155085014452197
 20
147.6259148555438969
 30
0.0
 40
1.8415795423005861
 50
89.7136914106442305
 51
90.2863085893557553
  0
LINE
  5
2F518
  8
0
 10
3042.1247108868760733
 20
149.4674714055097979
 30
0.0
 11
3042.1420681089412028
 21
149.4674714055097979
 31
0.0
  0
ARC
  5
2F519
  8
0
 10
3040.6810849067078379
 20
153.0814181400164102
 30
0.0
 40
0.0480999116186533
 50
274.5245220056033872
 51
323.0419805119277044
  0
LINE
  5
2F51A
  8
0
 10
3040.6848793047402069
 20
153.0334681239444876
 30
0.0
 11
3040.5058422867409718
 21
153.0334681349445134
 31
0.0
  0
ARC
  5
2F51B
  8
0
 10
3040.5194931682472088
 20
152.976832135703404
 30
0.0
 40
0.0582579517057531
 50
103.5513460024613011
 51
135.093358220480809
  0
ARC
  5
2F51C
  8
0
 10
2969.6175904676979371
 20
-56.8694398426608814
 30
0.0
 40
221.4096144321906081
 50
71.326919072458324
 51
71.3344627024818152
  0
LINE
  5
2F51D
  8
0
 10
3040.5058485748409112
 20
152.8853508667444885
 30
0.0
 11
3040.684879305839786
 21
152.8853529949444976
 31
0.0
  0
ARC
  5
2F51E
  8
0
 10
3040.3320192796350057
 20
150.8378143459055138
 30
0.0
 40
2.0777210393605761
 50
79.2526042495612728
 51
80.2220464248231337
  0
ARC
  5
2F51F
  8
0
 10
3040.610917885318031
 20
152.0947095606722996
 30
0.0
 40
0.1115260918791081
 50
346.8518191625601048
 51
0.6391025756027116
  0
LINE
  5
2F520
  8
0
 10
3040.7224370391409138
 20
152.0959535464444912
 30
0.0
 11
3040.7224370391409138
 21
152.2102044018444928
 31
0.0
  0
ARC
  5
2F521
  8
0
 10
3040.5321506156328724
 20
152.2092788245581119
 30
0.0
 40
0.1902886745574643
 50
0.2786917670857802
 51
10.04853095822358
  0
ARC
  5
2F522
  8
0
 10
3040.470090123783848
 20
152.1084306995915085
 30
0.0
 40
0.009326855617233
 50
330.7969777828334941
 51
6.5043337125290801
  0
LINE
  5
2F523
  8
0
 10
3040.479356945139898
 20
152.1094872305444881
 30
0.0
 11
3040.4793569351400038
 21
152.2196985275618886
 31
0.0
  0
ARC
  5
2F524
  8
0
 10
3040.4575210717921436
 20
152.2202178189346
 30
0.0
 40
0.0218420372339932
 50
358.6376755055705985
 51
18.5238484583769605
  0
ARC
  5
2F525
  8
0
 10
3040.6810849067078379
 20
152.0404214696725091
 30
0.0
 40
0.0480999116186533
 50
36.9580194880723312
 51
85.475477994396627
  0
LINE
  5
2F526
  8
0
 10
3040.6848793047402069
 20
152.0883714857444886
 30
0.0
 11
3040.5058422867409718
 21
152.0883714747444913
 31
0.0
  0
ARC
  5
2F527
  8
0
 10
3040.5194931682472088
 20
152.1450074739856007
 30
0.0
 40
0.0582579517057531
 50
224.906641779519191
 51
256.4486539975387132
  0
ARC
  5
2F528
  8
0
 10
2969.6175904676979371
 20
361.991279452349886
 30
0.0
 40
221.4096144321906081
 50
288.665537297518199
 51
288.673080927541605
  0
LINE
  5
2F529
  8
0
 10
3040.5058485748409112
 20
152.2364887429444877
 30
0.0
 11
3040.684879305839786
 21
152.2364866147445071
 31
0.0
  0
ARC
  5
2F52A
  8
0
 10
3040.3320192796350057
 20
154.2840252637834055
 30
0.0
 40
2.0777210393605761
 50
279.7779535751768094
 51
280.7473957504387272
  0
ARC
  5
2F52B
  8
0
 10
3038.1291837847038551
 20
151.679444218126406
 30
0.0
 40
0.6352448815208263
 50
10.5824779592112499
 51
18.0667597999448617
  0
ARC
  5
2F52C
  8
0
 10
3038.5460456354958296
 20
151.7573258521107959
 30
0.0
 40
0.2111701810756616
 50
332.6111305509924136
 51
10.5824779592096405
  0
ARC
  5
2F52D
  8
0
 10
3038.1094539193809396
 20
152.0165282006813072
 30
0.0
 40
0.7186598574625404
 50
308.754814851719118
 51
330.2742843686489209
  0
ARC
  5
2F52E
  8
0
 10
3039.7413436798287876
 20
150.0330287322063043
 30
0.0
 40
1.8499402477169611
 50
129.7134581427152114
 51
138.0840560666702004
  0
ARC
  5
2F52F
  8
0
 10
3038.6881981961710153
 20
150.9823744060477111
 30
0.0
 40
0.432076760157666
 50
138.4672292398379057
 51
173.3535581032031132
  0
ARC
  5
2F530
  8
0
 10
3040.9592621791998681
 20
150.8457842544478069
 30
0.0
 40
2.7066766762056589
 50
176.0468632307145072
 51
179.8032608380179909
  0
ARC
  5
2F531
  8
0
 10
3038.4054616501339297
 20
150.8198133452222862
 30
0.0
 40
0.1548498010042224
 50
59.2592611681559518
 51
116.7021873404517009
  0
ARC
  5
2F532
  8
0
 10
3038.4081882452110221
 20
150.8143926298942858
 30
0.0
 40
0.1609176239569707
 50
116.7021873404517009
 51
164.6783047763420029
  0
ARC
  5
2F533
  8
0
 10
3275.3024483512190272
 20
142.690773641696012
 30
0.0
 40
237.1900746619452889
 50
178.0269924181359045
 51
178.4278806849773957
  0
ARC
  5
2F534
  8
0
 10
3067.3718424106828024
 20
146.2240328868481072
 30
0.0
 40
29.3214095870674498
 50
174.1784169846231975
 51
174.6953246872002978
  0
ARC
  5
2F535
  8
0
 10
3038.251436107398149
 20
148.9387217235583023
 30
0.0
 40
0.0755235550552211
 50
182.9377329010301878
 51
202.8381415155328114
  0
ARC
  5
2F536
  8
0
 10
3038.4017014433188706
 20
148.9554126490291139
 30
0.0
 40
0.2248496457300058
 50
271.6780049078095089
 51
306.2763693022743041
  0
ARC
  5
2F537
  8
0
 10
3038.4219375976258561
 20
148.9678612216185059
 30
0.0
 40
0.2375943378583741
 50
235.0029186179444025
 51
266.7060140323421251
  0
ARC
  5
2F538
  8
0
 10
3038.4553227665728627
 20
149.0102640580639957
 30
0.0
 40
0.2914932381696
 50
200.2425517696206896
 51
234.4075277781876139
  0
ARC
  5
2F539
  8
0
 10
3037.8281351285390883
 20
151.8415239385010125
 30
0.0
 40
1.241335669135339
 50
351.9625109103520231
 51
357.6679345687622913
  0
ARC
  5
2F53A
  8
0
 10
3038.5919936640848391
 20
151.742420125823088
 30
0.0
 40
0.4712037053548212
 50
327.5704455488439066
 51
350.9078406601668121
  0
ARC
  5
2F53B
  8
0
 10
3038.2282980995901198
 20
152.0074854699219031
 30
0.0
 40
0.920773159697659
 50
311.121674687420807
 51
325.7847398222227184
  0
ARC
  5
2F53C
  8
0
 10
3039.8200977313940712
 20
150.1104413518434058
 30
0.0
 40
1.5559169578634291
 50
129.335968960811698
 51
140.0617396970062032
  0
ARC
  5
2F53D
  8
0
 10
3038.8581405854188233
 20
150.9283104016712116
 30
0.0
 40
0.2934639436606069
 50
141.9266947697325065
 51
179.432734336222893
  0
ARC
  5
2F53E
  8
0
 10
3037.336987264632171
 20
150.9034048788568043
 30
0.0
 40
1.228018718134569
 50
359.1553777508303256
 51
1.2976894089553901
  0
ARC
  5
2F53F
  8
0
 10
3154.7790605470809169
 20
153.0480370612851004
 30
0.0
 40
116.2343103834507048
 50
181.0661455970594034
 51
181.3484989239387062
  0
ARC
  5
2F540
  8
0
 10
3067.4559384780091023
 20
150.6047292287566961
 30
0.0
 40
28.8804740968318008
 50
180.5795067842462913
 51
182.8009871630065959
  0
ARC
  5
2F541
  8
0
 10
3043.5895531507198939
 20
149.6413296664887866
 30
0.0
 40
4.999688420621573
 50
185.1397887793054053
 51
187.573530995797995
  0
ARC
  5
2F542
  8
0
 10
3039.9211643063149495
 20
149.1245708230084119
 30
0.0
 40
1.2955119591775921
 50
186.3013479248307078
 51
187.9586332562161886
  0
ARC
  5
2F543
  8
0
 10
3038.5686804404999748
 20
148.9365209378163115
 30
0.0
 40
0.0699896943661673
 50
337.2262699323546258
 51
7.1205621110787343
  0
ARC
  5
2F544
  8
0
 10
3038.3626658590342231
 20
149.0028799284471006
 30
0.0
 40
0.2862330622619775
 50
306.9537533553597086
 51
340.9442839264950749
  0
LINE
  5
2F545
  8
0
 10
3039.3001575901957949
 20
153.2639258269836091
 30
0.0
 11
3039.3001575901957949
 21
151.8579137827053103
 31
0.0
  0
LINE
  5
2F609
  8
0
 10
3042.1420681089412028
 20
155.6568819285159009
 30
0.0
 11
3041.9141729071811824
 21
155.6568819285159009
 31
0.0
  0
LINE
  5
2F60A
  8
0
 10
3039.7975161707649931
 20
188.9624946088434001
 30
0.0
 11
3041.291006003540133
 21
188.9624946088434001
 31
0.0
  0
LINE
  5
2F60B
  8
0
 10
3036.1907666290408088
 20
137.2802214543445132
 30
0.0
 11
3038.1436373277410894
 21
137.1093480287445061
 31
0.0
  0
ARC
  5
2F60C
  8
0
 10
3038.1459298218751428
 20
137.1290537846828954
 30
0.0
 40
0.0198403378914495
 50
263.4745750293475908
 51
5.9020990305176584
  0
ARC
  5
2F60D
  8
0
 10
3037.7744042091349002
 20
137.0879039209848997
 30
0.0
 40
0.3936373644560702
 50
6.2991946371314489
 51
40.6850794274049292
  0
ARC
  5
2F60E
  8
0
 10
3038.1019082746838649
 20
137.3698052247019916
 30
0.0
 40
0.0384829725033516
 50
185.6367496728041999
 51
221.0821750340282108
  0
ARC
  5
2F60F
  8
0
 10
3038.8430433840821934
 20
137.4429541240739923
 30
0.0
 40
0.7832191753709294
 50
153.7064734517655893
 51
185.6367496728041999
  0
ARC
  5
2F610
  8
0
 10
3038.5623767539032087
 20
137.5816287584686961
 30
0.0
 40
0.4701626125583991
 50
120.1320668538882046
 51
153.7064734517655893
  0
ARC
  5
2F611
  8
0
 10
3038.5738972198610099
 20
137.4921748992292976
 30
0.0
 40
0.554414026495854
 50
92.6100197811200445
 51
116.5186343241259976
  0
ARC
  5
2F612
  8
0
 10
3038.6269257861081314
 20
136.6436420716669033
 30
0.0
 40
1.404554539544222
 50
78.0215342064727082
 51
93.1947274601102578
  0
ARC
  5
2F613
  8
0
 10
3037.8002729225640905
 20
133.1549059212084103
 30
0.0
 40
4.9896097225256897
 50
67.6318962259621088
 51
77.0501777810594746
  0
ARC
  5
2F614
  8
0
 10
3044.7688828543341515
 20
149.7311879056933037
 30
0.0
 40
12.9920965593721203
 50
247.0317632017246865
 51
251.5744681326000887
  0
ARC
  5
2F615
  8
0
 10
3041.5816152244610748
 20
140.2830713732182062
 30
0.0
 40
3.0211635839946789
 50
252.2873662253855116
 51
266.4403186933731718
  0
ARC
  5
2F616
  8
0
 10
3041.5512553664761981
 20
136.4116822691881055
 30
0.0
 40
0.8703716375879956
 50
74.554864540666685
 51
100.4066931207023998
  0
ARC
  5
2F617
  8
0
 10
3041.7736955803529781
 20
137.2123055661525086
 30
0.0
 40
0.0394407563470991
 50
30.6621396497024712
 51
76.2817875591519794
  0
ARC
  5
2F618
  8
0
 10
3042.2134331610081972
 20
137.4730532705125086
 30
0.0
 40
0.4717915834813952
 50
210.666683369165014
 51
258.391306324547827
  0
ARC
  5
2F619
  8
0
 10
3042.1223139648818687
 20
137.0302946771286088
 30
0.0
 40
0.0197547881157658
 50
258.8569411554867088
 51
359.5373370568339055
  0
LINE
  5
2F61A
  8
0
 10
3042.1420681089412028
 20
137.0301351591124899
 30
0.0
 11
3042.1420681089412028
 21
140.1135725358446109
 31
0.0
  0
ARC
  5
2F61B
  8
0
 10
3042.1223841475948575
 20
140.1135721052312135
 30
0.0
 40
0.0196839613503875
 50
0.001253422605482
 51
101.3922628687636944
  0
ARC
  5
2F61C
  8
0
 10
3042.2118799772561033
 20
139.6694127032284882
 30
0.0
 40
0.4727701318679089
 50
101.3922628687636944
 51
148.4031705517365936
  0
ARC
  5
2F61D
  8
0
 10
3041.7715179578458446
 20
139.9402916353940896
 30
0.0
 40
0.0442348043081656
 50
280.7049577264995719
 51
328.4031705517380146
  0
ARC
  5
2F61E
  8
0
 10
3042.1021049966739156
 20
136.4328653676041938
 30
0.0
 40
3.4789295032678069
 50
95.3168643275155461
 51
99.7647976287703244
  0
ARC
  5
2F61F
  8
0
 10
3037.0952987353998651
 20
173.8991900594598121
 30
0.0
 40
34.3231618409306378
 50
272.8724048012041976
 51
277.3934244371877753
  0
ARC
  5
2F620
  8
0
 10
3038.9827640047387831
 20
135.1284000541274963
 30
0.0
 40
4.4938729139475111
 50
92.1356398121413349
 51
111.9701680875920999
  0
LINE
  5
2F621
  8
0
 10
3041.781417325782968
 20
139.8987927064283099
 30
0.0
 11
3041.781417325782968
 21
137.251013881539393
 31
0.0
  0
ARC
  5
2F622
  8
0
 10
3037.0581816529402204
 20
139.0966178947927006
 30
0.0
 40
0.7391842622518002
 50
63.6154581785665698
 51
116.3845418214334018
  0
ARC
  5
2F623
  8
0
 10
3036.7339973831608404
 20
139.7508031922797898
 30
0.0
 40
0.0090839525757357
 50
118.2843803607341044
 51
180.6248300033221028
  0
ARC
  5
2F624
  8
0
 10
3036.630119045390984
 20
139.7536465256972917
 30
0.0
 40
0.0948405797140847
 50
300.5536563864213235
 51
358.2221336546700741
  0
ARC
  5
2F625
  8
0
 10
3036.6837790840349953
 20
139.6635887650529924
 30
0.0
 40
0.0100000001279725
 50
123.0130495997131987
 51
174.3134597249901105
  0
ARC
  5
2F626
  8
0
 10
3037.6769906247409381
 20
139.5647108105445113
 30
0.0
 40
1.0081212425000781
 50
174.3147093458005941
 51
185.634724626711801
  0
ARC
  5
2F627
  8
0
 10
3036.6836922069542197
 20
139.466709445182687
 30
0.0
 40
0.0100000001730836
 50
185.6359638345952874
 51
245.4250783669330929
  0
ARC
  5
2F628
  8
0
 10
3036.6130472107752212
 20
139.2720576591636927
 30
0.0
 40
0.1971091951768188
 50
9.7165975868701366
 51
70.287157515955613
  0
ARC
  5
2F629
  8
0
 10
3036.8173109237409335
 20
139.3059224051444005
 30
0.0
 40
0.0100000000000061
 50
183.4263734154820042
 51
269.9999999999478746
  0
LINE
  5
2F62A
  8
0
 10
3036.8173109237409335
 20
139.2959224051444949
 30
0.0
 11
3037.3014992366302067
 21
139.2959224051444949
 31
0.0
  0
LINE
  5
2F62B
  8
0
 10
3036.8613312592401599
 20
139.2905406256444962
 30
0.0
 11
3037.282006236721827
 21
139.2905406256444962
 31
0.0
  0
ARC
  5
2F62C
  8
0
 10
3036.8613312592401599
 20
139.2511705469445076
 30
0.0
 40
0.0393700787000294
 50
89.9999618708566516
 51
179.9999999999739089
  0
ARC
  5
2F62D
  8
0
 10
3036.9391032918920246
 20
139.3120927416075858
 30
0.0
 40
0.0294682480118761
 50
213.2858100110163093
 51
227.0011509268692862
  0
ARC
  5
2F62E
  8
0
 10
3036.7825689323240113
 20
138.9778806481882896
 30
0.0
 40
0.0393923106927936
 50
315.8097746611662728
 51
359.9964351230830744
  0
LINE
  5
2F62F
  8
0
 10
3036.8219612429411427
 20
138.9778781972443937
 30
0.0
 11
3036.821961180541166
 21
139.2511705469445076
 31
0.0
  0
ARC
  5
2F630
  8
0
 10
3037.2810787020921452
 20
139.3318932545381017
 30
0.0
 40
0.0413630298322615
 50
268.7150778177746133
 51
299.5834368954864999
  0
LINE
  5
2F631
  8
0
 10
3037.2986706886272259
 20
139.2944576799241929
 30
0.0
 11
3037.3374685203398258
 21
139.2946819809444889
 31
0.0
  0
ARC
  5
2F632
  8
0
 10
3037.3375200738628337
 20
139.2857646568888015
 30
0.0
 40
0.0089174730770512
 50
77.8217553298221674
 51
90.3312390939603489
  0
ARC
  5
2F633
  8
0
 10
3037.3390460987311599
 20
139.2928357991607129
 30
0.0
 40
0.0016835388136642
 50
358.8236512631722235
 51
77.8217553298483296
  0
ARC
  5
2F634
  8
0
 10
3037.3387344947941529
 20
139.2928421976496054
 30
0.0
 40
0.0019952084371075
 50
314.3619105549540791
 51
358.8236512632178119
  0
ARC
  5
2F635
  8
0
 10
3037.2486323617840753
 20
139.3849739094791005
 30
0.0
 40
0.1308619873121774
 50
299.5729177604076199
 51
314.3619105549540791
  0
ARC
  5
2F636
  8
0
 10
3043.0218781824878533
 20
129.2110292075610118
 30
0.0
 40
11.5669804677718595
 50
119.5729177604075062
 51
120.118391609225597
  0
ARC
  5
2F637
  8
0
 10
3042.1570620008601509
 20
131.2147361515926036
 30
0.0
 40
9.4033614851412111
 50
121.6868293216974024
 51
124.6489260925292939
  0
ARC
  5
2F638
  8
0
 10
3038.2156875896298516
 20
137.7461652050467933
 30
0.0
 40
1.850379532390048
 50
139.3968179257931013
 51
173.8522631475599951
  0
ARC
  5
2F639
  8
0
 10
3033.0707702688928293
 20
138.419772028009703
 30
0.0
 40
3.3392001433327021
 50
344.3516110001045831
 51
351.8142405610773835
  0
ARC
  5
2F63A
  8
0
 10
3036.247765207403063
 20
137.52999627092791
 30
0.0
 40
0.0399584137013501
 50
316.2594725744165203
 51
344.1443098002274041
  0
ARC
  5
2F63B
  8
0
 10
3036.5599798410130461
 20
137.2290870352900072
 30
0.0
 40
0.3936596041233842
 50
136.0357407007554968
 51
169.0962310190448932
  0
ARC
  5
2F63C
  8
0
 10
3036.1927813741531281
 20
137.2998273963397082
 30
0.0
 40
0.0197091897191255
 50
169.1077378453732933
 51
264.1327680091790171
  0
LINE
  5
2F63D
  8
0
 10
3036.2862033189021531
 20
137.5190790180726026
 30
0.0
 11
3038.0636113062400909
 21
137.3660257708444874
 31
0.0
  0
LINE
  5
2F63E
  8
0
 10
3037.3914493351389865
 20
139.7507041306444933
 30
0.0
 11
3036.72491397074009
 21
139.7507041306444933
 31
0.0
  0
LINE
  5
2F63F
  8
0
 10
3037.4380325222941792
 20
139.6719742301445137
 30
0.0
 11
3036.6783307835848973
 21
139.6719742301445137
 31
0.0
  0
LINE
  5
2F640
  8
0
 10
3037.4368299267930524
 20
139.4576152627444969
 30
0.0
 11
3036.6795333790860241
 21
139.4576152627444969
 31
0.0
  0
ARC
  5
2F641
  8
0
 10
3037.3823659227191456
 20
139.7508031922797898
 30
0.0
 40
0.0090839525757357
 50
359.3751699966779256
 51
61.7156196392659027
  0
ARC
  5
2F642
  8
0
 10
3037.4862442604880926
 20
139.7536465256972917
 30
0.0
 40
0.0948405797140847
 50
181.7778663453298122
 51
239.4463436135787049
  0
ARC
  5
2F643
  8
0
 10
3037.4325842218449907
 20
139.6635887650529924
 30
0.0
 40
0.0100000001279725
 50
5.6865402750099427
 51
56.9869504002868297
  0
ARC
  5
2F644
  8
0
 10
3036.4393726811390479
 20
139.5647108105445113
 30
0.0
 40
1.0081212425000781
 50
354.3652753732882275
 51
5.6852906541994237
  0
ARC
  5
2F645
  8
0
 10
3037.4326710989248568
 20
139.466709445182687
 30
0.0
 40
0.0100000001730836
 50
294.5749216330668787
 51
354.3640361654046842
  0
ARC
  5
2F646
  8
0
 10
3037.5033160951052196
 20
139.2720576591636927
 30
0.0
 40
0.1971091951768188
 50
109.7128424840444012
 51
170.2834024131298065
  0
ARC
  5
2F647
  8
0
 10
3037.2990523821390525
 20
139.3059224051444005
 30
0.0
 40
0.0100000000000061
 50
270.0000000000521254
 51
356.5736265845179105
  0
ARC
  5
2F64D
  8
0
 10
3037.1791683330829983
 20
139.3090802458197004
 30
0.0
 40
0.0260834012634613
 50
314.6917683213192731
 51
329.7049757521876927
  0
ENDSEC
  0
EOF
