  0
SECTION
  2
HEADER
  9
$ACADVER
  1
AC1009
  9
$INSBASE
 10
3025.9042972198399184
 20
203.2476600202444956
 30
0.0
  9
$EXTMIN
 10
3022.8083347509591476
 20
195.097963510725009
 30
0.0
  9
$EXTMAX
 10
3029.0002589983309917
 20
203.257076567838908
 30
0.0
  9
$LIMMIN
 10
0.0
 20
0.0
  9
$LIMMAX
 10
11.6929133858000007
 20
8.2677165353999982
  9
$ORTHOMODE
 70
     1
  9
$REGENMODE
 70
     1
  9
$FILLMODE
 70
     1
  9
$QTEXTMODE
 70
     0
  9
$MIRRTEXT
 70
     0
  9
$DRAGMODE
 70
     2
  9
$LTSCALE
 40
0.6431102362
  9
$OSMODE
 70
  4095
  9
$ATTMODE
 70
     1
  9
$TEXTSIZE
 40
0.2
  9
$TRACEWID
 40
0.05
  9
$TEXTSTYLE
  7
STANDARD
  9
$CLAYER
  8
0
  9
$CELTYPE
  6
BYLAYER
  9
$CECOLOR
 62
   256
  9
$DIMSCALE
 40
1.0
  9
$DIMASZ
 40
0.1875
  9
$DIMEXO
 40
0.0625
  9
$DIMDLI
 40
0.4443307087
  9
$DIMRND
 40
0.0
  9
$DIMDLE
 40
0.0
  9
$DIMEXE
 40
0.125
  9
$DIMTP
 40
0.01
  9
$DIMTM
 40
0.01
  9
$DIMTXT
 40
2.0
  9
$DIMCEN
 40
0.1052362205
  9
$DIMTSZ
 40
0.0
  9
$DIMTOL
 70
     1
  9
$DIMLIM
 70
     0
  9
$DIMTIH
 70
     1
  9
$DIMTOH
 70
     1
  9
$DIMSE1
 70
     0
  9
$DIMSE2
 70
     0
  9
$DIMTAD
 70
     0
  9
$DIMZIN
 70
     0
  9
$DIMBLK
  1

  9
$DIMASO
 70
     1
  9
$DIMSHO
 70
     1
  9
$DIMPOST
  1
\X
  9
$DIMAPOST
  1

  9
$DIMALT
 70
     1
  9
$DIMALTD
 70
     2
  9
$DIMALTF
 40
25.3999999999999986
  9
$DIMLFAC
 40
1.0
  9
$DIMTOFL
 70
     0
  9
$DIMTVP
 40
0.0
  9
$DIMTIX
 70
     0
  9
$DIMSOXD
 70
     0
  9
$DIMSAH
 70
     0
  9
$DIMBLK1
  1

  9
$DIMBLK2
  1

  9
$DIMSTYLE
  2
STANDARD
  9
$DIMCLRD
 70
     0
  9
$DIMCLRE
 70
     0
  9
$DIMCLRT
 70
     0
  9
$DIMTFAC
 40
1.0
  9
$DIMGAP
 40
0.09
  9
$LUNITS
 70
     2
  9
$LUPREC
 70
     4
  9
$SKETCHINC
 40
0.1
  9
$FILLETRAD
 40
0.0
  9
$AUNITS
 70
     0
  9
$AUPREC
 70
     0
  9
$MENU
  1
.
  9
$ELEVATION
 40
0.0
  9
$PELEVATION
 40
0.0
  9
$THICKNESS
 40
0.0
  9
$LIMCHECK
 70
     0
  9
$BLIPMODE
 70
     0
  9
$CHAMFERA
 40
0.0
  9
$CHAMFERB
 40
0.0
  9
$SKPOLY
 70
     0
  9
$TDCREATE
 40
2458060.468368056230247
  9
$TDUPDATE
 40
2459663.4379050931893289
  9
$TDINDWG
 40
0.4444978009
  9
$TDUSRTIMER
 40
0.4444978009
  9
$USRTIMER
 70
     1
  9
$ANGBASE
 50
0.0
  9
$ANGDIR
 70
     0
  9
$PDMODE
 70
     0
  9
$PDSIZE
 40
0.3125
  9
$PLINEWID
 40
0.0
  9
$COORDS
 70
     1
  9
$SPLFRAME
 70
     0
  9
$SPLINETYPE
 70
     6
  9
$SPLINESEGS
 70
     8
  9
$ATTDIA
 70
     1
  9
$ATTREQ
 70
     1
  9
$HANDLING
 70
     1
  9
$HANDSEED
  5
2F97F
  9
$SURFTAB1
 70
     6
  9
$SURFTAB2
 70
     6
  9
$SURFTYPE
 70
     6
  9
$SURFU
 70
     6
  9
$SURFV
 70
     6
  9
$UCSNAME
  2

  9
$UCSORG
 10
0.0
 20
0.0
 30
0.0
  9
$UCSXDIR
 10
1.0
 20
0.0
 30
0.0
  9
$UCSYDIR
 10
0.0
 20
1.0
 30
0.0
  9
$PUCSNAME
  2

  9
$PUCSORG
 10
0.0
 20
0.0
 30
0.0
  9
$PUCSXDIR
 10
1.0
 20
0.0
 30
0.0
  9
$PUCSYDIR
 10
0.0
 20
1.0
 30
0.0
  9
$USERI1
 70
     0
  9
$USERI2
 70
     0
  9
$USERI3
 70
     0
  9
$USERI4
 70
     0
  9
$USERI5
 70
     0
  9
$USERR1
 40
0.0
  9
$USERR2
 40
0.0
  9
$USERR3
 40
0.0
  9
$USERR4
 40
0.0
  9
$USERR5
 40
0.0
  9
$WORLDVIEW
 70
     1
  9
$SHADEDGE
 70
     3
  9
$SHADEDIF
 70
    70
  9
$TILEMODE
 70
     1
  9
$MAXACTVP
 70
    64
  9
$PLIMCHECK
 70
     0
  9
$PEXTMIN
 10
1.0000000000000000E+20
 20
1.0000000000000000E+20
 30
1.0000000000000000E+20
  9
$PEXTMAX
 10
-1.0000000000000000E+20
 20
-1.0000000000000000E+20
 30
-1.0000000000000000E+20
  9
$PLIMMIN
 10
0.0
 20
0.0
  9
$PLIMMAX
 10
12.0
 20
9.0
  9
$UNITMODE
 70
     0
  9
$VISRETAIN
 70
     1
  9
$PLINEGEN
 70
     0
  9
$PSLTSCALE
 70
     1
  0
ENDSEC
  0
SECTION
  2
TABLES
  0
TABLE
  2
VPORT
 70
     1
  0
VPORT
  2
*ACTIVE
 70
     0
 10
0.0
 20
0.0
 11
1.0
 21
1.0
 12
-777.5166179854843449
 22
73.5170097736570938
 13
0.0
 23
0.0
 14
1.0
 24
1.0
 15
0.0
 25
0.0
 16
0.0
 26
0.0
 36
17.1152628219792007
 17
3803.5440673828129547
 27
125.9952621967499056
 37
0.0
 40
8.2516061993308671
 41
2.2831541218637992
 42
50.0
 43
0.0
 44
0.0
 50
0.0
 51
0.0
 71
     0
 72
   100
 73
     1
 74
     1
 75
     0
 76
     0
 77
     0
 78
     0
  0
ENDTAB
  0
TABLE
  2
LTYPE
 70
     2
  0
LTYPE
  2
CONTINUOUS
 70
     0
  3
Solid line
 72
    65
 73
     0
 40
0.0
  0
LTYPE
  2
PHANTOM2
 70
     0
  3
___ _ _ ___ _ _ ___ _ _ ___ _ _
 72
    65
 73
     6
 40
1.25
 49
0.625
 49
-0.125
 49
0.125
 49
-0.125
 49
0.125
 49
-0.125
  0
ENDTAB
  0
TABLE
  2
LAYER
 70
     2
  0
LAYER
  2
0
 70
     0
 62
   255
  6
CONTINUOUS
  0
LAYER
  2
DEFPOINTS
 70
     0
 62
     7
  6
CONTINUOUS
  0
ENDTAB
  0
TABLE
  2
STYLE
 70
     1
  0
STYLE
  2
STANDARD
 70
     0
 40
0.0
 41
0.8
 50
0.0
 71
     0
 42
0.2
  3
txt
  4

  0
ENDTAB
  0
TABLE
  2
VIEW
 70
     0
  0
ENDTAB
  0
TABLE
  2
UCS
 70
     0
  0
ENDTAB
  0
TABLE
  2
APPID
 70
     9
  0
APPID
  2
ACAD
 70
     0
  0
APPID
  2
ACAD_MLEADERVER
 70
     0
  0
APPID
  2
ACAD_EXEMPT_FROM_CAD_STANDARDS
 70
     0
  0
APPID
  2
ACAD_NAV_VCDISPLAY
 70
     0
  0
APPID
  2
ACAECLAYERSTANDARD
 70
     0
  0
APPID
  2
ACCMTRANSPARENCY
 70
     0
  0
APPID
  2
ACAD_DSTYLE_DIMJAG
 70
     0
  0
APPID
  2
ACAD_DSTYLE_DIMTALN
 70
     0
  0
APPID
  2
ACDBATTR
 70
     0
  0
ENDTAB
  0
TABLE
  2
DIMSTYLE
 70
     1
  0
DIMSTYLE
  2
STANDARD
 70
     0
  3

  4

  5

  6

  7

 40
1.0
 41
0.1875
 42
0.0625
 43
0.38
 44
0.125
 45
0.0
 46
0.0
 47
0.01
 48
0.01
140
0.15625
141
0.09
142
0.0
143
25.3999999999999986
144
1.0
145
0.0
146
1.0
147
0.09
 71
     1
 72
     0
 73
     1
 74
     1
 75
     0
 76
     0
 77
     0
 78
     4
170
     0
171
     2
172
     0
173
     0
174
     0
175
     0
176
     0
177
     0
178
     0
  0
ENDTAB
  0
ENDSEC
  0
SECTION
  2
BLOCKS
  0
BLOCK
  8
0
  2
$MODEL_SPACE
 70
     0
 10
0.0
 20
0.0
 30
0.0
  3
$MODEL_SPACE
  1

  0
ENDBLK
  5
21
  8
0
  0
BLOCK
 67
     1
  8
0
  2
$PAPER_SPACE
 70
     0
 10
0.0
 20
0.0
 30
0.0
  3
$PAPER_SPACE
  1

  0
ENDBLK
  5
1D
 67
     1
  8
0
  0
BLOCK
  8
0
  2
_FILLED
 70
     0
 10
0.0
 20
0.0
 30
0.0
  3
_FILLED
  1

  0
SOLID
  5
2A3C8
  8
0
  6
BYBLOCK
 62
     0
 10
0.0
 20
0.0
 30
0.0
 11
-1.0
 21
0.1666666667
 31
0.0
 12
-1.0
 22
-0.1666666667
 32
0.0
 13
-1.0
 23
-0.1666666667
 33
0.0
  0
ENDBLK
  5
2A3C9
  8
0
  6
BYBLOCK
 62
     0
  0
ENDSEC
  0
SECTION
  2
ENTITIES
  0
LINE
  5
2F007
  8
0
 10
3024.9737994567958594
 20
202.9761682218444889
 30
0.0
 11
3026.8347949828848868
 21
202.9761682218444889
 31
0.0
  0
LINE
  5
2F008
  8
0
 10
3025.4769872802539794
 20
202.3965979148445058
 30
0.0
 11
3026.3316071594240384
 21
202.3965979148445058
 31
0.0
  0
LINE
  5
2F009
  8
0
 10
3025.5027441301967883
 20
198.8254328831268936
 30
0.0
 11
3025.5027968654540018
 21
199.6479154312445132
 31
0.0
  0
ARC
  5
2F00A
  8
0
 10
3008.7766260794828668
 20
199.6214260628119916
 30
0.0
 40
16.7261917616688116
 50
0.0907397014946086
 51
1.8945371388524499
  0
ARC
  5
2F00B
  8
0
 10
3173.8537179412160185
 20
198.3325299816337974
 30
0.0
 40
148.371475840490092
 50
179.0480108338987861
 51
179.2887201998597106
  0
LINE
  5
2F00C
  8
0
 10
3025.5027220641591157
 20
200.7976598707444964
 30
0.0
 11
3025.5027220614738326
 21
202.3965979148445058
 31
0.0
  0
ARC
  5
2F00D
  8
0
 10
3025.8251116114679462
 20
198.9089709545548033
 30
0.0
 40
0.3583901636717467
 50
220.9582594030125051
 51
244.8843078935371125
  0
ARC
  5
2F00E
  8
0
 10
3025.7118230548871907
 20
198.8106355210780123
 30
0.0
 40
0.2083763158799766
 50
187.9183412335233072
 51
220.9582594030113114
  0
ARC
  5
2F00F
  8
0
 10
3025.7880212185509663
 20
198.8212337529772071
 30
0.0
 40
0.2853079911842139
 50
179.1566968696407116
 51
187.9183412335233072
  0
ARC
  5
2F010
  8
0
 10
3025.7167170041388999
 20
198.7068111118157958
 30
0.0
 40
0.24465386574433
 50
150.9969963048972943
 51
163.0088603590513969
  0
ARC
  5
2F011
  8
0
 10
3025.8482435329538021
 20
198.6915254854349087
 30
0.0
 40
0.375661826237435
 50
166.6438226498933091
 51
175.8692811899740889
  0
ARC
  5
2F012
  8
0
 10
3025.8423037904499324
 20
198.7279939349548954
 30
0.0
 40
0.3688662432249792
 50
181.4616063296755044
 51
189.6333337046588099
  0
ARC
  5
2F013
  8
0
 10
3025.7123058128418052
 20
198.719338415121797
 30
0.0
 40
0.2396179499278722
 50
192.7961818788189987
 51
216.7575540665079075
  0
ARC
  5
2F014
  8
0
 10
3025.8036612532268919
 20
198.7875755207562065
 30
0.0
 40
0.3536447848107531
 50
216.7575540665079075
 51
239.0181501947274114
  0
ARC
  5
2F015
  8
0
 10
3025.8803495363008551
 20
198.9152978868864921
 30
0.0
 40
0.5026216137832997
 50
239.0181501947274114
 51
255.8458889688591
  0
ARC
  5
2F016
  8
0
 10
3025.904303094505849
 20
199.0102812514330139
 30
0.0
 40
0.6005788110241909
 50
255.8458889688591
 51
270.0043830301326011
  0
ARC
  5
2F017
  8
0
 10
3025.6976426810970224
 20
198.775444552984311
 30
0.0
 40
0.1923185190239868
 50
178.0677005869987113
 51
200.4981455305949964
  0
ARC
  5
2F018
  8
0
 10
3025.7343294318648077
 20
198.7891598136380082
 30
0.0
 40
0.2314851637202522
 50
200.4981455305949964
 51
221.8926819470079863
  0
ARC
  5
2F019
  8
0
 10
3025.8086682158991607
 20
198.8558430530200951
 30
0.0
 40
0.3313496179872666
 50
221.8926819470067926
 51
239.1680155926231919
  0
ARC
  5
2F01A
  8
0
 10
3025.8665558092470746
 20
198.9528272591159066
 30
0.0
 40
0.4442961083962348
 50
239.1680155926231919
 51
244.3235613417479044
  0
LINE
  5
2F01B
  8
0
 10
3025.6740474129542235
 20
198.5524030474444999
 30
0.0
 11
3025.6729938300541107
 21
198.584465654144509
 31
0.0
  0
ARC
  5
2F01C
  8
0
 10
3025.7140180245719421
 20
198.7617258134793872
 30
0.0
 40
0.2083469088122146
 50
179.4680918689817872
 51
202.5722206412532955
  0
ARC
  5
2F01D
  8
0
 10
3025.7366111124829331
 20
198.7711175587768935
 30
0.0
 40
0.232814285072948
 50
202.5722206412532955
 51
226.4299502481117941
  0
ARC
  5
2F01E
  8
0
 10
3025.8380061244220087
 20
198.8777043205203938
 30
0.0
 40
0.3799254206987215
 50
226.4299502481117941
 51
244.2959146016883096
  0
ARC
  5
2F01F
  8
0
 10
3025.9086196536809439
 20
199.0342827556249006
 30
0.0
 40
0.5516531914174591
 50
244.7410377575698988
 51
269.5564410474108854
  0
ARC
  5
2F020
  8
0
 10
3025.9106285772131741
 20
199.0131072495439071
 30
0.0
 40
0.5810279388869568
 50
251.7382206737160004
 51
269.3807559190207144
  0
ARC
  5
2F021
  8
0
 10
3025.8639453789819527
 20
198.8567647229683075
 30
0.0
 40
0.4179570163451534
 50
232.3480471207751066
 51
251.099477627440109
  0
ARC
  5
2F022
  8
0
 10
3025.7902435342789431
 20
198.7612402302470116
 30
0.0
 40
0.2973050763593241
 50
211.318218562822409
 51
232.3480471207957123
  0
ARC
  5
2F023
  8
0
 10
3025.6912364435961535
 20
198.7009998475390091
 30
0.0
 40
0.181411557497458
 50
188.986063958749213
 51
211.318218562822409
  0
ARC
  5
2F024
  8
0
 10
3025.9527674374439812
 20
198.7423570822546992
 30
0.0
 40
0.4461923755450421
 50
180.002332765142512
 51
188.986063958749213
  0
ARC
  5
2F025
  8
0
 10
3025.6975930243961557
 20
198.7260576843164017
 30
0.0
 40
0.189546795810853
 50
178.7847964397643921
 51
194.270206466058994
  0
ARC
  5
2F026
  8
0
 10
3025.7161230216838703
 20
198.7307706612049003
 30
0.0
 40
0.2086667579097262
 50
194.270206466058994
 51
212.3396442438354939
  0
ARC
  5
2F027
  8
0
 10
3025.7767965113871469
 20
198.7691856338504124
 30
0.0
 40
0.2804788911195412
 50
212.3396442438341865
 51
237.4410823515505058
  0
ARC
  5
2F028
  8
0
 10
3025.877131325280061
 20
198.9263229307551057
 30
0.0
 40
0.4669170979263862
 50
237.4410823515505058
 51
256.1716739967715739
  0
ARC
  5
2F029
  8
0
 10
3025.9153871526282273
 20
199.1406743318345036
 30
0.0
 40
0.68434442891361
 50
257.3510760056681193
 51
269.0758092063909999
  0
ARC
  5
2F02A
  8
0
 10
3025.7971237727751941
 20
198.6877982826900109
 30
0.0
 40
0.3035966013770222
 50
163.9557270879438988
 51
177.8089523971239885
  0
ARC
  5
2F02B
  8
0
 10
3025.6986179075579457
 20
198.6976015199388996
 30
0.0
 40
0.2048895735626313
 50
179.1571130051640921
 51
179.1836558683816918
  0
ARC
  5
2F02C
  8
0
 10
3025.772374095340183
 20
198.7113732944972071
 30
0.0
 40
0.2788818824437141
 50
182.459560404645714
 51
198.7443419779650071
  0
ARC
  5
2F02D
  8
0
 10
3025.7510357627911617
 20
198.7213887788140028
 30
0.0
 40
0.2624030547942453
 50
202.3147728474662017
 51
218.0085602470491892
  0
ARC
  5
2F02E
  8
0
 10
3025.7978097144577987
 20
198.7579438501707898
 30
0.0
 40
0.3217669815218624
 50
218.0085602470491892
 51
241.4925555896348897
  0
ARC
  5
2F02F
  8
0
 10
3025.9100478865088917
 20
198.9645968125890079
 30
0.0
 40
0.5569325702916464
 50
241.4925555896348897
 51
257.8543738567882997
  0
ARC
  5
2F030
  8
0
 10
3025.7013324865229151
 20
198.6767799248144115
 30
0.0
 40
0.1905578362102936
 50
178.7111460546960018
 51
202.106354613114803
  0
ARC
  5
2F031
  8
0
 10
3025.7388918796650614
 20
198.6920360655742002
 30
0.0
 40
0.2310974198801259
 50
202.106354613114803
 51
219.4766254372511014
  0
ARC
  5
2F032
  8
0
 10
3025.9305115262300205
 20
198.8498638614267975
 30
0.0
 40
0.4793466939850683
 50
219.4766254372511014
 51
224.9428422382800932
  0
ARC
  5
2F033
  8
0
 10
3025.6993609925079909
 20
198.6492366824627993
 30
0.0
 40
0.2052978952947784
 50
159.488731150771514
 51
172.5858344268511075
  0
LINE
  5
2F034
  8
0
 10
3024.8528466827337979
 20
203.0591269596444874
 30
0.0
 11
3026.9557477568268951
 21
203.0591269596444874
 31
0.0
  0
LINE
  5
2F035
  8
0
 10
3025.9043490377689523
 20
202.3965979148445058
 30
0.0
 11
3025.9042968664689397
 21
202.3965979148445058
 31
0.0
  0
ARC
  5
2F070
  8
0
 10
3025.9220932752841691
 20
196.9884105985705958
 30
0.0
 40
1.8905303620700591
 50
246.855521894660086
 51
269.4622224173647851
  0
ARC
  5
2F071
  8
0
 10
3025.6779319910770027
 20
196.4041027654103004
 30
0.0
 40
1.257292288321775
 50
218.9264334728740096
 51
246.6207206567875119
  0
ARC
  5
2F072
  8
0
 10
3025.3083537829152192
 20
196.1056091214553874
 30
0.0
 40
0.78222754807138
 50
193.4036701520668942
 51
218.9264334728740096
  0
ARC
  5
2F073
  8
0
 10
3025.8980342305540034
 20
196.183913634719886
 30
0.0
 40
1.3753298050271541
 50
181.6086268396470018
 51
190.8815138895587893
  0
ARC
  5
2F074
  8
0
 10
3042.4100346475402148
 20
196.0089948151999124
 30
0.0
 40
17.8873075886333304
 50
178.145533552803812
 51
179.5633728623149068
  0
ARC
  5
2F075
  8
0
 10
3027.4840127790462248
 20
196.4800944850296958
 30
0.0
 40
2.9538830867135819
 50
173.2477363041192859
 51
177.9095423605828898
  0
ARC
  5
2F076
  8
0
 10
3025.9415203092689808
 20
196.5981853409689109
 30
0.0
 40
1.4096625503036151
 50
150.7817757267945922
 51
170.6419258313291039
  0
ARC
  5
2F077
  8
0
 10
3025.9301514942990252
 20
196.604835062759804
 30
0.0
 40
1.396494271343655
 50
129.6760175228442051
 51
150.7922016028666121
  0
ARC
  5
2F078
  8
0
 10
3025.9240881587079457
 20
196.6106541055085017
 30
0.0
 40
1.3881447625586281
 50
121.8792677170931995
 51
129.6367399282835891
  0
LINE
  5
2F079
  8
0
 10
3024.8303686847980316
 20
203.2275727523447983
 30
0.0
 11
3024.8303686847980316
 21
203.1058671455444937
 31
0.0
  0
ARC
  5
2F07A
  8
0
 10
3024.890877665104199
 20
203.1061916640317122
 30
0.0
 40
0.0605098505200925
 50
180.307282676463501
 51
231.0597993692690011
  0
LINE
  5
2F07B
  8
0
 10
3024.8528466828279306
 20
203.0591269596652921
 30
0.0
 11
3024.9395582610031852
 21
202.9893327565075936
 31
0.0
  0
ARC
  5
2F07C
  8
0
 10
3024.9771794653029247
 20
203.0360729419392101
 30
0.0
 40
0.0599999995594031
 50
231.169390242106914
 51
266.7706200171070918
  0
ARC
  5
2F07D
  8
0
 10
3025.4770204422311508
 20
202.4068393389541995
 30
0.0
 40
0.0102414777992121
 50
248.2729754371345052
 51
269.8144755409741151
  0
ARC
  5
2F07E
  8
0
 10
3025.4962669615229061
 20
202.4551373830755949
 30
0.0
 40
0.0622331076141402
 50
184.5672870115238027
 51
248.2729754371351021
  0
ARC
  5
2F07F
  8
0
 10
3024.6796089405461316
 20
202.4335578994682123
 30
0.0
 40
0.7548056189356011
 50
1.261986917393072
 51
25.9317841417187083
  0
ARC
  5
2F080
  8
0
 10
3025.0300740825909998
 20
202.5920731067647864
 30
0.0
 40
0.3704627832281775
 50
27.587419550652811
 51
53.1094843142810618
  0
ARC
  5
2F081
  8
0
 10
3024.997456141486964
 20
202.5354410257749009
 30
0.0
 40
0.4354081949898584
 50
54.1501945330976682
 51
80.6935320124424464
  0
ARC
  5
2F082
  8
0
 10
3024.9377177071869482
 20
202.263078910271787
 30
0.0
 40
0.7140015818827476
 50
79.4972158075893418
 51
87.1033497154069352
  0
ARC
  5
2F083
  8
0
 10
3025.9227656728949114
 20
198.165872605121109
 30
0.0
 40
1.0977191246268361
 50
257.2210267024566974
 51
269.0386930957097888
  0
ARC
  5
2F084
  8
0
 10
3025.6286358610559546
 20
196.8748772068198036
 30
0.0
 40
0.2263615049532998
 50
76.8949297147948272
 51
85.8806445219405958
  0
ARC
  5
2F085
  8
0
 10
3025.6598474697179881
 20
197.3082486693814985
 30
0.0
 40
0.2081324410092323
 50
252.3499890365694114
 51
265.88064452194061
  0
ARC
  5
2F086
  8
0
 10
3025.5783376102890543
 20
197.0520730728551086
 30
0.0
 40
0.0606979766145092
 50
72.3499890365694256
 51
97.2217826246336756
  0
ARC
  5
2F087
  8
0
 10
3025.5678928790771351
 20
197.1344996066085002
 30
0.0
 40
0.0223876772415483
 50
213.3971810635376016
 51
277.2217826246338745
  0
ARC
  5
2F088
  8
0
 10
3025.5255383085391259
 20
197.1065749027445122
 30
0.0
 40
0.0283439571821606
 50
33.3971810635389375
 51
72.5036044936197328
  0
ARC
  5
2F089
  8
0
 10
3025.5742455971821983
 20
197.2610885799157927
 30
0.0
 40
0.1336649203522398
 50
240.7032357876236972
 51
252.5036044936196902
  0
ARC
  5
2F08A
  8
0
 10
3025.4854946259069948
 20
197.0935562256204037
 30
0.0
 40
0.0560557162931061
 50
65.3894662443256323
 51
91.869272475972835
  0
ARC
  5
2F08B
  8
0
 10
3025.4831226573569438
 20
197.1721505377138897
 30
0.0
 40
0.0225749685489424
 50
199.0767845602588864
 51
271.3794914259966049
  0
ARC
  5
2F08C
  8
0
 10
3025.4377034258432104
 20
197.1487017498515115
 30
0.0
 40
0.0289534504064698
 50
33.7138864376005785
 51
62.5750078909565701
  0
ARC
  5
2F08D
  8
0
 10
3025.8092723438430767
 20
197.8035073400255044
 30
0.0
 40
0.7239513724779599
 50
238.2476977947657133
 51
240.3414155446324116
  0
ARC
  5
2F08E
  8
0
 10
3025.4012249752640855
 20
197.1412862463778026
 30
0.0
 40
0.0539113083603362
 50
59.8603866756422178
 51
86.1776092740997939
  0
ARC
  5
2F08F
  8
0
 10
3025.4062227204758528
 20
197.2167782876850026
 30
0.0
 40
0.0217460177544734
 50
191.7241692857047042
 51
266.298705469417996
  0
ARC
  5
2F090
  8
0
 10
3025.365078291809823
 20
197.2059056722837056
 30
0.0
 40
0.0208748029107841
 50
18.0090859095577613
 51
55.9205095293890793
  0
ARC
  5
2F091
  8
0
 10
3025.4502708370118853
 20
197.3199087429485132
 30
0.0
 40
0.121470362562136
 50
211.2387145364949959
 51
232.7676417733858898
  0
ARC
  5
2F092
  8
0
 10
3025.7083653326858439
 20
197.6491628583266902
 30
0.0
 40
0.5337318596166362
 50
201.9400427925382076
 51
227.3003010628902132
  0
ARC
  5
2F093
  8
0
 10
3025.5661993618628003
 20
197.5814705280454859
 30
0.0
 40
0.3766940821949919
 50
179.5018784625526962
 51
200.4688465787980931
  0
ARC
  5
2F094
  8
0
 10
3025.1130695573488083
 20
197.5848557877426117
 30
0.0
 40
0.0764500377819943
 50
359.9172789976948934
 51
17.3036324597312294
  0
ARC
  5
2F095
  8
0
 10
3025.2685606324189393
 20
197.6325496868822995
 30
0.0
 40
0.0861926183373133
 50
175.9711503603716949
 51
196.8295438444457943
  0
ARC
  5
2F096
  8
0
 10
3025.3592752437871241
 20
197.6239398972635115
 30
0.0
 40
0.1773018054438349
 50
171.9237867100393942
 51
175.2553402245602001
  0
ARC
  5
2F097
  8
0
 10
3025.1690745357718697
 20
197.6474185005579045
 30
0.0
 40
0.014727016001402
 50
5.5744298295775661
 51
39.5435825004561323
  0
ARC
  5
2F098
  8
0
 10
3025.1969923004071461
 20
197.6686023051769894
 30
0.0
 40
0.0203394277935363
 50
172.4764368239079033
 51
215.4877638652810958
  0
LINE
  5
2F099
  8
0
 10
3025.1768279727539266
 20
197.6712654261444868
 30
0.0
 11
3025.2355787256537951
 21
198.1622469634444883
 31
0.0
  0
ARC
  5
2F09A
  8
0
 10
3025.2569777887561031
 20
198.1595110660834962
 30
0.0
 40
0.0215729448006559
 50
120.3561702927879935
 51
172.7141903895143003
  0
ARC
  5
2F09B
  8
0
 10
3025.235485082419018
 20
198.1962087873249914
 30
0.0
 40
0.0209553889308678
 50
300.3561702928137152
 51
344.9863020634322766
  0
ARC
  5
2F09C
  8
0
 10
3025.6701222408760259
 20
198.0514468224100142
 30
0.0
 40
0.4371942091650033
 50
159.4633608996398948
 51
161.4157199612631075
  0
ARC
  5
2F09D
  8
0
 10
3025.2422937260607796
 20
198.2092423377897035
 30
0.0
 40
0.0189429410095122
 50
346.4909890882012178
 51
28.4904483198542202
  0
ARC
  5
2F09E
  8
0
 10
3025.2722891215080381
 20
198.2242170895733011
 30
0.0
 40
0.0146081441329773
 50
152.5241723821123969
 51
203.9874185385079954
  0
ARC
  5
2F09F
  8
0
 10
3025.2784555425178041
 20
198.2228938990917868
 30
0.0
 40
0.0207568901945541
 50
114.8333869212049052
 51
157.1419131864822134
  0
ARC
  5
2F0A0
  8
0
 10
3025.2577287043491197
 20
198.2692426260566947
 30
0.0
 40
0.0300181359214962
 50
293.5825199487156851
 51
329.4605069504361836
  0
ARC
  5
2F0A1
  8
0
 10
3025.4801419414129668
 20
198.1514392334217973
 30
0.0
 40
0.2217026889961525
 50
149.1343376179547988
 51
152.4477465803263101
  0
ARC
  5
2F0A2
  8
0
 10
3024.2232126023509409
 20
198.3944165624830873
 30
0.0
 40
1.074426879743051
 50
353.0914250967264252
 51
354.1566450662390935
  0
ARC
  5
2F0A3
  8
0
 10
3025.3128990133759544
 20
198.2828971307272923
 30
0.0
 40
0.0209511636877736
 50
106.1549751738276939
 51
174.1566450662423904
  0
ARC
  5
2F0A4
  8
0
 10
3025.2981870509629516
 20
198.3336849721252122
 30
0.0
 40
0.0319246027074592
 50
286.1549751738277223
 51
320.8110510233173045
  0
ARC
  5
2F0A5
  8
0
 10
3025.4479039844368344
 20
198.2116268981658038
 30
0.0
 40
0.1612419927154945
 50
122.0607580321454009
 51
140.8110510233173898
  0
ARC
  5
2F0A6
  8
0
 10
3025.2752816231341058
 20
198.4872296610053013
 30
0.0
 40
0.1639585031425812
 50
302.0607580321453725
 51
312.0013148366422797
  0
ARC
  5
2F0A7
  8
0
 10
3025.7388450320131597
 20
197.9868489681740868
 30
0.0
 40
0.518171539674728
 50
128.8129133072741865
 51
133.0694079638255971
  0
ARC
  5
2F0A8
  8
0
 10
3025.7754969304060069
 20
198.6414510657891981
 30
0.0
 40
0.3839422145332185
 50
135.2563423161765002
 51
140.234656412438909
  0
ARC
  5
2F0A9
  8
0
 10
3025.7247475198450957
 20
198.6836819013213074
 30
0.0
 40
0.3179198990475937
 50
140.2346564124401027
 51
155.8690418137952065
  0
ARC
  5
2F0AA
  8
0
 10
3025.6447587838438267
 20
198.7195144724215083
 30
0.0
 40
0.2302719039846476
 50
155.8690418137937002
 51
163.851717785053097
  0
ARC
  5
2F0AB
  8
0
 10
3025.7274399283901403
 20
198.69557428932211
 30
0.0
 40
0.3163492182446429
 50
163.851717785053097
 51
172.1344182248404877
  0
ARC
  5
2F0AC
  8
0
 10
7335.1633621462578958
 20
198.7089668083804099
 30
0.0
 40
4309.7492952786224123
 50
179.9996024994811989
 51
180.0003975005170958
  0
ARC
  5
2F0AD
  8
0
 10
74295.2931320566422073
 20
198.2363616930406067
 30
0.0
 40
71269.8790664602565812
 50
179.9996440971810046
 51
179.9998759984092089
  0
ARC
  5
2F0AE
  8
0
 10
3020.2977997459988728
 20
198.3906176057884068
 30
0.0
 40
5.1162660173067049
 50
358.4405711393117144
 51
359.9998759984092089
  0
ARC
  5
2F0AF
  8
0
 10
3025.6676173831879169
 20
198.2444302776021914
 30
0.0
 40
0.2555411452392962
 50
178.4405711393116007
 51
192.9044835372866942
  0
ARC
  5
2F0B0
  8
0
 10
3025.7416156304639117
 20
198.2613842330648026
 30
0.0
 40
0.3314567378784968
 50
192.9044835372866942
 51
206.8109758311144049
  0
ARC
  5
2F0B1
  8
0
 10
3025.7022065063388254
 20
198.2414677753992009
 30
0.0
 40
0.2873008283053391
 50
206.8109758311144049
 51
225.4089458804457138
  0
ARC
  5
2F0B2
  8
0
 10
3025.8575560081071671
 20
198.3990508564091897
 30
0.0
 40
0.5085832160372985
 50
225.4089458804457138
 51
243.7639471413617969
  0
ARC
  5
2F0B3
  8
0
 10
3025.88916322408204
 20
198.4832005415954939
 30
0.0
 40
0.5981019108519297
 50
244.6116797689165878
 51
259.8533763366987728
  0
ARC
  5
2F0B4
  8
0
 10
3025.9187343104817955
 20
198.7185663415777128
 30
0.0
 40
0.8350875027902404
 50
260.701108964246373
 51
269.0129702828695031
  0
ARC
  5
2F0B5
  8
0
 10
3025.656634828380902
 20
198.0920915627669956
 30
0.0
 40
0.266135935628344
 50
155.088254104701889
 51
179.7973023547309879
  0
ARC
  5
2F0B6
  8
0
 10
3025.9042387151048388
 20
198.43346931394791
 30
0.0
 40
0.7037429189243775
 50
249.3755633886732994
 51
270.0089820059329213
  0
ARC
  5
2F0B7
  8
0
 10
3025.8332517154758534
 20
198.2448557546125869
 30
0.0
 40
0.5022131968448394
 50
226.3885681845735007
 51
249.3755633886732994
  0
ARC
  5
2F0B8
  8
0
 10
3025.7090430991870562
 20
198.1144759578172909
 30
0.0
 40
0.3221391238281721
 50
196.2425026242788135
 51
226.3885681845735007
  0
ARC
  5
2F0B9
  8
0
 10
3025.623138012137133
 20
198.0894491038851015
 30
0.0
 40
0.2326627168888693
 50
179.1173714797741923
 51
196.2425026242788135
  0
ARC
  5
2F0BA
  8
0
 10
3025.249068965306833
 20
198.1614149397643985
 30
0.0
 40
0.0136299963512527
 50
181.2907342801503034
 51
215.7527205736913061
  0
ARC
  5
2F0BB
  8
0
 10
3025.2219687248621085
 20
198.1405842378106001
 30
0.0
 40
0.020562132014788
 50
352.3849338295906932
 51
38.7376203109903301
  0
ARC
  5
2F0BC
  8
0
 10
3025.3221953302181646
 20
198.1209881369815946
 30
0.0
 40
0.0816087867830125
 50
168.0690060616479116
 51
198.8935692651078
  0
ARC
  5
2F0BD
  8
0
 10
3025.1695705159468162
 20
198.0683711944460015
 30
0.0
 40
0.0798316336676657
 50
1.777785439887561
 51
19.1522339766161096
  0
ARC
  5
2F0BE
  8
0
 10
3025.6303021843750685
 20
198.0913908590474932
 30
0.0
 40
0.3814919748007448
 50
183.0868237070856992
 51
226.2714710699671059
  0
ARC
  5
2F0BF
  8
0
 10
3025.2900093072548771
 20
197.7401601489549137
 30
0.0
 40
0.1075854561452908
 50
30.3148002956420513
 51
44.6107411209307685
  0
ARC
  5
2F0C0
  8
0
 10
3025.4815279833887871
 20
197.8540474201556094
 30
0.0
 40
0.1152423753671847
 50
211.1330531496074059
 51
233.0125382990050014
  0
ARC
  5
2F0C1
  8
0
 10
3025.78233520736012
 20
198.2408776147966023
 30
0.0
 40
0.6052543687313969
 50
232.2985329726948862
 51
232.7792033858679019
  0
ARC
  5
2F0C2
  8
0
 10
3025.4027560931640437
 20
197.739062545516191
 30
0.0
 40
0.0239832600454339
 50
11.2182119744980504
 51
55.8366692061785699
  0
ARC
  5
2F0C3
  8
0
 10
3025.440566101953209
 20
197.7476215790746892
 30
0.0
 40
0.0148060040778567
 50
195.2449521962880965
 51
238.2924690748585874
  0
ARC
  5
2F0C4
  8
0
 10
3025.4485699975562056
 20
197.7593045785399113
 30
0.0
 40
0.0289596631773881
 50
236.9690350737251094
 51
264.1918821321822861
  0
ARC
  5
2F0C5
  8
0
 10
3025.4434681949628612
 20
197.6836938557144947
 30
0.0
 40
0.0468500635092999
 50
59.5966634702833673
 51
87.343800496580144
  0
ARC
  5
2F0C6
  8
0
 10
3025.8634169030810881
 20
198.3734791270545088
 30
0.0
 40
0.7607211243871939
 50
238.6092111398783118
 51
240.1291042982745978
  0
ARC
  5
2F0C7
  8
0
 10
3025.4701984768607872
 20
197.6881806914838933
 30
0.0
 40
0.0293785695909882
 50
23.546216165931579
 51
60.7761165190161989
  0
ARC
  5
2F0C8
  8
0
 10
3025.5126982604801924
 20
197.7078001712974071
 30
0.0
 40
0.0174494864758383
 50
206.857007149347595
 51
245.013845531221591
  0
ARC
  5
2F0C9
  8
0
 10
3025.519056819880916
 20
197.7197211431733024
 30
0.0
 40
0.0309491884599935
 50
243.6658898417616967
 51
269.7110630659456092
  0
ARC
  5
2F0CA
  8
0
 10
3025.5212227559109124
 20
197.638422668527113
 30
0.0
 40
0.0504031940823346
 50
66.231472043363155
 51
92.6404759820328962
  0
ARC
  5
2F0CB
  8
0
 10
3025.6471562625829392
 20
197.8980954288840053
 30
0.0
 40
0.2382366189946209
 50
243.6830744939773012
 51
248.734020501156607
  0
ARC
  5
2F0CC
  8
0
 10
3025.5493952661431649
 20
197.646910852422991
 30
0.0
 40
0.0313016971628909
 50
32.1293283819655571
 51
68.7340205011565644
  0
ARC
  5
2F0CD
  8
0
 10
3025.5921771532612183
 20
197.6757608798139074
 30
0.0
 40
0.0203409084664152
 50
216.8636797776414937
 51
251.24361878581459
  0
ARC
  5
2F0CE
  8
0
 10
3025.5968508502551231
 20
197.6872470447983119
 30
0.0
 40
0.0327280874744201
 50
249.9617146225571958
 51
274.9417045432192026
  0
ARC
  5
2F0CF
  8
0
 10
3025.6070926474731095
 20
197.602843642755488
 30
0.0
 40
0.052326092961093
 50
72.3536826841198035
 51
98.1549938329638962
  0
ARC
  5
2F0D0
  8
0
 10
3026.0340954167868404
 20
199.3559313982208892
 30
0.0
 40
1.748439651841533
 50
259.4713547851334852
 51
265.7443429218662914
  0
ARC
  5
2F0D1
  8
0
 10
3025.6714304995939528
 20
197.4329424247875124
 30
0.0
 40
0.208506232876368
 50
78.0486656738881237
 51
87.3221511418867777
  0
ARC
  5
2F0D2
  8
0
 10
3025.6905681174062011
 20
197.8421164598071016
 30
0.0
 40
0.2011151036648081
 50
250.354951371177691
 51
267.3221511418867067
  0
ARC
  5
2F0D3
  8
0
 10
3025.6806657759561858
 20
198.0733965321113033
 30
0.0
 40
0.2310869093747707
 50
173.0101612602207979
 51
202.5188111233036921
  0
ARC
  5
2F0D4
  8
0
 10
3025.7344703861181188
 20
198.0957038299114004
 30
0.0
 40
0.2893325238867266
 50
202.5188111233036921
 51
224.5914592775307881
  0
ARC
  5
2F0D5
  8
0
 10
3025.8239907468910133
 20
198.1839565792413111
 30
0.0
 40
0.4150402911769878
 50
224.5914592775295944
 51
243.1871772689430884
  0
ARC
  5
2F0D6
  8
0
 10
3025.888170796560189
 20
198.3109408588024962
 30
0.0
 40
0.5573220047989357
 50
243.1871772689430884
 51
259.7804390256940792
  0
ARC
  5
2F0D7
  8
0
 10
3025.9062281487958899
 20
198.4111031862447021
 30
0.0
 40
0.6590990150144833
 50
259.7804390256940792
 51
269.8366477957264919
  0
ARC
  5
2F0D8
  8
0
 10
3025.8013375797700064
 20
198.1349306407961137
 30
0.0
 40
0.283500600257963
 50
211.4680486620817987
 51
237.8134866749809078
  0
ARC
  5
2F0D9
  8
0
 10
3025.8905228591288505
 20
198.2766284189791861
 30
0.0
 40
0.4509290159955797
 50
237.8134866749809078
 51
253.2397304271696044
  0
ARC
  5
2F0DA
  8
0
 10
3025.9222010757480348
 20
198.4057742419749104
 30
0.0
 40
0.5837645512800157
 50
253.9178555221201918
 51
268.2475710064176724
  0
ARC
  5
2F0DB
  8
0
 10
3025.4272165464089994
 20
198.7399535180678072
 30
0.0
 40
0.0131944259228679
 50
184.7255391400508984
 51
236.7758395336711885
  0
ARC
  5
2F0DC
  8
0
 10
3025.4106069428980845
 20
198.7099430366467914
 30
0.0
 40
0.0211650327381065
 50
299.4527976469856867
 51
63.6922998890247811
  0
ARC
  5
2F0DD
  8
0
 10
3025.4306577205461508
 20
198.6774052049875081
 30
0.0
 40
0.0170892528501679
 50
124.3550404466966057
 51
143.915482264114388
  0
ARC
  5
2F0DE
  8
0
 10
3025.4290122857678398
 20
198.6786595811460074
 30
0.0
 40
0.0150207625148015
 50
144.0855989646460102
 51
174.2626628523827037
  0
ARC
  5
2F0DF
  8
0
 10
3025.6786597699028789
 20
198.7131216790210999
 30
0.0
 40
0.2669374082785886
 50
187.5991837186759028
 51
207.936425969701105
  0
ARC
  5
2F0E0
  8
0
 10
3025.739328018688866
 20
198.745293262688989
 30
0.0
 40
0.3356079784412751
 50
207.936425969701105
 51
231.8786882101613003
  0
ARC
  5
2F0E1
  8
0
 10
3025.8711364115902143
 20
198.9132660270227859
 30
0.0
 40
0.5491221512666896
 50
231.8786882101613003
 51
242.9104861736138901
  0
ARC
  5
2F0E2
  8
0
 10
3025.6321453205077887
 20
198.4460256370311981
 30
0.0
 40
0.0243075900584565
 50
242.9104861736371959
 51
283.2324686475711246
  0
ARC
  5
2F0E3
  8
0
 10
3025.6481272041169177
 20
198.3780597956937015
 30
0.0
 40
0.0455120074225118
 50
32.3522228704371315
 51
103.2324686475710962
  0
ARC
  5
2F0E4
  8
0
 10
3025.7067199189718849
 20
198.4151753634720876
 30
0.0
 40
0.0238469978004369
 50
212.3522228704356962
 51
246.9075796030755043
  0
ARC
  5
2F0E5
  8
0
 10
3025.9024901047191634
 20
199.0292333435251066
 30
0.0
 40
0.6682545982452709
 50
252.1242468992948886
 51
270.1593840967498181
  0
LINE
  5
2F0E6
  8
0
 10
3025.6377093897549457
 20
198.4223634294446015
 30
0.0
 11
3025.6377094033541653
 21
198.0173081658444971
 31
0.0
  0
ARC
  5
2F0E7
  8
0
 10
3025.6412298383711459
 20
198.017308165962703
 30
0.0
 40
0.0035204350171707
 50
180.000001923630407
 51
225.1870133231315947
  0
ARC
  5
2F0E8
  8
0
 10
3025.6512325020439675
 20
198.0273763410503989
 30
0.0
 40
0.0177127368089189
 50
225.1870133231327884
 51
244.1148126055207115
  0
ARC
  5
2F0E9
  8
0
 10
3025.7783402324271265
 20
198.3752070394382088
 30
0.0
 40
0.3879535021120605
 50
249.6613108725182997
 51
252.5393499184021096
  0
ARC
  5
2F0EA
  8
0
 10
3025.6181800209042194
 20
197.8915838623732952
 30
0.0
 40
0.1216839867353377
 50
60.1933031117361992
 51
68.9259222330099277
  0
ARC
  5
2F0EB
  8
0
 10
3025.688718293106831
 20
198.0156210616258932
 30
0.0
 40
0.0210116461955331
 50
241.4184663360013872
 51
254.3595736696821064
  0
ARC
  5
2F0EC
  8
0
 10
3025.6843565487001797
 20
198.0005341786454949
 30
0.0
 40
0.0053091299324699
 50
255.7931799028469015
 51
276.1409875374828857
  0
ARC
  5
2F0ED
  8
0
 10
3025.6847337579952182
 20
197.9970282802748045
 30
0.0
 40
0.0017829974566186
 50
276.1409875374566809
 51
332.6412631845303167
  0
ARC
  5
2F0EE
  8
0
 10
3025.684261734798838
 20
197.9972725227420085
 30
0.0
 40
0.0023144673807928
 50
332.6412631845287819
 51
2.1421487152313929
  0
LINE
  5
2F0EF
  8
0
 10
3025.6865745847539984
 20
197.997359034844493
 30
0.0
 11
3025.6865745847539984
 21
198.4024142971445031
 31
0.0
  0
LINE
  5
2F0F0
  8
0
 10
3025.2493637196580494
 20
198.0708479627618033
 30
0.0
 11
3025.189591389988891
 21
197.5871725974600963
 31
0.0
  0
LINE
  5
2F0F1
  8
0
 10
3025.1858273478042065
 20
197.6083759186088002
 30
0.0
 11
3025.2450048218461234
 21
198.0947799121323101
 31
0.0
  0
LINE
  5
2F0F2
  8
0
 10
3025.2411003888041705
 20
198.1296052464444983
 30
0.0
 11
3025.1836738846541266
 21
197.6487137729444896
 31
0.0
  0
LINE
  5
2F0F3
  8
0
 10
3025.1791116586800854
 20
197.6589082361442991
 30
0.0
 11
3025.2379974609539204
 21
198.1534472742445132
 31
0.0
  0
LINE
  5
2F0F4
  8
0
 10
3025.382884087066941
 20
197.7944639761579992
 30
0.0
 11
3025.3464119720538292
 21
197.2569136228945013
 31
0.0
  0
LINE
  5
2F0F5
  8
0
 10
3025.384705930904147
 20
197.2131059806445137
 30
0.0
 11
3025.426281113854202
 21
197.7437283963444941
 31
0.0
  0
LINE
  5
2F0F6
  8
0
 10
3025.4971309320221735
 20
197.6999170968373107
 30
0.0
 11
3025.4617874740538355
 21
197.1647722480444997
 31
0.0
  0
LINE
  5
2F0F7
  8
0
 10
3025.4846230850039319
 20
197.14958706329449
 30
0.0
 11
3025.518922255454072
 21
197.6887601028444976
 31
0.0
  0
LINE
  5
2F0F8
  8
0
 10
3025.5759031021448209
 20
197.663558100719996
 30
0.0
 11
3025.5478865310537913
 21
197.1239886624445035
 31
0.0
  0
LINE
  5
2F0F9
  8
0
 10
3025.5707070346379624
 20
197.1122899863468092
 30
0.0
 11
3025.5996671119351049
 21
197.6546403525422022
 31
0.0
  0
LINE
  5
2F0FA
  8
0
 10
3025.4456601715542092
 20
197.7304928527445043
 30
0.0
 11
3025.403828750178036
 21
197.195164445028297
 31
0.0
  0
ARC
  5
2F0FB
  8
0
 10
3025.4794637494242124
 20
196.2466326919077915
 30
0.0
 40
0.9615710071703804
 50
186.0488904996759914
 51
200.0418909006999968
  0
ARC
  5
2F0FC
  8
0
 10
3025.3068752060758015
 20
196.1894494946606073
 30
0.0
 40
0.7798558239690317
 50
200.4406144631190045
 51
219.3932438328637886
  0
ARC
  5
2F0FD
  8
0
 10
3025.6574790982199374
 20
196.4773695486844076
 30
0.0
 40
1.2335308692337379
 50
219.3932438328637886
 51
233.0208633807295087
  0
ARC
  5
2F0FE
  8
0
 10
3025.7449180110320412
 20
196.6322940335502096
 30
0.0
 40
1.4100828011668971
 50
233.9692727065153974
 51
248.0554563211701975
  0
ARC
  5
2F0FF
  8
0
 10
3025.8782416873118564
 20
196.9632034906456965
 30
0.0
 40
1.7668408024117499
 50
248.0554563211701975
 51
260.1503346315042222
  0
ARC
  5
2F100
  8
0
 10
3025.9494798864798213
 20
197.4641846842561961
 30
0.0
 40
2.272676725346213
 50
260.5413936147663776
 51
268.8621447535642233
  0
LINE
  5
2F386
  8
0
 10
3026.3067335103751248
 20
198.8254328831268936
 30
0.0
 11
3026.3059012100839027
 21
199.6479154312445132
 31
0.0
  0
ARC
  5
2F387
  8
0
 10
3025.7717717565628845
 20
198.8462003341321065
 30
0.0
 40
0.5353647028542589
 50
353.1049537246104251
 51
357.7768689169590175
  0
ARC
  5
2F388
  8
0
 10
3026.0919810713990046
 20
198.7068111118157958
 30
0.0
 40
0.24465386574433
 50
16.9911396409486208
 51
28.6500472700141415
  0
ARC
  5
2F389
  8
0
 10
3025.9604545425841025
 20
198.6915254854349087
 30
0.0
 40
0.375661826237435
 50
4.130718810025896
 51
13.3561773501066607
  0
ARC
  5
2F38A
  8
0
 10
3025.9663942850879721
 20
198.7279939349548954
 30
0.0
 40
0.3688662432249792
 50
350.3666662953411901
 51
358.538393670324524
  0
ARC
  5
2F38B
  8
0
 10
3026.0963922626960994
 20
198.719338415121797
 30
0.0
 40
0.2396179499278722
 50
323.2424459334920925
 51
347.203818121180916
  0
ARC
  5
2F38C
  8
0
 10
3026.0050368223110127
 20
198.7875755207562065
 30
0.0
 40
0.3536447848107531
 50
300.9818498052724749
 51
323.2424459334920925
  0
ARC
  5
2F38D
  8
0
 10
3025.9283485392370494
 20
198.9152978868864921
 30
0.0
 40
0.5026216137832997
 50
284.1541110311409284
 51
300.9818498052724749
  0
ARC
  5
2F38E
  8
0
 10
3025.9043949810320555
 20
199.0102812514330139
 30
0.0
 40
0.6005788110241909
 50
269.9956169698673989
 51
284.1541110311409284
  0
ARC
  5
2F38F
  8
0
 10
3026.1110553944408821
 20
198.775444552984311
 30
0.0
 40
0.1923185190239868
 50
339.5018544694049751
 51
1.9322994130013089
  0
ARC
  5
2F390
  8
0
 10
3026.0743686436721873
 20
198.7891598136380082
 30
0.0
 40
0.2314851637202522
 50
318.1073180529920137
 51
339.5018544694049751
  0
ARC
  5
2F391
  8
0
 10
3026.0946800509659624
 20
198.7617258134793872
 30
0.0
 40
0.2083469088122146
 50
337.4277793587467045
 51
0.5319081310181931
  0
ARC
  5
2F392
  8
0
 10
3026.0720869630549714
 20
198.7711175587768935
 30
0.0
 40
0.232814285072948
 50
313.5700497518894281
 51
337.4277793587467045
  0
ARC
  5
2F393
  8
0
 10
3025.9706919511158958
 20
198.8777043205203938
 30
0.0
 40
0.3799254206987215
 50
295.7040853983116904
 51
313.5700497518882912
  0
ARC
  5
2F394
  8
0
 10
3025.9000784218569606
 20
199.0342827556249006
 30
0.0
 40
0.5516531914174592
 50
270.4435589525890009
 51
295.2589622424300728
  0
ARC
  5
2F395
  8
0
 10
3025.8980694983251851
 20
199.0131072495439071
 30
0.0
 40
0.5810279388869565
 50
270.6192440809792856
 51
288.2617793262839996
  0
ARC
  5
2F396
  8
0
 10
3025.9447526965559518
 20
198.8567647229683075
 30
0.0
 40
0.4179570163451534
 50
288.9005223725598057
 51
307.6519528792247797
  0
ARC
  5
2F397
  8
0
 10
3026.0184545412589614
 20
198.7612402302470116
 30
0.0
 40
0.2973050763593241
 50
307.6519528792042024
 51
328.6817814371776194
  0
ARC
  5
2F398
  8
0
 10
3026.1174616319408415
 20
198.7009998475390091
 30
0.0
 40
0.181411557497458
 50
328.6817814371776194
 51
351.0139360412491101
  0
ARC
  5
2F399
  8
0
 10
3025.8559306380939233
 20
198.7423570822546992
 30
0.0
 40
0.4461923755450421
 50
351.0139360412491101
 51
359.997667234857488
  0
ARC
  5
2F39A
  8
0
 10
3026.1111050511431131
 20
198.7260576843164017
 30
0.0
 40
0.189546795810853
 50
345.729793533941006
 51
1.2152035602356019
  0
ARC
  5
2F39B
  8
0
 10
3026.0925750538540342
 20
198.7307706612049003
 30
0.0
 40
0.2086667579097262
 50
327.6603557561645061
 51
345.729793533941006
  0
ARC
  5
2F39C
  8
0
 10
3026.0319015641512124
 20
198.7691856338504124
 30
0.0
 40
0.2804788911195412
 50
302.5589176484494942
 51
327.6603557561658135
  0
ARC
  5
2F39D
  8
0
 10
3025.9315667502578435
 20
198.9263229307551057
 30
0.0
 40
0.4669170979263862
 50
283.8283260032283124
 51
302.5589176484494942
  0
ARC
  5
2F39E
  8
0
 10
3025.8933109229101319
 20
199.1406743318345036
 30
0.0
 40
0.6843444289136174
 50
270.9241907936088865
 51
282.6489239943318807
  0
ARC
  5
2F39F
  8
0
 10
3026.0115743027631652
 20
198.6877982826900109
 30
0.0
 40
0.3035966013770222
 50
2.191047602875996
 51
16.0442729120560195
  0
ARC
  5
2F3A0
  8
0
 10
3026.1100801679799588
 20
198.6976015199388996
 30
0.0
 40
0.2048895735626313
 50
0.816344131618292
 51
0.8428869948358629
  0
ARC
  5
2F3A1
  8
0
 10
3026.0363239801990858
 20
198.7113732944972071
 30
0.0
 40
0.2788818824437141
 50
341.255658022033515
 51
357.5404395953543144
  0
ARC
  5
2F3A2
  8
0
 10
3026.0576623127471976
 20
198.7213887788140028
 30
0.0
 40
0.2624030547942453
 50
321.991439752950896
 51
337.6852271525336846
  0
ARC
  5
2F3A3
  8
0
 10
3026.0108883610801058
 20
198.7579438501707898
 30
0.0
 40
0.3217669815218624
 50
298.5074444103651103
 51
321.991439752949475
  0
ARC
  5
2F3A4
  8
0
 10
3025.8986501890290128
 20
198.9645968125890079
 30
0.0
 40
0.5569325702916464
 50
282.1456261432117003
 51
298.5074444103651103
  0
ARC
  5
2F3A5
  8
0
 10
3026.1073655890158989
 20
198.6767799248144115
 30
0.0
 40
0.1905578362102936
 50
337.8936453868852254
 51
1.2888539453039409
  0
ARC
  5
2F3A6
  8
0
 10
3026.0698061958728431
 20
198.6920360655742002
 30
0.0
 40
0.2310974198801259
 50
320.523374562748927
 51
337.8936453868852254
  0
ARC
  5
2F3A7
  8
0
 10
3025.8781865493069745
 20
198.8498638614267975
 30
0.0
 40
0.4793466939850683
 50
315.0571577617199068
 51
320.523374562748927
  0
ARC
  5
2F3A8
  8
0
 10
3026.1093370830299136
 20
198.6492366824627993
 30
0.0
 40
0.2052978952947784
 50
7.4141655731488578
 51
20.5112688492285216
  0
LINE
  5
2F3A9
  8
0
 10
3025.9043490377689523
 20
202.3965979148445058
 30
0.0
 11
3025.9044012090689648
 21
202.3965979148445058
 31
0.0
  0
ARC
  5
2F3AA
  8
0
 10
3025.8866048002541902
 20
196.9884105985705958
 30
0.0
 40
1.8905303620700451
 50
270.5377775826351012
 51
293.1444781053398856
  0
ARC
  5
2F3AB
  8
0
 10
3026.1307660844609018
 20
196.4041027654103004
 30
0.0
 40
1.257292288321775
 50
293.3792793432124881
 51
321.0735665271259904
  0
ARC
  5
2F3AC
  8
0
 10
3026.5003442926217758
 20
196.1056091214553874
 30
0.0
 40
0.78222754807138
 50
321.0735665271259904
 51
346.5963298479330774
  0
ARC
  5
2F3AD
  8
0
 10
3025.9106638449839011
 20
196.183913634719886
 30
0.0
 40
1.3753298050271541
 50
349.1184861104395054
 51
358.3913731603529982
  0
ARC
  5
2F3AE
  8
0
 10
3009.3986634279981445
 20
196.0089948151999124
 30
0.0
 40
17.8873075886332416
 50
0.4366271376850899
 51
1.854466447196137
  0
ARC
  5
2F3AF
  8
0
 10
3024.3246852964921345
 20
196.4800944850296958
 30
0.0
 40
2.9538830867135819
 50
2.0904576394171119
 51
6.7522636958807132
  0
ARC
  5
2F3B0
  8
0
 10
3025.8671777662680142
 20
196.5981853409689109
 30
0.0
 40
1.4096625503036151
 50
9.3580741686708926
 51
29.2182242732054114
  0
ARC
  5
2F3B1
  8
0
 10
3025.8785465812388793
 20
196.604835062759804
 30
0.0
 40
1.396494271343655
 50
29.2077983971319313
 51
50.3239824771557807
  0
ARC
  5
2F3B2
  8
0
 10
3025.8846099168308683
 20
196.6106541055085017
 30
0.0
 40
1.3881447625586281
 50
50.3632600717163967
 51
58.1207322829068218
  0
ARC
  5
2F3B3
  8
0
 10
3025.8859324026429931
 20
198.165872605121109
 30
0.0
 40
1.097719124626829
 50
270.9613069042902112
 51
282.7789732975180073
  0
ARC
  5
2F3B4
  8
0
 10
3026.1800622144819499
 20
196.8748772068198036
 30
0.0
 40
0.2263615049532998
 50
94.1193554780594042
 51
103.1050702852052012
  0
ARC
  5
2F3B5
  8
0
 10
3026.1488506058199164
 20
197.3082486693814985
 30
0.0
 40
0.2081324410092323
 50
274.11935547805939
 51
287.6500109634305886
  0
ARC
  5
2F3B6
  8
0
 10
3026.2303604652488502
 20
197.0520730728551086
 30
0.0
 40
0.0606979766145092
 50
82.7782173753663244
 51
107.6500109634306028
  0
ARC
  5
2F3B7
  8
0
 10
3026.2408051964612241
 20
197.1344996066085002
 30
0.0
 40
0.0223876772415483
 50
262.7782173753661255
 51
326.6028189364624268
  0
ARC
  5
2F3B8
  8
0
 10
3026.2831597669987787
 20
197.1065749027445122
 30
0.0
 40
0.0283439571821606
 50
107.4963955063802956
 51
146.6028189364610057
  0
ARC
  5
2F3B9
  8
0
 10
3026.234452478356161
 20
197.2610885799157927
 30
0.0
 40
0.1336649203522398
 50
287.4963955063802814
 51
299.2967642123762744
  0
ARC
  5
2F3BA
  8
0
 10
3026.3232034496309097
 20
197.0935562256204037
 30
0.0
 40
0.0560557162931061
 50
88.130727524027165
 51
114.6105337556742967
  0
ARC
  5
2F3BB
  8
0
 10
3026.3255754181809607
 20
197.1721505377138897
 30
0.0
 40
0.0225749685489424
 50
268.6205085740033951
 51
340.9232154397411136
  0
ARC
  5
2F3BC
  8
0
 10
3026.3709946496951488
 20
197.1487017498515115
 30
0.0
 40
0.0289534504064698
 50
117.4249921090434015
 51
146.2861135623994073
  0
ARC
  5
2F3BD
  8
0
 10
3025.9994257316948278
 20
197.8035073400255044
 30
0.0
 40
0.7239513724779599
 50
299.6585844553675884
 51
301.7523022052344004
  0
ARC
  5
2F3BE
  8
0
 10
3026.407473100273819
 20
197.1412862463778026
 30
0.0
 40
0.0539113083603362
 50
93.8223907259002061
 51
120.1396133243577964
  0
ARC
  5
2F3BF
  8
0
 10
3026.4024753550620517
 20
197.2167782876850026
 30
0.0
 40
0.0217460177544734
 50
273.701294530582004
 51
348.2758307142937042
  0
ARC
  5
2F3C0
  8
0
 10
3026.4436197837280815
 20
197.2059056722837056
 30
0.0
 40
0.0208748029107841
 50
124.0794904706109065
 51
161.9909140904422031
  0
ARC
  5
2F3C1
  8
0
 10
3026.3584272385251097
 20
197.3199087429485132
 30
0.0
 40
0.121470362562136
 50
307.2323582266139965
 51
328.7612854635036115
  0
ARC
  5
2F3C2
  8
0
 10
3026.1003327428511511
 20
197.6491628583266902
 30
0.0
 40
0.5337318596166362
 50
312.6996989371098721
 51
338.0599572074618209
  0
ARC
  5
2F3C3
  8
0
 10
3026.2424987136751042
 20
197.5814705280454859
 30
0.0
 40
0.3766940821949919
 50
339.5311534212019069
 51
0.4981215374472992
  0
ARC
  5
2F3C4
  8
0
 10
3026.6956285181890962
 20
197.5848557877426117
 30
0.0
 40
0.0764500377819943
 50
162.6963675402687102
 51
180.0827210023049929
  0
ARC
  5
2F3C5
  8
0
 10
3026.5401374431189652
 20
197.6325496868822995
 30
0.0
 40
0.0861926183373133
 50
343.1704561555525856
 51
4.0288496396282758
  0
ARC
  5
2F3C6
  8
0
 10
3026.4494228317507805
 20
197.6239398972635115
 30
0.0
 40
0.1773018054438349
 50
4.744659775439751
 51
8.0762132899605685
  0
ARC
  5
2F3C7
  8
0
 10
3026.6396235397660348
 20
197.6474185005579045
 30
0.0
 40
0.014727016001402
 50
140.4564174995437895
 51
174.4255701704223895
  0
ARC
  5
2F3C8
  8
0
 10
3026.6117057751312132
 20
197.6686023051769894
 30
0.0
 40
0.0203394277935363
 50
324.5122361347188757
 51
7.5235631760921038
  0
LINE
  5
2F3C9
  8
0
 10
3026.6318701027839779
 20
197.6712654261444868
 30
0.0
 11
3026.5731193498841094
 21
198.1622469634444883
 31
0.0
  0
ARC
  5
2F3CA
  8
0
 10
3026.5517202867818014
 20
198.1595110660834962
 30
0.0
 40
0.0215729448006559
 50
7.2858096104856811
 51
59.6438297072120278
  0
ARC
  5
2F3CB
  8
0
 10
3026.5732129931188865
 20
198.1962087873249914
 30
0.0
 40
0.0209553889308678
 50
195.0136979365676098
 51
239.6438297071861996
  0
ARC
  5
2F3CC
  8
0
 10
3026.1385758346618786
 20
198.0514468224100142
 30
0.0
 40
0.4371942091650033
 50
18.5842800387368783
 51
20.5366391003600803
  0
ARC
  5
2F3CD
  8
0
 10
3026.5664043494771249
 20
198.2092423377897035
 30
0.0
 40
0.0189429410095122
 50
151.5095516801457904
 51
193.5090109117988106
  0
ARC
  5
2F3CE
  8
0
 10
3026.5364089540298664
 20
198.2242170895733011
 30
0.0
 40
0.0146081441329773
 50
336.0125814614918909
 51
27.4758276178876208
  0
ARC
  5
2F3CF
  8
0
 10
3026.5302425330201004
 20
198.2228938990917868
 30
0.0
 40
0.0207568901945541
 50
22.8580868135178008
 51
65.1666130787950237
  0
ARC
  5
2F3D0
  8
0
 10
3026.5509693711887849
 20
198.2692426260566947
 30
0.0
 40
0.0300181359214962
 50
210.539493049563788
 51
246.4174800512836043
  0
ARC
  5
2F3D1
  8
0
 10
3026.3285561341249377
 20
198.1514392334217973
 30
0.0
 40
0.2217026889961525
 50
27.5522534196736615
 51
30.8656623820451692
  0
ARC
  5
2F3D2
  8
0
 10
3027.5854854731869636
 20
198.3944165624830873
 30
0.0
 40
1.074426879743051
 50
185.8433549337607928
 51
186.9085749032734896
  0
ARC
  5
2F3D3
  8
0
 10
3026.4957990621619501
 20
198.2828971307272923
 30
0.0
 40
0.0209511636877736
 50
5.8433549337576007
 51
73.8450248261723061
  0
ARC
  5
2F3D4
  8
0
 10
3026.5105110245749529
 20
198.3336849721252122
 30
0.0
 40
0.0319246027074592
 50
219.1889489766826102
 51
253.8450248261723061
  0
ARC
  5
2F3D5
  8
0
 10
3026.3607940911010701
 20
198.2116268981658038
 30
0.0
 40
0.1612419927154945
 50
39.1889489766826173
 51
57.939241967854592
  0
ARC
  5
2F3D6
  8
0
 10
3026.5334164524037988
 20
198.4872296610053013
 30
0.0
 40
0.1639585031425812
 50
227.9986851633576919
 51
237.9392419678545991
  0
ARC
  5
2F3D7
  8
0
 10
3026.0698530435238354
 20
197.9868489681740868
 30
0.0
 40
0.518171539674728
 50
46.9305920361743532
 51
51.1870866927257779
  0
ARC
  5
2F3D8
  8
0
 10
3026.0332011451318976
 20
198.6414510657891981
 30
0.0
 40
0.3839422145332185
 50
39.7653435875611123
 51
44.5853433793952902
  0
ARC
  5
2F3D9
  8
0
 10
3026.0839505556941731
 20
198.6836819013213074
 30
0.0
 40
0.3179198990475937
 50
24.1309581862047615
 51
39.7653435875598618
  0
ARC
  5
2F3DA
  8
0
 10
3026.1639392916940778
 20
198.7195144724215083
 30
0.0
 40
0.2302719039846476
 50
16.1482822149469207
 51
24.1309581862062501
  0
ARC
  5
2F3DB
  8
0
 10
3026.081258147148219
 20
198.69557428932211
 30
0.0
 40
0.3163492182446429
 50
7.8655817751595043
 51
16.1482822149469207
  0
ARC
  5
2F3DC
  8
0
 10
-1283.3546640707220376
 20
198.7089668083804099
 30
0.0
 40
4309.7492952786224123
 50
359.9996024994828758
 51
0.0003975005187713
  0
ARC
  5
2F3DD
  8
0
 10
-68243.4844339810952079
 20
198.2363616930406067
 30
0.0
 40
71269.8790664602565812
 50
0.0001240015907677
 51
0.0003559028190272
  0
ARC
  5
2F3DE
  8
0
 10
3031.5108983295390317
 20
198.3906176057884068
 30
0.0
 40
5.1162660173067049
 50
180.0001240015907058
 51
181.559428860688314
  0
ARC
  5
2F3DF
  8
0
 10
3026.1410806923499877
 20
198.2444302776021914
 30
0.0
 40
0.2555411452392962
 50
347.0955164627117142
 51
1.5594288606883611
  0
ARC
  5
2F3E0
  8
0
 10
3026.0670824450739929
 20
198.2613842330648026
 30
0.0
 40
0.3314567378784968
 50
333.1890241688856236
 51
347.0955164627117142
  0
ARC
  5
2F3E1
  8
0
 10
3026.1064915691990791
 20
198.2414677753992009
 30
0.0
 40
0.2873008283053391
 50
314.5910541195543146
 51
333.1890241688856236
  0
ARC
  5
2F3E2
  8
0
 10
3025.9511420674311921
 20
198.3990508564091897
 30
0.0
 40
0.5085832160372985
 50
296.2360528586381747
 51
314.5910541195543146
  0
ARC
  5
2F3E3
  8
0
 10
3025.9195348514549551
 20
198.4832005415954939
 30
0.0
 40
0.5981019108519297
 50
280.1466236633012272
 51
295.3883202310826732
  0
ARC
  5
2F3E4
  8
0
 10
3025.889963765056109
 20
198.7185663415777128
 30
0.0
 40
0.8350875027902404
 50
270.9870297171304969
 51
279.2988910357536838
  0
ARC
  5
2F3E5
  8
0
 10
3026.0974078060758075
 20
198.0735550456707017
 30
0.0
 40
0.3235736926418808
 50
3.4510973514303109
 51
23.81202274508599
  0
ARC
  5
2F3E6
  8
0
 10
3025.9044593604330657
 20
198.43346931394791
 30
0.0
 40
0.7037429189243775
 50
269.9910179940670787
 51
290.6244366113268143
  0
ARC
  5
2F3E7
  8
0
 10
3025.9754463600620511
 20
198.2448557546125869
 30
0.0
 40
0.5022131968448394
 50
290.6244366113268143
 51
313.6114318154264993
  0
ARC
  5
2F3E8
  8
0
 10
3026.0996549763508483
 20
198.1144759578172909
 30
0.0
 40
0.3221391238281721
 50
313.6114318154264993
 51
343.7574973757210728
  0
ARC
  5
2F3E9
  8
0
 10
3026.0190395642698604
 20
198.1247263453894902
 30
0.0
 40
0.4026045414213632
 50
345.5661871869227184
 51
355.4849713603250052
  0
ARC
  5
2F3EA
  8
0
 10
3026.5596291102310715
 20
198.1614149397643985
 30
0.0
 40
0.0136299963512527
 50
324.2472794263086939
 51
358.709265719849725
  0
ARC
  5
2F3EB
  8
0
 10
3026.586729350675796
 20
198.1405842378106001
 30
0.0
 40
0.020562132014788
 50
141.262379689009606
 51
187.6150661704076015
  0
ARC
  5
2F3EC
  8
0
 10
3026.4865027453201947
 20
198.1209881369815946
 30
0.0
 40
0.0816087867830125
 50
341.1064307348921716
 51
11.9309939383520192
  0
ARC
  5
2F3ED
  8
0
 10
3026.6391275595910884
 20
198.0683711944460015
 30
0.0
 40
0.0798316336676657
 50
160.8477660233839117
 51
178.2222145601124055
  0
ARC
  5
2F3EE
  8
0
 10
3026.1783958911628361
 20
198.0913908590474932
 30
0.0
 40
0.3814919748007448
 50
313.7285289300328941
 51
356.9131762929142155
  0
ARC
  5
2F3EF
  8
0
 10
3026.5186887682830275
 20
197.7401601489549137
 30
0.0
 40
0.1075854561452908
 50
135.3892588790691889
 51
149.685199704357899
  0
ARC
  5
2F3F0
  8
0
 10
3026.3271700921491174
 20
197.8540474201556094
 30
0.0
 40
0.1152423753671847
 50
306.9874617009950839
 51
328.8669468503924804
  0
ARC
  5
2F3F1
  8
0
 10
3026.0263628681777845
 20
198.2408776147966023
 30
0.0
 40
0.6052543687313969
 50
307.2207966141322117
 51
307.7014670273050001
  0
ARC
  5
2F3F2
  8
0
 10
3026.4059419823729513
 20
197.739062545516191
 30
0.0
 40
0.0239832600454339
 50
124.1633307938214017
 51
168.7817880255018963
  0
ARC
  5
2F3F3
  8
0
 10
3026.3681319735851503
 20
197.7476215790746892
 30
0.0
 40
0.0148060040778567
 50
301.7075309251413842
 51
344.7550478037118751
  0
ARC
  5
2F3F4
  8
0
 10
3026.3601280779830631
 20
197.7593045785399113
 30
0.0
 40
0.0289596631773881
 50
275.8081178678177139
 51
303.030964926274919
  0
ARC
  5
2F3F5
  8
0
 10
3026.3652298805750434
 20
197.6836938557144947
 30
0.0
 40
0.0468500635092999
 50
92.6561995034198844
 51
120.4033365297165972
  0
ARC
  5
2F3F6
  8
0
 10
3025.9452811724568164
 20
198.3734791270545088
 30
0.0
 40
0.7607211243871939
 50
299.8708957017253169
 51
301.3907888601216882
  0
ARC
  5
2F3F7
  8
0
 10
3026.3384995986762078
 20
197.6881806914838933
 30
0.0
 40
0.0293785695909882
 50
119.2238834809838011
 51
156.4537838340683891
  0
ARC
  5
2F3F8
  8
0
 10
3026.2959998150581669
 20
197.7078001712974071
 30
0.0
 40
0.0174494864758383
 50
294.986154468778409
 51
333.1429928506523197
  0
ARC
  5
2F3F9
  8
0
 10
3026.2896412556569885
 20
197.7197211431733024
 30
0.0
 40
0.0309491884599935
 50
270.2889369340543908
 51
296.3341101582382748
  0
ARC
  5
2F3FA
  8
0
 10
3026.2874753196269921
 20
197.638422668527113
 30
0.0
 40
0.0504031940823346
 50
87.359524017967118
 51
113.7685279566369019
  0
ARC
  5
2F3FB
  8
0
 10
3026.1615418129540558
 20
197.8980954288840053
 30
0.0
 40
0.2382366189946209
 50
291.2659794988434214
 51
296.3169255060226988
  0
ARC
  5
2F3FC
  8
0
 10
3026.2593028093951943
 20
197.646910852422991
 30
0.0
 40
0.0313016971628909
 50
111.265979498843393
 51
147.8706716180344074
  0
ARC
  5
2F3FD
  8
0
 10
3026.2165209222771409
 20
197.6757608798139074
 30
0.0
 40
0.0203409084664152
 50
288.7563812141852964
 51
323.1363202223585063
  0
ARC
  5
2F3FE
  8
0
 10
3026.2118472252827814
 20
197.6872470447983119
 30
0.0
 40
0.0327280874744201
 50
265.0582954567807974
 51
290.038285377442719
  0
ARC
  5
2F3FF
  8
0
 10
3026.201605428064795
 20
197.602843642755488
 30
0.0
 40
0.052326092961093
 50
81.8450061670361464
 51
107.6463173158801965
  0
ARC
  5
2F400
  8
0
 10
3025.7746026587510642
 20
199.3559313982208039
 30
0.0
 40
1.7484396518413969
 50
274.255657078133595
 51
280.5286452148665148
  0
ARC
  5
2F401
  8
0
 10
3026.1372675759448612
 20
197.4329424247875124
 30
0.0
 40
0.208506232876368
 50
92.6778488581132365
 51
101.9513343261118052
  0
ARC
  5
2F402
  8
0
 10
3026.1181299581321582
 20
197.8421164598071016
 30
0.0
 40
0.2011151036648081
 50
272.6778488581131796
 51
289.6450486288222805
  0
ARC
  5
2F403
  8
0
 10
3026.1280322995821734
 20
198.0733965321113033
 30
0.0
 40
0.2310869093747707
 50
337.4811888766961943
 51
6.9898387397791764
  0
ARC
  5
2F404
  8
0
 10
3026.0742276894197857
 20
198.0957038299114004
 30
0.0
 40
0.2893325238867266
 50
315.4085407224691835
 51
337.4811888766961943
  0
ARC
  5
2F405
  8
0
 10
3025.9847073286468913
 20
198.1839565792413111
 30
0.0
 40
0.4150402911769878
 50
296.8128227310568832
 51
315.4085407224691835
  0
ARC
  5
2F406
  8
0
 10
3025.9205272789781702
 20
198.3109408588024962
 30
0.0
 40
0.5573220047989357
 50
280.2195609743059208
 51
296.8128227310568832
  0
ARC
  5
2F407
  8
0
 10
3025.9024699267420146
 20
198.4111031862447021
 30
0.0
 40
0.6590990150144833
 50
270.1633522042733944
 51
280.2195609743059208
  0
ARC
  5
2F408
  8
0
 10
3026.0073604957678981
 20
198.1349306407961137
 30
0.0
 40
0.283500600257963
 50
302.1865133250191207
 51
328.5319513379182013
  0
ARC
  5
2F409
  8
0
 10
3025.9181752164081445
 20
198.2766284189791861
 30
0.0
 40
0.4509290159955797
 50
286.7602695728303956
 51
302.1865133250191207
  0
ARC
  5
2F40A
  8
0
 10
3025.8864969997898697
 20
198.4057742419749104
 30
0.0
 40
0.5837645512800015
 50
271.7524289935823276
 51
286.0821444778799219
  0
ARC
  5
2F40B
  8
0
 10
3026.3814815291279956
 20
198.7399535180678072
 30
0.0
 40
0.0131944259228679
 50
303.2241604663287831
 51
355.2744608599489879
  0
ARC
  5
2F40C
  8
0
 10
3026.39809113263982
 20
198.7099430366467914
 30
0.0
 40
0.0211650327381065
 50
116.3077001109752047
 51
240.5472023530143133
  0
ARC
  5
2F40D
  8
0
 10
3026.3780403549922084
 20
198.6774052049875081
 30
0.0
 40
0.0170892528501679
 50
36.0845177358856333
 51
55.6449595533034014
  0
ARC
  5
2F40E
  8
0
 10
3026.3796857897700647
 20
198.6786595811460074
 30
0.0
 40
0.0150207625148015
 50
5.7373371476173141
 51
35.91440103535394
  0
ARC
  5
2F40F
  8
0
 10
3026.1300383056359351
 20
198.7131216790210999
 30
0.0
 40
0.2669374082785886
 50
332.0635740302973886
 51
352.4008162813241256
  0
ARC
  5
2F410
  8
0
 10
3026.0693700568490385
 20
198.745293262688989
 30
0.0
 40
0.3356079784412751
 50
308.1213117898387281
 51
332.0635740302988097
  0
ARC
  5
2F411
  8
0
 10
3025.937561663948145
 20
198.9132660270227859
 30
0.0
 40
0.5491221512666896
 50
297.0895138263628041
 51
308.1213117898387281
  0
ARC
  5
2F412
  8
0
 10
3026.1765527550301158
 20
198.4460256370311981
 30
0.0
 40
0.0243075900584565
 50
256.7675313524288754
 51
297.0895138263628041
  0
ARC
  5
2F413
  8
0
 10
3026.1605708714209868
 20
198.3780597956937015
 30
0.0
 40
0.0455120074225118
 50
76.7675313524288327
 51
147.6477771295629111
  0
ARC
  5
2F414
  8
0
 10
3026.1019781565660196
 20
198.4151753634720876
 30
0.0
 40
0.0238469978004369
 50
293.0924203969245241
 51
327.6477771295641901
  0
ARC
  5
2F415
  8
0
 10
3025.9062079708201054
 20
199.0292333435251066
 30
0.0
 40
0.6682545982452709
 50
269.840615903250125
 51
287.8757531007050261
  0
LINE
  5
2F416
  8
0
 10
3026.1709886857829588
 20
198.4223634294446015
 30
0.0
 11
3026.170988672184194
 21
198.0173081658444971
 31
0.0
  0
ARC
  5
2F417
  8
0
 10
3026.1674682371658491
 20
198.017308165962703
 30
0.0
 40
0.0035204350171707
 50
314.8129866768683769
 51
359.9999980763678877
  0
ARC
  5
2F418
  8
0
 10
3026.157465573493937
 20
198.0273763410503989
 30
0.0
 40
0.0177127368089189
 50
295.8851873944793738
 51
314.8129866768659895
  0
ARC
  5
2F419
  8
0
 10
3026.0303578431098686
 20
198.3752070394382088
 30
0.0
 40
0.3879535021120605
 50
287.4606500815979189
 51
290.338689127481075
  0
ARC
  5
2F41A
  8
0
 10
3026.1905180546341398
 20
197.8915838623732952
 30
0.0
 40
0.1216839867353377
 50
111.0740777669900012
 51
119.8066968882638008
  0
ARC
  5
2F41B
  8
0
 10
3026.1199797824310735
 20
198.0156210616258932
 30
0.0
 40
0.0210116461955331
 50
285.6404263303178936
 51
298.5815336639985844
  0
ARC
  5
2F41C
  8
0
 10
3026.1243415268381796
 20
198.0005341786454949
 30
0.0
 40
0.0053091299324699
 50
263.8590124625171143
 51
284.2068200971531269
  0
ARC
  5
2F41D
  8
0
 10
3026.1239643175417768
 20
197.9970282802748045
 30
0.0
 40
0.0017829974566186
 50
207.3587368154697117
 51
263.8590124625433191
  0
ARC
  5
2F41E
  8
0
 10
3026.124436340738157
 20
197.9972725227420085
 30
0.0
 40
0.0023144673807928
 50
177.8578512847686
 51
207.3587368154711044
  0
LINE
  5
2F41F
  8
0
 10
3026.1221234907839062
 20
197.997359034844493
 30
0.0
 11
3026.1221234907839062
 21
198.4024142971445031
 31
0.0
  0
LINE
  5
2F420
  8
0
 10
3026.5593343558798551
 20
198.0708479627618033
 30
0.0
 11
3026.6191066855490135
 21
197.5871725974600963
 31
0.0
  0
LINE
  5
2F421
  8
0
 10
3026.6228707277341528
 20
197.6083759186088002
 30
0.0
 11
3026.5636932536917811
 21
198.0947799121323101
 31
0.0
  0
LINE
  5
2F422
  8
0
 10
3026.5675976867341888
 20
198.1296052464444983
 30
0.0
 11
3026.6250241908837779
 21
197.6487137729444896
 31
0.0
  0
LINE
  5
2F423
  8
0
 10
3026.6295864168578191
 20
197.6589082361442991
 30
0.0
 11
3026.5707006145839841
 21
198.1534472742445132
 31
0.0
  0
LINE
  5
2F424
  8
0
 10
3026.4258139884709635
 20
197.7944639761579992
 30
0.0
 11
3026.4622861034840753
 21
197.2569136228945013
 31
0.0
  0
LINE
  5
2F425
  8
0
 10
3026.4239921446342123
 20
197.2131059806445137
 30
0.0
 11
3026.3824169616841573
 21
197.7437283963444941
 31
0.0
  0
LINE
  5
2F426
  8
0
 10
3026.3115671435148215
 20
197.6999170968373107
 30
0.0
 11
3026.346910601484069
 21
197.1647722480444997
 31
0.0
  0
LINE
  5
2F427
  8
0
 10
3026.3240749905339726
 20
197.14958706329449
 30
0.0
 11
3026.2897758200838325
 21
197.6887601028444976
 31
0.0
  0
LINE
  5
2F428
  8
0
 10
3026.2327949733930836
 20
197.663558100719996
 30
0.0
 11
3026.2608115444841133
 21
197.1239886624445035
 31
0.0
  0
LINE
  5
2F429
  8
0
 10
3026.2379910409008517
 20
197.1122899863468092
 30
0.0
 11
3026.2090309636027996
 21
197.6546403525422022
 31
0.0
  0
LINE
  5
2F42A
  8
0
 10
3026.36303790398415
 20
197.7304928527445043
 30
0.0
 11
3026.4048693253598685
 21
197.195164445028297
 31
0.0
  0
ARC
  5
2F42B
  8
0
 10
3026.3292343261150563
 20
196.2466326919077915
 30
0.0
 40
0.9615710071703804
 50
339.9581090992999748
 51
353.9511095003239802
  0
ARC
  5
2F42C
  8
0
 10
3026.501822869462103
 20
196.1894494946606073
 30
0.0
 40
0.7798558239690317
 50
320.6067561671360977
 51
339.5593855368809955
  0
ARC
  5
2F42D
  8
0
 10
3026.1512189773179671
 20
196.4773695486844076
 30
0.0
 40
1.2335308692337379
 50
306.9791366192704913
 51
320.6067561671360977
  0
ARC
  5
2F42E
  8
0
 10
3026.0637800645058633
 20
196.6322940335502096
 30
0.0
 40
1.4100828011668971
 50
291.9445436788299162
 51
306.0307272934834941
  0
ARC
  5
2F42F
  8
0
 10
3025.9304563882260481
 20
196.9632034906456965
 30
0.0
 40
1.7668408024117499
 50
279.8496653684957778
 51
291.9445436788299162
  0
ARC
  5
2F430
  8
0
 10
3025.8591770677430759
 20
197.4646281074300873
 30
0.0
 40
2.2731208778988399
 50
271.1386695871801749
 51
279.4577920444959886
  0
ARC
  5
2F431
  8
0
 10
3025.8865454197098188
 20
199.218394307208996
 30
0.0
 40
0.7304737164099827
 50
263.5527230724197807
 51
271.3965912406558232
  0
ARC
  5
2F432
  8
0
 10
3025.9048899120539318
 20
198.9879355188271859
 30
0.0
 40
0.4992859711859275
 50
274.551141247281123
 51
297.8059261693966278
  0
ARC
  5
2F433
  8
0
 10
3025.9698934717162047
 20
198.8646762010658051
 30
0.0
 40
0.3599363311303171
 50
297.8059261693966278
 51
320.2644128555000975
  0
ARC
  5
2F434
  8
0
 10
3025.902977552187167
 20
198.9020901594765007
 30
0.0
 40
0.4139548472708953
 50
270.1898286245299801
 51
275.7579038634066251
  0
ARC
  5
2F546
  8
0
 10
3024.8508403623709455
 20
203.227185632186405
 30
0.0
 40
0.0204753374745535
 50
90.5517624567271753
 51
178.9166638692954052
  0
LINE
  5
2F547
  8
0
 10
3022.8083347509591476
 20
203.2476600202444956
 30
0.0
 11
3022.8083347509591476
 21
203.0197648186444894
 31
0.0
  0
ARC
  5
2F548
  8
0
 10
3022.8383350313629307
 20
203.0197650559788087
 30
0.0
 40
0.0300002804049302
 50
180.0004532708695137
 51
251.5435848142622888
  0
ARC
  5
2F549
  8
0
 10
3022.7441399933618413
 20
202.6956196671428074
 30
0.0
 40
0.3075795159537335
 50
31.9657711739503902
 51
74.0160740509518291
  0
ARC
  5
2F54A
  8
0
 10
3022.5964204946008067
 20
202.6459135737474924
 30
0.0
 40
0.4606262598911457
 50
359.4245166137861247
 51
27.4788284737147599
  0
ARC
  5
2F54B
  8
0
 10
3023.0869859828931112
 20
202.6424740791831027
 30
0.0
 40
0.0299859658134923
 50
182.2686464428612112
 51
225.7294326508007885
  0
LINE
  5
2F54C
  8
0
 10
3023.0660543530930227
 20
202.6210025859965072
 30
0.0
 11
3023.1343750097280463
 21
202.5532739306825079
 31
0.0
  0
ARC
  5
2F54D
  8
0
 10
3023.1553861089641941
 20
202.5743861335926965
 30
0.0
 40
0.0297857583892442
 50
225.1375201469707008
 51
270.8668103523431228
  0
ARC
  5
2F54E
  8
0
 10
3022.9877630124401549
 20
196.3380342158351937
 30
0.0
 40
6.2088448659996729
 50
85.5610300994753459
 51
88.4488112833575002
  0
ARC
  5
2F54F
  8
0
 10
3023.3158185181159752
 20
199.7401978259701991
 30
0.0
 40
2.7922239475558892
 50
70.0719168491586544
 51
86.8693537923017658
  0
ARC
  5
2F550
  8
0
 10
3024.7774229363549239
 20
202.5132805565492049
 30
0.0
 40
0.3662342847510347
 50
245.1231671841727859
 51
256.3153176876508041
  0
ARC
  5
2F551
  8
0
 10
3025.279061987933801
 20
203.5497210387007954
 30
0.0
 40
1.517651938345699
 50
237.4759611107839987
 51
244.4022314324869001
  0
ARC
  5
2F552
  8
0
 10
3023.9530897741501576
 20
201.4702873615995884
 30
0.0
 40
0.9485692052647596
 50
57.4759611107840485
 51
70.6413884553257674
  0
LINE
  5
2F553
  8
0
 10
3024.6964753058359747
 20
202.1566348061444955
 30
0.0
 11
3025.5027220618771935
 21
202.1566348061444955
 31
0.0
  0
ARC
  5
2F554
  8
0
 10
3024.698066343982191
 20
202.1883281081443045
 30
0.0
 40
0.0317332127909069
 50
256.7253952448722885
 51
267.1261023034895743
  0
ARC
  5
2F555
  8
0
 10
3025.8442698215849305
 20
200.1583466333188994
 30
0.0
 40
0.7047669978317562
 50
239.4148589418981032
 51
241.018408654794996
  0
ARC
  5
2F556
  8
0
 10
3025.5203761810889773
 20
199.6103480932220009
 30
0.0
 40
0.0682063249167547
 50
223.5546843551161089
 51
239.4148589418981032
  0
ARC
  5
2F557
  8
0
 10
3025.524491648754065
 20
199.6046902127141891
 30
0.0
 40
0.0676468649366838
 50
202.6904707320080092
 51
217.6695694840128965
  0
ARC
  5
2F558
  8
0
 10
3025.3948273216869893
 20
199.5582834674133892
 30
0.0
 40
0.0702535310351464
 50
16.8053558609672784
 51
55.0870982745822175
  0
ARC
  5
2F559
  8
0
 10
2997.3322713526340522
 20
158.7518515236577912
 30
0.0
 40
49.594709802743111
 50
55.4831606242692175
 51
55.5200092157207834
  0
ARC
  5
2F55A
  8
0
 10
3025.4534945284258356
 20
199.700087213573795
 30
0.0
 40
0.0798449334367734
 50
224.1992150307594898
 51
235.9160715654219871
  0
ARC
  5
2F55B
  8
0
 10
3025.4194238645432051
 20
199.6646955541660873
 30
0.0
 40
0.0307881789670097
 50
184.4886125582250997
 51
221.1822157668964053
  0
ARC
  5
2F55C
  8
0
 10
3025.4918253773089418
 20
199.672767618087903
 30
0.0
 40
0.1036267166094303
 50
179.8486238926718954
 51
185.8052485594081134
  0
LINE
  5
2F55D
  8
0
 10
3025.3881990223680987
 20
199.6730414007444949
 30
0.0
 11
3025.3881990220538682
 21
199.7006193676444923
 31
0.0
  0
ARC
  5
2F55E
  8
0
 10
3073.2717204018381381
 20
201.8996829046012067
 30
0.0
 40
47.9339910728057035
 50
182.5931761127527011
 51
182.6294764137684865
  0
ARC
  5
2F55F
  8
0
 10
3025.3190221348809246
 20
199.7235563387501998
 30
0.0
 40
0.0681959970093393
 50
6.2299323009280823
 51
35.2687179943799123
  0
ARC
  5
2F560
  8
0
 10
3025.3080582443872117
 20
199.7158024549952131
 30
0.0
 40
0.0816246830224896
 50
35.2687179943785765
 51
60.3404837181617992
  0
ARC
  5
2F561
  8
0
 10
3025.1515910450812044
 20
199.4410353274558076
 30
0.0
 40
0.3978191782862573
 50
60.3404837181617992
 51
70.2929265755062005
  0
ARC
  5
2F562
  8
0
 10
3023.5154091442877871
 20
194.8731334837428051
 30
0.0
 40
5.249913413385042
 50
70.2929265755062005
 51
71.3632254548544012
  0
ARC
  5
2F563
  8
0
 10
3025.2939663603387999
 20
200.146809920668602
 30
0.0
 40
0.3155990456928252
 50
238.9265670988484942
 51
251.363225454854387
  0
ARC
  5
2F564
  8
0
 10
3025.1792790830450031
 20
199.965445484658801
 30
0.0
 40
0.1011705848829809
 50
200.2972239378889014
 51
241.5448450597394014
  0
ARC
  5
2F565
  8
0
 10
3025.2560756518400922
 20
199.9829704475687038
 30
0.0
 40
0.1795678782894998
 50
185.4913030170492902
 51
197.0398698691120103
  0
ARC
  5
2F566
  8
0
 10
3078.1650715357382069
 20
202.7442521161235902
 30
0.0
 40
53.1603985483273505
 50
182.8637448736579074
 51
182.9959690031735988
  0
ARC
  5
2F567
  8
0
 10
3025.2660781043650786
 20
200.0872844883685957
 30
0.0
 40
0.1950195506928194
 50
166.0847703183167141
 51
179.6995629653214905
  0
ARC
  5
2F568
  8
0
 10
3025.1249762021348033
 20
200.1222266477479934
 30
0.0
 40
0.0496555239669481
 50
104.1013114432640947
 51
166.065913061881588
  0
ARC
  5
2F569
  8
0
 10
3025.1481235912578995
 20
200.0258775451000872
 30
0.0
 40
0.1487443775922377
 50
88.9199063839257491
 51
103.706732214545994
  0
ARC
  5
2F56A
  8
0
 10
3025.1901121501691705
 20
188.5065290573433003
 30
0.0
 40
11.6681322332610193
 50
89.807585048633527
 51
90.1924149513664872
  0
LINE
  5
2F56B
  8
0
 10
3025.22929686665384
 20
200.174595494026704
 30
0.0
 11
3025.4936788130758032
 21
200.1747115638285948
 31
0.0
  0
LINE
  5
2F56C
  8
0
 10
3025.4928254284559443
 20
200.1846592487445093
 30
0.0
 11
3025.1787961464538057
 21
200.1846592487445093
 31
0.0
  0
ARC
  5
2F56D
  8
0
 10
3025.1742257183132097
 20
200.2825338014399108
 30
0.0
 40
0.0980050692105879
 50
238.4658539319381134
 51
272.9660221886038016
  0
ARC
  5
2F56E
  8
0
 10
3025.1506130290649708
 20
200.2440528903821075
 30
0.0
 40
0.0528570946230126
 50
177.9518966101572062
 51
238.4658539319142108
  0
ARC
  5
2F56F
  8
0
 10
3025.1819644061470171
 20
200.2429317218513916
 30
0.0
 40
0.0842285125669244
 50
146.2621851521319059
 51
177.9518966101572062
  0
ARC
  5
2F570
  8
0
 10
3025.5092416584070634
 20
200.0243527161696875
 30
0.0
 40
0.4777856006389164
 50
134.8992912219077027
 51
146.2621851521305132
  0
ARC
  5
2F571
  8
0
 10
3024.9759129587919233
 20
200.5280654015967912
 30
0.0
 40
0.2564408420037797
 50
319.872440674262009
 51
331.5116018508537081
  0
ARC
  5
2F572
  8
0
 10
3025.0692479266499504
 20
200.4737373059801087
 30
0.0
 40
0.1485291408192577
 50
332.7579651438210817
 51
355.1031889437157929
  0
ARC
  5
2F573
  8
0
 10
3021.881662442725883
 20
200.7468310638751916
 30
0.0
 40
3.3477917774150701
 50
355.1031889437157929
 51
356.641224156313001
  0
ARC
  5
2F574
  8
0
 10
3023.3477589936801451
 20
200.5987101771098935
 30
0.0
 40
1.8765590256500999
 50
358.5336769978865732
 51
0.2720442680185788
  0
ARC
  5
2F575
  8
0
 10
3021.4838749392920363
 20
200.6207677688109072
 30
0.0
 40
3.7404450342100661
 50
359.7986059822753191
 51
4.7193009069501244
  0
ARC
  5
2F576
  8
0
 10
3024.3474613718849469
 20
200.8571686167917107
 30
0.0
 40
0.8671172391515856
 50
4.7193009069501244
 51
26.2720606781633208
  0
ARC
  5
2F577
  8
0
 10
3024.1855703318369706
 20
200.7772552840633864
 30
0.0
 40
1.04765767671451
 50
26.2720606781618606
 51
42.0087720335957329
  0
ARC
  5
2F578
  8
0
 10
3026.4500077366778896
 20
202.8167917242637941
 30
0.0
 40
1.999863553949534
 50
220.1706552532893113
 51
222.0087720335957044
  0
ARC
  5
2F579
  8
0
 10
3024.9551358309581701
 20
201.5548388249279981
 30
0.0
 40
0.0435488720401968
 50
181.8103910994394141
 51
220.1706552532855881
  0
LINE
  5
2F57A
  8
0
 10
3024.9116086964540955
 20
201.553463027744499
 30
0.0
 11
3024.9115960189701582
 21
201.7904717739513103
 31
0.0
  0
ARC
  5
2F57B
  8
0
 10
3024.8716510667909461
 20
201.7617783999783114
 30
0.0
 40
0.0399469176710591
 50
0.2691439755798244
 51
57.684731049869221
  0
ARC
  5
2F57C
  8
0
 10
2913.9149758688749898
 20
9.8335520606271416
 30
0.0
 40
221.7330090283460891
 50
59.9667180827568203
 51
60.0110939916834312
  0
ARC
  5
2F57D
  8
0
 10
3024.7642968666550587
 20
201.9160748665445055
 30
0.0
 40
0.0399999999999716
 50
179.9999999999593001
 51
240.0000001392976117
  0
LINE
  5
2F57E
  8
0
 10
3024.7242968666541856
 20
201.9160748665445055
 30
0.0
 11
3024.7242968666541856
 21
202.1479808557444926
 31
0.0
  0
LINE
  5
2F57F
  8
0
 10
3024.7242968666600973
 20
202.1479808558559057
 30
0.0
 11
3024.725041993927789
 21
202.1566348061444955
 31
0.0
  0
LINE
  5
2F580
  8
0
 10
3025.502722063553847
 20
201.7933879343445085
 30
0.0
 11
3025.4480538182538112
 21
201.7933879343445085
 31
0.0
  0
ARC
  5
2F581
  8
0
 10
3025.4480538182538112
 20
201.7464217611785102
 30
0.0
 40
0.0469661731660054
 50
90.0
 51
110.2985869109846959
  0
ARC
  5
2F582
  8
0
 10
3025.2023600243060173
 20
202.6919907193752977
 30
0.0
 40
0.9302483898081376
 50
255.7235421789503107
 51
284.2764966716972026
  0
ARC
  5
2F583
  8
0
 10
3024.9536650728341556
 20
201.7383060462472031
 30
0.0
 40
0.0556190871330279
 50
69.7014519396923191
 51
82.0302721947132625
  0
LINE
  5
2F584
  8
0
 10
3024.9613766522538754
 20
201.7933879343445085
 30
0.0
 11
3024.9149390355541982
 21
201.7933879343445085
 31
0.0
  0
ARC
  5
2F585
  8
0
 10
3024.9146890433748922
 20
201.7903002620489872
 30
0.0
 40
0.0030977760239394
 50
85.371166416418987
 51
176.8261308800259997
  0
ARC
  5
2F586
  8
0
 10
3024.9453350996268455
 20
201.6128211018834122
 30
0.0
 40
0.0342695044536771
 50
190.2140825025198012
 51
234.4221076175539054
  0
LINE
  5
2F587
  8
0
 10
3024.9253967869540247
 20
201.5849488464444903
 30
0.0
 11
3024.9713435475541701
 21
201.5849488563445107
 31
0.0
  0
ARC
  5
2F588
  8
0
 10
3024.9704931598921576
 20
201.5745506587556974
 30
0.0
 40
0.0104329037589769
 50
62.7226648079589921
 51
85.3245780618838268
  0
ARC
  5
2F589
  8
0
 10
3025.2112718940770719
 20
202.041504035702701
 30
0.0
 40
0.5149430141111913
 50
242.7226648079590063
 51
297.2773349735518877
  0
ARC
  5
2F58A
  8
0
 10
3025.4526890124639067
 20
201.5713517669022963
 30
0.0
 40
0.0135983706547128
 50
89.2104499472829815
 51
113.4881801425255929
  0
LINE
  5
2F58B
  8
0
 10
3025.4528763954540409
 20
201.5849488464444903
 30
0.0
 11
3025.502722063553847
 21
201.5849488464444903
 31
0.0
  0
LINE
  5
2F58C
  8
0
 10
3024.9613766522538754
 20
201.7933879343445085
 30
0.0
 11
3024.9613766522538754
 21
201.6125747472445084
 31
0.0
  0
ARC
  5
2F58D
  8
0
 10
3025.0046463377821055
 20
201.6125747472445084
 30
0.0
 40
0.0432696855278882
 50
180.0
 51
219.6769564260326035
  0
LINE
  5
2F58E
  8
0
 10
3025.4317606647541652
 20
201.7904712171443009
 30
0.0
 11
3025.4317589831539408
 21
201.6114409587445095
 31
0.0
  0
ARC
  5
2F58F
  8
0
 10
3025.4880845265947755
 20
201.6249097881388082
 30
0.0
 40
0.0579135235422488
 50
193.4483049351466093
 51
225.1896575858253868
  0
LINE
  5
2F590
  8
0
 10
3025.22929686665384
 20
200.1846600202445075
 30
0.0
 11
3025.22929686665384
 21
200.174595494026704
 31
0.0
  0
LINE
  5
2F591
  8
0
 10
3025.4087597794150497
 20
199.633950760844499
 30
0.0
 11
3025.5027968666540801
 21
199.633950760844499
 31
0.0
  0
LINE
  5
2F592
  8
0
 10
3022.8288374471007955
 20
202.9913078474444887
 30
0.0
 11
3024.9371044289591737
 21
202.9913078474444887
 31
0.0
  0
LINE
  5
2F593
  8
0
 10
3023.1578220136370874
 20
202.5445497041073963
 30
0.0
 11
3025.4262094640389478
 21
202.5445497041073963
 31
0.0
  0
LINE
  5
2F594
  8
0
 10
3024.7442968667378409
 20
201.8814338503445072
 30
0.0
 11
3025.5027220623392168
 21
201.8814338503445072
 31
0.0
  0
LINE
  5
2F595
  8
0
 10
3023.0595922983461605
 20
202.6302780063437865
 30
0.0
 11
3025.4083288606298083
 21
202.6302780063437865
 31
0.0
  0
ARC
  5
2F5A8
  8
0
 10
3043.0319683601978795
 20
199.6214260628119916
 30
0.0
 40
16.7261917616688116
 50
178.1054628611474868
 51
179.909260298505302
  0
ARC
  5
2F5A9
  8
0
 10
2877.9548764984638183
 20
198.3325299816337974
 30
0.0
 40
148.371475840490092
 50
0.7112798001402514
 51
0.9519891661011698
  0
LINE
  5
2F5AA
  8
0
 10
3026.3058723755229948
 20
200.7976598707444964
 30
0.0
 11
3026.3067335103751248
 21
202.3965979148445058
 31
0.0
  0
LINE
  5
2F5AB
  8
0
 10
3025.904245401911794
 20
202.3965979148445058
 30
0.0
 11
3025.9042975732118066
 21
202.3965979148445058
 31
0.0
  0
LINE
  5
2F5AC
  8
0
 10
3026.9782250481398478
 20
203.2275727523447983
 30
0.0
 11
3026.9782250481398478
 21
203.1058671455444937
 31
0.0
  0
ARC
  5
2F5AD
  8
0
 10
3026.9177197175481524
 20
203.1061893338296898
 30
0.0
 40
0.0605061884054431
 50
308.9394198806626832
 51
359.6949053199917898
  0
LINE
  5
2F5AE
  8
0
 10
3026.9557477568528157
 20
203.0591269596652921
 30
0.0
 11
3026.8690361786780159
 21
202.9893327565075936
 31
0.0
  0
ARC
  5
2F5AF
  8
0
 10
3026.8314149743778216
 20
203.0360729419392101
 30
0.0
 40
0.0599999995594031
 50
273.2293799828929082
 51
308.8306097578931144
  0
ARC
  5
2F5B0
  8
0
 10
3026.3315739974500502
 20
202.4068393389541995
 30
0.0
 40
0.0102414777992121
 50
270.185524459025828
 51
291.7270245628654948
  0
ARC
  5
2F5B1
  8
0
 10
3026.3123274781578402
 20
202.4551373830755949
 30
0.0
 40
0.0622331076141402
 50
291.7270245628649263
 51
355.4327129884762257
  0
ARC
  5
2F5B2
  8
0
 10
3027.1289854991350694
 20
202.4335578994682123
 30
0.0
 40
0.7548056189356011
 50
154.0682158582812917
 51
178.7380130826068978
  0
ARC
  5
2F5B3
  8
0
 10
3026.7785203570902013
 20
202.5920731067647864
 30
0.0
 40
0.3704627832281775
 50
126.8905156857188956
 51
152.412580449347189
  0
ARC
  5
2F5B4
  8
0
 10
3026.8111382981951465
 20
202.5354410257749009
 30
0.0
 40
0.4354081949898584
 50
99.3064679875575393
 51
125.8498054669022963
  0
ARC
  5
2F5B5
  8
0
 10
3026.8708767324928886
 20
202.263078910271787
 30
0.0
 40
0.7140015818827476
 50
92.8966502845930648
 51
100.5027841924106013
  0
LINE
  5
2F5B6
  8
0
 10
3025.904245401911794
 20
202.3965979148445058
 30
0.0
 11
3025.9041932306117815
 21
202.3965979148445058
 31
0.0
  0
ARC
  5
2F5B7
  8
0
 10
3026.9577545962288241
 20
203.2271868761808093
 30
0.0
 40
0.0204740885469347
 50
1.07992034187062
 51
89.4496561258639957
  0
ARC
  5
2F5B8
  8
0
 10
3028.9702605477659745
 20
203.0197635072005937
 30
0.0
 40
0.0299984505643667
 50
288.4552873118457228
 51
0.0025048026705408
  0
ARC
  5
2F5B9
  8
0
 10
3029.064454446318905
 20
202.6956196671428074
 30
0.0
 40
0.3075795159537335
 50
105.9839259490480998
 51
148.0342288260495991
  0
ARC
  5
2F5BA
  8
0
 10
3029.2121851632009566
 20
202.6459093872169888
 30
0.0
 40
0.4606381441540946
 50
152.5213533827374874
 51
180.5749477769753071
  0
ARC
  5
2F5BB
  8
0
 10
3028.7216126193661694
 20
202.642471179189414
 30
0.0
 40
0.0299809836065872
 50
314.2687398180353853
 51
357.736522789965079
  0
LINE
  5
2F5BC
  8
0
 10
3028.7425400865881784
 20
202.6210025859965072
 30
0.0
 11
3028.6742194299531548
 21
202.5532739306825079
 31
0.0
  0
ARC
  5
2F5BD
  8
0
 10
3028.6532083307170069
 20
202.5743861335926965
 30
0.0
 40
0.0297857583892442
 50
269.1331896476568772
 51
314.8624798530282192
  0
ARC
  5
2F5BE
  8
0
 10
3028.8208314272410462
 20
196.3380342158351937
 30
0.0
 40
6.2088448659996729
 50
91.5511887166425282
 51
94.4389699005246541
  0
ARC
  5
2F5BF
  8
0
 10
3028.4927759215652259
 20
199.7401978259701991
 30
0.0
 40
2.7922239475558892
 50
93.1306462076982484
 51
109.928083150841303
  0
ARC
  5
2F5C0
  8
0
 10
3027.0311715033258224
 20
202.5132805565492049
 30
0.0
 40
0.3662342847510347
 50
283.6846823123491959
 51
294.876832815827072
  0
ARC
  5
2F5C1
  8
0
 10
3026.5295324517469453
 20
203.5497210387007954
 30
0.0
 40
1.517651938345699
 50
295.5977685675131283
 51
302.5240388892158876
  0
ARC
  5
2F5C2
  8
0
 10
3027.8555046655310434
 20
201.4702873615995884
 30
0.0
 40
0.9485692052647596
 50
109.3586115446742042
 51
122.5240388892159018
  0
LINE
  5
2F5C3
  8
0
 10
3027.1121191338452263
 20
202.1566348061444955
 30
0.0
 11
3026.3066042742248101
 21
202.1566348061444955
 31
0.0
  0
ARC
  5
2F5C4
  8
0
 10
3027.11052809569901
 20
202.1883281081443045
 30
0.0
 40
0.0317332127909069
 50
272.8738976965104257
 51
283.2746047551277115
  0
ARC
  5
2F5C5
  8
0
 10
3025.9643246180958158
 20
200.1583466333188994
 30
0.0
 40
0.7047669978317562
 50
299.0005581676077782
 51
300.5851410581018968
  0
ARC
  5
2F5C6
  8
0
 10
3026.2882182585931332
 20
199.6103480932220009
 30
0.0
 40
0.0682063249167547
 50
300.5851410581018968
 51
316.4453156448839763
  0
ARC
  5
2F5C7
  8
0
 10
3026.2841027909262266
 20
199.6046902127141891
 30
0.0
 40
0.0676468649366838
 50
322.3304305159870182
 51
337.3095292679919908
  0
ARC
  5
2F5C8
  8
0
 10
3026.4137671179942117
 20
199.5582834674133892
 30
0.0
 40
0.0702535310351464
 50
124.9129017254177967
 51
163.1946441390327038
  0
ARC
  5
2F5C9
  8
0
 10
3054.4763230870471489
 20
158.7518515236577912
 30
0.0
 40
49.594709802743111
 50
124.4799907842791953
 51
124.5168393757307967
  0
ARC
  5
2F5CA
  8
0
 10
3026.3550999112549107
 20
199.700087213573795
 30
0.0
 40
0.0798449334367734
 50
304.0839284345781266
 51
315.8007849692403965
  0
ARC
  5
2F5CB
  8
0
 10
3026.3891705751379959
 20
199.6646955541660873
 30
0.0
 40
0.0307881789670097
 50
318.8177842331036231
 51
355.5113874417750139
  0
ARC
  5
2F5CC
  8
0
 10
3026.3167690623718045
 20
199.672767618087903
 30
0.0
 40
0.1036267166094303
 50
354.1947514405919151
 51
0.1513761073280318
  0
LINE
  5
2F5CD
  8
0
 10
3026.4203954173131024
 20
199.6730414007444949
 30
0.0
 11
3026.4203954176259685
 21
199.7006193676444923
 31
0.0
  0
ARC
  5
2F5CE
  8
0
 10
2978.536874037843063
 20
201.8996829046012067
 30
0.0
 40
47.9339910728057035
 50
357.3705235862313998
 51
357.4068238872471852
  0
ARC
  5
2F5CF
  8
0
 10
3026.4895723047998217
 20
199.7235563387501998
 30
0.0
 40
0.0681959970093393
 50
144.7312820056201019
 51
173.7700676990718875
  0
ARC
  5
2F5D0
  8
0
 10
3026.5005361952939893
 20
199.7158024549952131
 30
0.0
 40
0.0816246830224896
 50
119.6595162818381937
 51
144.7312820056214093
  0
ARC
  5
2F5D1
  8
0
 10
3026.6570033945999967
 20
199.4410353274558076
 30
0.0
 40
0.3978191782862573
 50
109.7070734244937995
 51
119.6595162818381937
  0
ARC
  5
2F5D2
  8
0
 10
3028.2931852953929592
 20
194.8731334837428051
 30
0.0
 40
5.249913413385042
 50
108.6367745451455988
 51
109.7070734244937995
  0
ARC
  5
2F5D3
  8
0
 10
3026.5146280793419464
 20
200.146809920668602
 30
0.0
 40
0.3155990456928252
 50
288.636774545145613
 51
301.0734329011514774
  0
ARC
  5
2F5D4
  8
0
 10
3026.629315356636198
 20
199.965445484658801
 30
0.0
 40
0.1011705848829809
 50
298.455154940260627
 51
339.702776062111127
  0
ARC
  5
2F5D5
  8
0
 10
3026.5525187878401994
 20
199.9829704475687038
 30
0.0
 40
0.1795678782894998
 50
342.9601301308879897
 51
354.5086969829505961
  0
ARC
  5
2F5D6
  8
0
 10
2974.1692310148291654
 20
202.7170421305818877
 30
0.0
 40
52.6339868197294578
 50
357.0037003913346894
 51
357.1372469038309987
  0
ARC
  5
2F5D7
  8
0
 10
3026.5425658346989621
 20
200.0872936728418949
 30
0.0
 40
0.194969295273804
 50
0.2978153910900967
 51
13.9161080551688592
  0
ARC
  5
2F5D8
  8
0
 10
3026.683618237545943
 20
200.1222266477479934
 30
0.0
 40
0.0496555239669481
 50
13.9340869381184103
 51
75.8986885567358911
  0
ARC
  5
2F5D9
  8
0
 10
3026.6604708484228468
 20
200.0258775451000872
 30
0.0
 40
0.1487443775922377
 50
76.2932677854539349
 51
91.0800936160742367
  0
ARC
  5
2F5DA
  8
0
 10
3026.6184822895120305
 20
188.5065290573433003
 30
0.0
 40
11.6681322332610193
 50
89.807585048633527
 51
90.1924149513664872
  0
LINE
  5
2F5DB
  8
0
 10
3026.5792975730269063
 20
200.174595494026704
 30
0.0
 11
3026.3149156266049431
 21
200.1747115638285948
 31
0.0
  0
LINE
  5
2F5DC
  8
0
 10
3026.3147917729861547
 20
200.1846592487445093
 30
0.0
 11
3026.6297982932269406
 21
200.1846592487445093
 31
0.0
  0
ARC
  5
2F5DD
  8
0
 10
3026.6343687213679914
 20
200.2825338014399108
 30
0.0
 40
0.0980050692105879
 50
267.0339778113960847
 51
301.5341460680618866
  0
ARC
  5
2F5DE
  8
0
 10
3026.6579814106157755
 20
200.2440528903821075
 30
0.0
 40
0.0528570946230126
 50
301.5341460680858177
 51
2.048103389842773
  0
ARC
  5
2F5DF
  8
0
 10
3026.6266300335341839
 20
200.2429317218513916
 30
0.0
 40
0.0842285125669244
 50
2.048103389842773
 51
33.7378148478680799
  0
ARC
  5
2F5E0
  8
0
 10
3026.2993527812741377
 20
200.0243527161696875
 30
0.0
 40
0.4777856006389164
 50
33.7378148478694371
 51
45.1007087780922902
  0
ARC
  5
2F5E1
  8
0
 10
3026.8326814808879135
 20
200.5280654015967912
 30
0.0
 40
0.2564408420037797
 50
208.4883981491464056
 51
220.1275593257379057
  0
ARC
  5
2F5E2
  8
0
 10
3026.7393465130307959
 20
200.4737373059801087
 30
0.0
 40
0.1485291408192577
 50
184.8968110562840934
 51
207.2420348561788899
  0
ARC
  5
2F5E3
  8
0
 10
3029.9269319969539538
 20
200.7468310638751916
 30
0.0
 40
3.3477917774150701
 50
183.358775843686999
 51
184.8968110562840934
  0
ARC
  5
2F5E4
  8
0
 10
3028.460835446001056
 20
200.5987101771098935
 30
0.0
 40
1.8765590256500999
 50
179.7279557319814103
 51
181.4663230021133984
  0
ARC
  5
2F5E5
  8
0
 10
3030.3247195003891648
 20
200.6207677688109072
 30
0.0
 40
3.7404450342100661
 50
175.2806990930498898
 51
180.2013940177247093
  0
ARC
  5
2F5E6
  8
0
 10
3027.4611330677957994
 20
200.8571686167917107
 30
0.0
 40
0.8671172391515856
 50
153.7279393218366863
 51
175.2806990930498898
  0
ARC
  5
2F5E7
  8
0
 10
3027.6230241078437757
 20
200.7772552840633864
 30
0.0
 40
1.04765767671451
 50
137.9912279664042103
 51
153.7279393218381074
  0
ARC
  5
2F5E8
  8
0
 10
3025.3585867030028567
 20
202.8167917242637941
 30
0.0
 40
1.999863553949534
 50
317.991227966404324
 51
319.8293447467106034
  0
ARC
  5
2F5E9
  8
0
 10
3026.8533820805928372
 20
201.5548840485510027
 30
0.0
 40
0.0436365239664667
 50
319.8487895184348986
 51
358.1338364134963967
  0
LINE
  5
2F5EA
  8
0
 10
3026.8969954606927786
 20
201.553463027744499
 30
0.0
 11
3026.8969954606927786
 21
201.7904717390698011
 31
0.0
  0
ARC
  5
2F5EB
  8
0
 10
3026.9370973537570535
 20
201.761633139216201
 30
0.0
 40
0.0401520293752394
 50
122.3901550808356973
 51
177.1364467103580012
  0
ARC
  5
2F5EC
  8
0
 10
3137.893618570804847
 20
9.8335520606271416
 30
0.0
 40
221.7330090283460891
 50
119.9889060083165049
 51
120.0332819172432011
  0
ARC
  5
2F5ED
  8
0
 10
3027.0443008953461685
 20
201.9160715442259004
 30
0.0
 40
0.0399954616469045
 50
299.9982577954460794
 51
0.0047594108493892
  0
LINE
  5
2F5EE
  8
0
 10
3027.0842963568538835
 20
201.9160748665445055
 30
0.0
 11
3027.0842963568588857
 21
202.1479808557444926
 31
0.0
  0
LINE
  5
2F5EF
  8
0
 10
3027.0842963568538835
 20
202.1479808558559057
 30
0.0
 11
3027.0835524457520478
 21
202.1566348061444955
 31
0.0
  0
LINE
  5
2F5F0
  8
0
 10
3026.3064086415411111
 20
201.7933879343445085
 30
0.0
 11
3026.3605406214269351
 21
201.7933879343445085
 31
0.0
  0
ARC
  5
2F5F1
  8
0
 10
3026.3605406214269351
 20
201.7464217611785102
 30
0.0
 40
0.0469661731660054
 50
69.7014130890153467
 51
90.0
  0
ARC
  5
2F5F2
  8
0
 10
3026.6062344153738195
 20
202.6919907193752977
 30
0.0
 40
0.9302483898081376
 50
255.7235033283029111
 51
284.2764578210496893
  0
ARC
  5
2F5F3
  8
0
 10
3026.8549293668470455
 20
201.7383060462472031
 30
0.0
 40
0.0556190871330279
 50
97.9697278052867375
 51
110.2985480603075956
  0
LINE
  5
2F5F4
  8
0
 10
3026.8472177874268709
 20
201.7933879343445085
 30
0.0
 11
3026.8936554041270028
 21
201.7933879343445085
 31
0.0
  0
ARC
  5
2F5F5
  8
0
 10
3026.8939070577657731
 20
201.7903053050501114
 30
0.0
 40
0.0030928842398014
 50
3.0846854976284379
 51
94.6670509782320835
  0
ARC
  5
2F5F6
  8
0
 10
3026.864695305251189
 20
201.6114645958244864
 30
0.0
 40
0.0323329835816723
 50
304.9068372934896729
 51
357.4178906542155119
  0
LINE
  5
2F5F7
  8
0
 10
3026.8831976527271763
 20
201.5849488464444903
 30
0.0
 11
3026.837250892127031
 21
201.5849488563445107
 31
0.0
  0
ARC
  5
2F5F8
  8
0
 10
3026.8381012797890435
 20
201.5745506587556974
 30
0.0
 40
0.0104329037589769
 50
94.6754219381161732
 51
117.2773351920409937
  0
ARC
  5
2F5F9
  8
0
 10
3026.5973225456041291
 20
202.041504035702701
 30
0.0
 40
0.5149430141111913
 50
242.7226650264481123
 51
297.2773351920409937
  0
ARC
  5
2F5FA
  8
0
 10
3026.3559054272159301
 20
201.5713517669022963
 30
0.0
 40
0.0135983706547128
 50
66.5118198574744071
 51
90.7895500527170043
  0
LINE
  5
2F5FB
  8
0
 10
3026.3557180442271601
 20
201.5849488464444903
 30
0.0
 11
3026.3062963831807792
 21
201.5849488464444903
 31
0.0
  0
LINE
  5
2F5FC
  8
0
 10
3026.8472177874268709
 20
201.7933879343445085
 30
0.0
 11
3026.8472177874268709
 21
201.6125747472445084
 31
0.0
  0
ARC
  5
2F5FD
  8
0
 10
3026.8039481018990955
 20
201.6125747472445084
 30
0.0
 40
0.0432696855278882
 50
320.3230435739674249
 51
0.0
  0
LINE
  5
2F5FE
  8
0
 10
3026.3768337749270358
 20
201.7904712171443009
 30
0.0
 11
3026.3768354565268055
 21
201.6114409587445095
 31
0.0
  0
ARC
  5
2F5FF
  8
0
 10
3026.3205099130859708
 20
201.6249097881388082
 30
0.0
 40
0.0579135235422488
 50
314.8103424141746132
 51
346.5516950648533907
  0
LINE
  5
2F600
  8
0
 10
3026.5792975730269063
 20
200.1846600202445075
 30
0.0
 11
3026.5792975730269063
 21
200.174595494026704
 31
0.0
  0
LINE
  5
2F601
  8
0
 10
3026.3998346602661513
 20
199.633950760844499
 30
0.0
 11
3026.305915341446962
 21
199.633950760844499
 31
0.0
  0
LINE
  5
2F602
  8
0
 10
3028.9797569925799507
 20
202.9913078474444887
 30
0.0
 11
3026.8714900107220274
 21
202.9913078474444887
 31
0.0
  0
LINE
  5
2F603
  8
0
 10
3028.6507724260441137
 20
202.5445497041073963
 30
0.0
 11
3026.3823849756417985
 21
202.5445497041073963
 31
0.0
  0
LINE
  5
2F604
  8
0
 10
3027.0642975729429054
 20
201.8814338503445072
 30
0.0
 11
3026.3064560601437734
 21
201.8814338503445072
 31
0.0
  0
LINE
  5
2F605
  8
0
 10
3028.7490021413350405
 20
202.6302780063437865
 30
0.0
 11
3026.400265579050938
 21
202.6302780063437865
 31
0.0
  0
LINE
  5
2F606
  8
0
 10
3022.8083347509591476
 20
203.2476600202444956
 30
0.0
 11
3029.0002589983018879
 21
203.2476600202444956
 31
0.0
  0
LINE
  5
2F608
  8
0
 10
3029.0002589983018879
 20
203.2476600202444956
 30
0.0
 11
3029.0002589983018879
 21
203.0197635072005937
 31
0.0
  0
ARC
  5
2F6CD
  8
0
 10
3039.1344422744009535
 20
204.32096910035051
 30
0.0
 40
14.6336533424594002
 50
188.4671191507871129
 51
191.3002791842675947
  0
ARC
  5
2F6CE
  8
0
 10
2979.2427814029060755
 20
192.3531308467032943
 30
0.0
 40
46.4420389942760323
 50
9.8378823844291947
 51
11.3002791842676498
  0
ARC
  5
2F6CF
  8
0
 10
3020.3981738837110242
 20
199.5686634013563037
 30
0.0
 40
4.6596234171557533
 50
356.4759916810332925
 51
8.8839187450978105
  0
ARC
  5
2F6D0
  8
0
 10
3040.9533742242560947
 20
198.036701231766898
 30
0.0
 40
15.9530856627141908
 50
175.5220280416982916
 51
177.9339183267128135
  0
ARC
  5
2F6D1
  8
0
 10
3025.8980244695990223
 20
198.3638482319983041
 30
0.0
 40
0.879478252982445
 50
204.1622933734304866
 51
217.0678224241374892
  0
ARC
  5
2F6D2
  8
0
 10
3025.9841343284051618
 20
198.3915184805069032
 30
0.0
 40
0.969421645978933
 50
180.9612231447474926
 51
203.5712128590056977
  0
ARC
  5
2F6D3
  8
0
 10
3027.6048265468070895
 20
198.5394514303546885
 30
0.0
 40
2.5951769483684428
 50
178.4015314262034906
 51
183.627501548558314
  0
ARC
  5
2F6D4
  8
0
 10
3025.816050840573098
 20
198.3207181816312925
 30
0.0
 40
0.8425816856160974
 50
163.1182292255464006
 51
174.4214571426005875
  0
ARC
  5
2F6D5
  8
0
 10
3025.9030223280929022
 20
198.3203626108918058
 30
0.0
 40
0.9292111406567698
 50
174.9209535688160884
 51
216.5342058977888087
  0
ARC
  5
2F6D6
  8
0
 10
3025.9668629883190079
 20
198.2673094512329897
 30
0.0
 40
1.083344144543156
 50
151.1369744407236055
 51
178.2035334330176113
  0
ARC
  5
2F6D7
  8
0
 10
3025.8852645672491235
 20
198.3025860922822119
 30
0.0
 40
1.001214118268499
 50
180.0752386487052945
 51
202.4462376839283024
  0
ARC
  5
2F6D8
  8
0
 10
3025.9539700923000964
 20
198.3307866778453104
 30
0.0
 40
1.0754818478813879
 50
202.4372430886191978
 51
215.2801581624698031
  0
ARC
  5
2F6D9
  8
0
 10
3012.6741521652797928
 20
204.32096910035051
 30
0.0
 40
14.6336533424594002
 50
348.6997208157322916
 51
351.5328808492129156
  0
ARC
  5
2F6DA
  8
0
 10
3072.5658130367751255
 20
192.3531308467032943
 30
0.0
 40
46.4420389942760323
 50
168.6997208157322916
 51
170.1621176155707929
  0
ARC
  5
2F6DB
  8
0
 10
3031.4104205559701768
 20
199.5686634013563037
 30
0.0
 40
4.6596234171557533
 50
171.1160812549022125
 51
183.5240083189650875
  0
ARC
  5
2F6DC
  8
0
 10
3010.8552202154251063
 20
198.036701231766898
 30
0.0
 40
15.9530856627141908
 50
2.0660816732888438
 51
4.477971958301695
  0
ARC
  5
2F6DD
  8
0
 10
3025.9105699700821788
 20
198.3638482319983041
 30
0.0
 40
0.879478252982445
 50
322.9321775758625108
 51
335.8377066265695134
  0
ARC
  5
2F6DE
  8
0
 10
3025.8244601112760392
 20
198.3915184805069032
 30
0.0
 40
0.969421645978933
 50
336.4287871409943023
 51
359.038776855252479
  0
ARC
  5
2F6DF
  8
0
 10
3024.2037678928741116
 20
198.5394514303546885
 30
0.0
 40
2.5951769483684428
 50
356.3724984514415723
 51
1.598468573796509
  0
ARC
  5
2F6E0
  8
0
 10
3025.9925435991081031
 20
198.3207181816312925
 30
0.0
 40
0.8425816856160974
 50
5.5785428573993947
 51
16.8817707744536385
  0
ARC
  5
2F6E1
  8
0
 10
3025.9055721115878441
 20
198.3203626108918058
 30
0.0
 40
0.9292111406567698
 50
323.465794102211305
 51
5.0790464311838912
  0
ARC
  5
2F6E2
  8
0
 10
3025.8417314513621932
 20
198.2673094512329897
 30
0.0
 40
1.083344144543156
 50
1.7964665669823789
 51
28.8630255592763305
  0
ARC
  5
2F6E3
  8
0
 10
3025.9233298724320775
 20
198.3025860922822119
 30
0.0
 40
1.001214118268499
 50
337.5537623160716976
 51
359.9247613512947055
  0
ARC
  5
2F6E4
  8
0
 10
3025.8546243473811046
 20
198.3307866778453104
 30
0.0
 40
1.0754818478813879
 50
324.7198418375301117
 51
337.5627569113808022
  0
ATTDEF
  5
2F6E8
  8
DEFPOINTS
 10
3025.8897580152201954
 20
203.2560765678387895
 30
0.0
 40
0.001
  1
TS27375-4G
  3

  2
MODELNUMBER
 70
     0
1001
ACDBATTR
1070
     0
1070
     1
  0
ATTDEF
  5
2F6E9
  8
DEFPOINTS
 10
3025.8897580152201954
 20
203.2544099011720959
 30
0.0
 40
0.001
  1
LUDGINTON 
  3

  2
TRADENAME
 70
     0
1001
ACDBATTR
1070
     0
1070
     1
  0
ATTDEF
  5
2F6EA
  8
DEFPOINTS
 10
3025.8897580152201954
 20
203.2527432345054876
 30
0.0
 40
0.001
  1
BATH AND SHOWER TRIM
  3

  2
PRODUCT
 70
     0
1001
ACDBATTR
1070
     0
1070
     1
  0
ENDSEC
  0
EOF
