  0
SECTION
  2
HEADER
  9
$ACADVER
  1
AC1009
  9
$INSBASE
 10
3057.3785958726548415
 20
204.3738686200543953
 30
0.0
  9
$EXTMIN
 10
3054.3658641085098679
 20
196.2211352446038859
 30
0.0
  9
$EXTMAX
 10
3060.3913276367989056
 20
204.379123046626006
 30
0.0
  9
$LIMMIN
 10
0.0
 20
0.0
  9
$LIMMAX
 10
11.6929133858000007
 20
8.2677165353999982
  9
$ORTHOMODE
 70
     1
  9
$REGENMODE
 70
     1
  9
$FILLMODE
 70
     1
  9
$QTEXTMODE
 70
     0
  9
$MIRRTEXT
 70
     0
  9
$DRAGMODE
 70
     2
  9
$LTSCALE
 40
0.6431102362
  9
$OSMODE
 70
  4095
  9
$ATTMODE
 70
     1
  9
$TEXTSIZE
 40
0.2
  9
$TRACEWID
 40
0.05
  9
$TEXTSTYLE
  7
STANDARD
  9
$CLAYER
  8
0
  9
$CELTYPE
  6
BYLAYER
  9
$CECOLOR
 62
   256
  9
$DIMSCALE
 40
1.0
  9
$DIMASZ
 40
0.1875
  9
$DIMEXO
 40
0.0625
  9
$DIMDLI
 40
0.4443307087
  9
$DIMRND
 40
0.0
  9
$DIMDLE
 40
0.0
  9
$DIMEXE
 40
0.125
  9
$DIMTP
 40
0.01
  9
$DIMTM
 40
0.01
  9
$DIMTXT
 40
2.0
  9
$DIMCEN
 40
0.1052362205
  9
$DIMTSZ
 40
0.0
  9
$DIMTOL
 70
     1
  9
$DIMLIM
 70
     0
  9
$DIMTIH
 70
     1
  9
$DIMTOH
 70
     1
  9
$DIMSE1
 70
     0
  9
$DIMSE2
 70
     0
  9
$DIMTAD
 70
     0
  9
$DIMZIN
 70
     0
  9
$DIMBLK
  1

  9
$DIMASO
 70
     1
  9
$DIMSHO
 70
     1
  9
$DIMPOST
  1
\X
  9
$DIMAPOST
  1

  9
$DIMALT
 70
     1
  9
$DIMALTD
 70
     2
  9
$DIMALTF
 40
25.3999999999999986
  9
$DIMLFAC
 40
1.0
  9
$DIMTOFL
 70
     0
  9
$DIMTVP
 40
0.0
  9
$DIMTIX
 70
     0
  9
$DIMSOXD
 70
     0
  9
$DIMSAH
 70
     0
  9
$DIMBLK1
  1

  9
$DIMBLK2
  1

  9
$DIMSTYLE
  2
STANDARD
  9
$DIMCLRD
 70
     0
  9
$DIMCLRE
 70
     0
  9
$DIMCLRT
 70
     0
  9
$DIMTFAC
 40
1.0
  9
$DIMGAP
 40
0.09
  9
$LUNITS
 70
     2
  9
$LUPREC
 70
     4
  9
$SKETCHINC
 40
0.1
  9
$FILLETRAD
 40
0.0
  9
$AUNITS
 70
     0
  9
$AUPREC
 70
     0
  9
$MENU
  1
.
  9
$ELEVATION
 40
0.0
  9
$PELEVATION
 40
0.0
  9
$THICKNESS
 40
0.0
  9
$LIMCHECK
 70
     0
  9
$BLIPMODE
 70
     0
  9
$CHAMFERA
 40
0.0
  9
$CHAMFERB
 40
0.0
  9
$SKPOLY
 70
     0
  9
$TDCREATE
 40
2458060.468368056230247
  9
$TDUPDATE
 40
2459614.7406365741044283
  9
$TDINDWG
 40
0.433884375
  9
$TDUSRTIMER
 40
0.433884375
  9
$USRTIMER
 70
     1
  9
$ANGBASE
 50
0.0
  9
$ANGDIR
 70
     0
  9
$PDMODE
 70
     0
  9
$PDSIZE
 40
0.3125
  9
$PLINEWID
 40
0.0
  9
$COORDS
 70
     1
  9
$SPLFRAME
 70
     0
  9
$SPLINETYPE
 70
     6
  9
$SPLINESEGS
 70
     8
  9
$ATTDIA
 70
     1
  9
$ATTREQ
 70
     1
  9
$HANDLING
 70
     1
  9
$HANDSEED
  5
2BD12
  9
$SURFTAB1
 70
     6
  9
$SURFTAB2
 70
     6
  9
$SURFTYPE
 70
     6
  9
$SURFU
 70
     6
  9
$SURFV
 70
     6
  9
$UCSNAME
  2

  9
$UCSORG
 10
0.0
 20
0.0
 30
0.0
  9
$UCSXDIR
 10
1.0
 20
0.0
 30
0.0
  9
$UCSYDIR
 10
0.0
 20
1.0
 30
0.0
  9
$PUCSNAME
  2

  9
$PUCSORG
 10
0.0
 20
0.0
 30
0.0
  9
$PUCSXDIR
 10
1.0
 20
0.0
 30
0.0
  9
$PUCSYDIR
 10
0.0
 20
1.0
 30
0.0
  9
$USERI1
 70
     0
  9
$USERI2
 70
     0
  9
$USERI3
 70
     0
  9
$USERI4
 70
     0
  9
$USERI5
 70
     0
  9
$USERR1
 40
0.0
  9
$USERR2
 40
0.0
  9
$USERR3
 40
0.0
  9
$USERR4
 40
0.0
  9
$USERR5
 40
0.0
  9
$WORLDVIEW
 70
     1
  9
$SHADEDGE
 70
     3
  9
$SHADEDIF
 70
    70
  9
$TILEMODE
 70
     1
  9
$MAXACTVP
 70
    64
  9
$PLIMCHECK
 70
     0
  9
$PEXTMIN
 10
1.0000000000000000E+20
 20
1.0000000000000000E+20
 30
1.0000000000000000E+20
  9
$PEXTMAX
 10
-1.0000000000000000E+20
 20
-1.0000000000000000E+20
 30
-1.0000000000000000E+20
  9
$PLIMMIN
 10
0.0
 20
0.0
  9
$PLIMMAX
 10
12.0
 20
9.0
  9
$UNITMODE
 70
     0
  9
$VISRETAIN
 70
     1
  9
$PLINEGEN
 70
     0
  9
$PSLTSCALE
 70
     1
  0
ENDSEC
  0
SECTION
  2
TABLES
  0
TABLE
  2
VPORT
 70
     1
  0
VPORT
  2
*ACTIVE
 70
     0
 10
0.0
 20
0.0
 11
1.0
 21
1.0
 12
-746.1955972556670531
 22
74.3101654505523044
 13
0.0
 23
0.0
 14
1.0
 24
1.0
 15
0.0
 25
0.0
 16
0.0
 26
0.0
 36
17.1152628219792007
 17
3803.5440673828129547
 27
125.9952621967499056
 37
0.0
 40
8.2293972034113096
 41
2.2831541218637992
 42
50.0
 43
0.0
 44
0.0
 50
0.0
 51
0.0
 71
     0
 72
   100
 73
     1
 74
     1
 75
     0
 76
     0
 77
     0
 78
     0
  0
ENDTAB
  0
TABLE
  2
LTYPE
 70
     2
  0
LTYPE
  2
CONTINUOUS
 70
     0
  3
Solid line
 72
    65
 73
     0
 40
0.0
  0
LTYPE
  2
PHANTOM2
 70
     0
  3
___ _ _ ___ _ _ ___ _ _ ___ _ _
 72
    65
 73
     6
 40
1.25
 49
0.625
 49
-0.125
 49
0.125
 49
-0.125
 49
0.125
 49
-0.125
  0
ENDTAB
  0
TABLE
  2
LAYER
 70
     2
  0
LAYER
  2
0
 70
     0
 62
   255
  6
CONTINUOUS
  0
LAYER
  2
DEFPOINTS
 70
     0
 62
     7
  6
CONTINUOUS
  0
ENDTAB
  0
TABLE
  2
STYLE
 70
     1
  0
STYLE
  2
STANDARD
 70
     0
 40
0.0
 41
0.8
 50
0.0
 71
     0
 42
0.2
  3
txt
  4

  0
ENDTAB
  0
TABLE
  2
VIEW
 70
     0
  0
ENDTAB
  0
TABLE
  2
UCS
 70
     0
  0
ENDTAB
  0
TABLE
  2
APPID
 70
     9
  0
APPID
  2
ACAD
 70
     0
  0
APPID
  2
ACAD_MLEADERVER
 70
     0
  0
APPID
  2
ACAD_EXEMPT_FROM_CAD_STANDARDS
 70
     0
  0
APPID
  2
ACAD_NAV_VCDISPLAY
 70
     0
  0
APPID
  2
ACAECLAYERSTANDARD
 70
     0
  0
APPID
  2
ACCMTRANSPARENCY
 70
     0
  0
APPID
  2
ACAD_DSTYLE_DIMJAG
 70
     0
  0
APPID
  2
ACAD_DSTYLE_DIMTALN
 70
     0
  0
APPID
  2
ACDBATTR
 70
     0
  0
ENDTAB
  0
TABLE
  2
DIMSTYLE
 70
     1
  0
DIMSTYLE
  2
STANDARD
 70
     0
  3

  4

  5

  6

  7

 40
1.0
 41
0.1875
 42
0.0625
 43
0.38
 44
0.125
 45
0.0
 46
0.0
 47
0.01
 48
0.01
140
0.15625
141
0.09
142
0.0
143
25.3999999999999986
144
1.0
145
0.0
146
1.0
147
0.09
 71
     1
 72
     0
 73
     1
 74
     1
 75
     0
 76
     0
 77
     0
 78
     4
170
     0
171
     2
172
     0
173
     0
174
     0
175
     0
176
     0
177
     0
178
     0
  0
ENDTAB
  0
ENDSEC
  0
SECTION
  2
BLOCKS
  0
BLOCK
  8
0
  2
$MODEL_SPACE
 70
     0
 10
0.0
 20
0.0
 30
0.0
  3
$MODEL_SPACE
  1

  0
ENDBLK
  5
21
  8
0
  0
BLOCK
 67
     1
  8
0
  2
$PAPER_SPACE
 70
     0
 10
0.0
 20
0.0
 30
0.0
  3
$PAPER_SPACE
  1

  0
ENDBLK
  5
1D
 67
     1
  8
0
  0
BLOCK
  8
0
  2
_FILLED
 70
     0
 10
0.0
 20
0.0
 30
0.0
  3
_FILLED
  1

  0
SOLID
  5
2A3C8
  8
0
  6
BYBLOCK
 62
     0
 10
0.0
 20
0.0
 30
0.0
 11
-1.0
 21
0.1666666667
 31
0.0
 12
-1.0
 22
-0.1666666667
 32
0.0
 13
-1.0
 23
-0.1666666667
 33
0.0
  0
ENDBLK
  5
2A3C9
  8
0
  6
BYBLOCK
 62
     0
  0
ENDSEC
  0
SECTION
  2
ENTITIES
  0
ATTDEF
  5
2B541
  8
DEFPOINTS
 10
3057.3794319088369775
 20
204.3781230466258876
 30
0.0
 40
0.001
  1
TS27372-4G
  3

  2
MODELNUMBER
 70
     0
1001
ACDBATTR
1070
     0
1070
     1
  0
ATTDEF
  5
2B542
  8
DEFPOINTS
 10
3057.3794319088369775
 20
204.376456379959194
 30
0.0
 40
0.001
  1
MEDLEY
  3

  2
TRADENAME
 70
     0
1001
ACDBATTR
1070
     0
1070
     1
  0
ATTDEF
  5
2B543
  8
DEFPOINTS
 10
3057.3794319088369775
 20
204.3747897132925004
 30
0.0
 40
0.001
  1
SHOWER TRIM
  3

  2
PRODUCT
 70
     0
1001
ACDBATTR
1070
     0
1070
     1
  0
LINE
  5
2B9B1
  8
0
 10
3054.3658641085098679
 20
204.3738686200543953
 30
0.0
 11
3057.3785958726548415
 21
204.3738686200543953
 31
0.0
  0
LINE
  5
2B9B2
  8
0
 10
3056.4480462916808392
 20
204.1023768216543886
 30
0.0
 11
3057.3785958726548415
 21
204.1023768216543886
 31
0.0
  0
LINE
  5
2B9B3
  8
0
 10
3056.9512341151389592
 20
203.5228065146544054
 30
0.0
 11
3057.3785958726548415
 21
203.5228065146544054
 31
0.0
  0
LINE
  5
2B9B4
  8
0
 10
3056.9769909650831323
 20
199.9516414829367932
 30
0.0
 11
3056.9770437003398911
 21
200.7741240310544129
 31
0.0
  0
ARC
  5
2B9B5
  8
0
 10
3040.2508729143692108
 20
200.7476346626218913
 30
0.0
 40
16.7261917616688116
 50
0.0907397014946086
 51
1.8945371388524499
  0
ARC
  5
2B9B6
  8
0
 10
3205.3279647761019078
 20
199.4587385814436971
 30
0.0
 40
148.371475840490092
 50
179.0480108338987861
 51
179.2887201998597106
  0
LINE
  5
2B9B7
  8
0
 10
3056.9769688990440955
 20
201.923868470554396
 30
0.0
 11
3056.9769688963601766
 21
203.5228065146544054
 31
0.0
  0
ARC
  5
2B9B8
  8
0
 10
3057.2993584463538355
 20
200.0351795543647029
 30
0.0
 40
0.3583901636717467
 50
220.9582594030125051
 51
244.8843078935371125
  0
ARC
  5
2B9B9
  8
0
 10
3057.1860698897730799
 20
199.9368441208877982
 30
0.0
 40
0.2083763158799766
 50
187.9183412335233072
 51
220.9582594030113114
  0
ARC
  5
2B9BA
  8
0
 10
3057.2622680534368556
 20
199.9474423527871068
 30
0.0
 40
0.2853079911842139
 50
179.1566968696407116
 51
187.9183412335233072
  0
ARC
  5
2B9BB
  8
0
 10
3057.1909638390247892
 20
199.8330197116256954
 30
0.0
 40
0.24465386574433
 50
150.9969963048972943
 51
163.0088603590513969
  0
ARC
  5
2B9BC
  8
0
 10
3057.3224903678387818
 20
199.8177340852448083
 30
0.0
 40
0.375661826237435
 50
166.6438226498933091
 51
175.8692811899740889
  0
ARC
  5
2B9BD
  8
0
 10
3057.3165506253358217
 20
199.854202534764795
 30
0.0
 40
0.3688662432249792
 50
181.4616063296755044
 51
189.6333337046588099
  0
ARC
  5
2B9BE
  8
0
 10
3057.1865526477267849
 20
199.8455470149316966
 30
0.0
 40
0.2396179499278722
 50
192.7961818788189987
 51
216.7575540665079075
  0
ARC
  5
2B9BF
  8
0
 10
3057.2779080881127811
 20
199.9137841205661061
 30
0.0
 40
0.3536447848107531
 50
216.7575540665079075
 51
239.0181501947274114
  0
ARC
  5
2B9C0
  8
0
 10
3057.3545963711871991
 20
200.0415064866965054
 30
0.0
 40
0.5026216137832997
 50
239.0181501947274114
 51
255.8458889688591
  0
ARC
  5
2B9C1
  8
0
 10
3057.3785499293931025
 20
200.1364898512429988
 30
0.0
 40
0.6005788110241909
 50
255.8458889688591
 51
270.0043830301326011
  0
ARC
  5
2B9C2
  8
0
 10
3057.1718895159829117
 20
199.9016531527942107
 30
0.0
 40
0.1923185190239868
 50
178.0677005869987113
 51
200.4981455305949964
  0
ARC
  5
2B9C3
  8
0
 10
3057.2085762667511517
 20
199.9153684134479079
 30
0.0
 40
0.2314851637202522
 50
200.4981455305949964
 51
221.8926819470079863
  0
ARC
  5
2B9C4
  8
0
 10
3057.2829150507841405
 20
199.9820516528299947
 30
0.0
 40
0.3313496179872666
 50
221.8926819470067926
 51
239.1680155926231919
  0
ARC
  5
2B9C5
  8
0
 10
3057.3408026441320544
 20
200.0790358589258915
 30
0.0
 40
0.4442961083962348
 50
239.1680155926231919
 51
244.3235613417479044
  0
LINE
  5
2B9C6
  8
0
 10
3057.1482942478401128
 20
199.6786116472543995
 30
0.0
 11
3057.14724066494
 21
199.7106742539544086
 31
0.0
  0
ARC
  5
2B9C7
  8
0
 10
3057.1882648594569218
 20
199.8879344132892868
 30
0.0
 40
0.2083469088122146
 50
179.4680918689817872
 51
202.5722206412532955
  0
ARC
  5
2B9C8
  8
0
 10
3057.2108579473688224
 20
199.8973261585867931
 30
0.0
 40
0.232814285072948
 50
202.5722206412532955
 51
226.4299502481117941
  0
ARC
  5
2B9C9
  8
0
 10
3057.312252959307898
 20
200.0039129203302934
 30
0.0
 40
0.3799254206987215
 50
226.4299502481117941
 51
244.2959146016883096
  0
ARC
  5
2B9CA
  8
0
 10
3057.3828664885659236
 20
200.1604913554348002
 30
0.0
 40
0.5516531914174591
 50
244.7410377575698988
 51
269.5564410474108854
  0
ARC
  5
2B9CB
  8
0
 10
3057.3848754120990634
 20
200.1393158493538067
 30
0.0
 40
0.5810279388869568
 50
251.7382206737160004
 51
269.3807559190207144
  0
ARC
  5
2B9CC
  8
0
 10
3057.3381922138678419
 20
199.9829733227782071
 30
0.0
 40
0.4179570163451534
 50
232.3480471207751066
 51
251.099477627440109
  0
ARC
  5
2B9CD
  8
0
 10
3057.2644903691639229
 20
199.8874488300569112
 30
0.0
 40
0.2973050763593241
 50
211.318218562822409
 51
232.3480471207957123
  0
ARC
  5
2B9CE
  8
0
 10
3057.1654832784820428
 20
199.8272084473489087
 30
0.0
 40
0.181411557497458
 50
188.9860639587508047
 51
211.318218562822409
  0
ARC
  5
2B9CF
  8
0
 10
3057.4270142723289609
 20
199.8685656820645988
 30
0.0
 40
0.4461923755450421
 50
180.002332765142512
 51
188.9860639587508047
  0
ARC
  5
2B9D0
  8
0
 10
3057.1718398592811354
 20
199.8522662841263013
 30
0.0
 40
0.189546795810853
 50
178.7847964397643921
 51
194.270206466058994
  0
ARC
  5
2B9D1
  8
0
 10
3057.1903698565702143
 20
199.8569792610147999
 30
0.0
 40
0.2086667579097262
 50
194.270206466058994
 51
212.3396442438354939
  0
ARC
  5
2B9D2
  8
0
 10
3057.2510433462730361
 20
199.895394233660312
 30
0.0
 40
0.2804788911195412
 50
212.3396442438341865
 51
237.4410823515505058
  0
ARC
  5
2B9D3
  8
0
 10
3057.3513781601650408
 20
200.0525315305650906
 30
0.0
 40
0.4669170979263862
 50
237.4410823515505058
 51
256.1716739967715739
  0
ARC
  5
2B9D4
  8
0
 10
3057.3896339875132071
 20
200.2668829316444885
 30
0.0
 40
0.68434442891361
 50
257.3510760056681193
 51
269.0758092063909999
  0
ARC
  5
2B9D5
  8
0
 10
3057.2713706076610833
 20
199.8140068824999105
 30
0.0
 40
0.3035966013770222
 50
163.9557270879423925
 51
177.8089523971239885
  0
ARC
  5
2B9D6
  8
0
 10
3057.172864742443835
 20
199.8238101197487993
 30
0.0
 40
0.2048895735626313
 50
179.1571130051640921
 51
179.1836558683816918
  0
ARC
  5
2B9D7
  8
0
 10
3057.2466209302260722
 20
199.8375818943071067
 30
0.0
 40
0.2788818824437141
 50
182.459560404645714
 51
198.7443419779650071
  0
ARC
  5
2B9D8
  8
0
 10
3057.2252825976761414
 20
199.8475973786239024
 30
0.0
 40
0.2624030547942453
 50
202.3147728474662017
 51
218.0085602470491892
  0
ARC
  5
2B9D9
  8
0
 10
3057.2720565493441427
 20
199.8841524499808031
 30
0.0
 40
0.3217669815218624
 50
218.0085602470491892
 51
241.4925555896348897
  0
ARC
  5
2B9DA
  8
0
 10
3057.3842947213947809
 20
200.0908054123989075
 30
0.0
 40
0.5569325702916464
 50
241.4925555896348897
 51
257.8543738567882997
  0
ARC
  5
2B9DB
  8
0
 10
3057.1755793214078949
 20
199.8029885246243111
 30
0.0
 40
0.1905578362102936
 50
178.7111460546960018
 51
202.106354613114803
  0
ARC
  5
2B9DC
  8
0
 10
3057.2131387145500412
 20
199.8182446653840998
 30
0.0
 40
0.2310974198801259
 50
202.106354613114803
 51
219.4766254372511014
  0
ARC
  5
2B9DD
  8
0
 10
3057.4047583611159098
 20
199.9760724612366971
 30
0.0
 40
0.4793466939850683
 50
219.4766254372511014
 51
224.9428422382800932
  0
ARC
  5
2B9DE
  8
0
 10
3057.1736078273938801
 20
199.7754452822726989
 30
0.0
 40
0.2052978952947784
 50
159.488731150771514
 51
172.5858344268511075
  0
LINE
  5
2B9DF
  8
0
 10
3056.3270935176187777
 20
204.1853355594543871
 30
0.0
 11
3057.3785958726548415
 21
204.1853355594543871
 31
0.0
  0
LINE
  5
2B9E0
  8
0
 10
3057.3785958726548415
 20
203.5228065146544054
 30
0.0
 11
3057.3785437013539195
 21
203.5228065146544054
 31
0.0
  0
LINE
  5
2B9E1
  8
0
 10
3054.3658641104398157
 20
204.3738686200543953
 30
0.0
 11
3054.3776241463101542
 21
204.0145719270902873
 31
0.0
  0
ARC
  5
2B9E2
  8
0
 10
3054.437592033042165
 20
204.0165347182511937
 30
0.0
 40
0.0599999999018633
 50
181.874661959957308
 51
232.1932527928935883
  0
LINE
  5
2B9E3
  8
0
 10
3054.4008120271719235
 20
203.9691297485069867
 30
0.0
 11
3054.486775973623935
 21
203.9024330609626077
 31
0.0
  0
ARC
  5
2B9E4
  8
0
 10
3054.5235559799489238
 20
203.9498380312942061
 30
0.0
 40
0.0600000006452331
 50
232.1932527928935883
 51
269.2224945340090017
  0
ARC
  5
2B9E5
  8
0
 10
3054.4854754296770807
 20
196.718692105722198
 30
0.0
 40
7.171248279108779
 50
85.3705370821029135
 51
89.702252645907933
  0
ARC
  5
2B9E6
  8
0
 10
3054.9072616831208506
 20
201.6230078441971898
 30
0.0
 40
2.2490241211616162
 50
74.5586247703810727
 51
85.9966332439957313
  0
ARC
  5
2B9E7
  8
0
 10
3055.2729998551671997
 20
202.9808859556565892
 30
0.0
 40
0.8428302727474992
 50
34.0496429362299224
 51
73.9466657599489849
  0
ARC
  5
2B9E8
  8
0
 10
3054.8217689289608643
 20
202.6759576864729127
 30
0.0
 40
1.3874315930836081
 50
31.5719191602716194
 51
34.0496429362299224
  0
ARC
  5
2B9E9
  8
0
 10
3056.0527640272907774
 20
203.4324395197972137
 30
0.0
 40
0.0574260802745598
 50
211.571919160271591
 51
265.3361603228150898
  0
ARC
  5
2B9EA
  8
0
 10
3055.8793220463771831
 20
201.3063939543453102
 30
0.0
 40
2.075682418400759
 50
83.6267071384667275
 51
85.3361603228150898
  0
LINE
  5
2B9EB
  8
0
 10
3056.1097346211399781
 20
203.3692481778543879
 30
0.0
 11
3056.9769688972401127
 21
203.3692481778543879
 31
0.0
  0
LINE
  5
2B9EC
  8
0
 10
3056.1310258262387833
 20
203.3692481778543879
 30
0.0
 11
3056.1308056139400833
 21
203.3458976090543899
 31
0.0
  0
LINE
  5
2B9ED
  8
0
 10
3056.1308056139400833
 20
203.3458976090543899
 30
0.0
 11
3056.1308056139400833
 21
203.1713985511543967
 31
0.0
  0
ARC
  5
2B9EE
  8
0
 10
3056.1908056131319427
 20
203.1713985511543967
 30
0.0
 40
0.0599999991923772
 50
180.0
 51
204.3464196666990063
  0
ARC
  5
2B9EF
  8
0
 10
3049.8011760663662244
 20
200.3945885763386912
 30
0.0
 40
6.9069314516568667
 50
16.9222487603465801
 51
23.4813883768498393
  0
ARC
  5
2B9F0
  8
0
 10
3376.9653709995091049
 20
294.6696016840475068
 30
0.0
 40
333.5702538218299082
 50
196.0572174705019961
 51
196.1931014017058033
  0
ARC
  5
2B9F1
  8
0
 10
3056.6576550623531148
 20
201.6534276183230929
 30
0.0
 40
0.0300890339847392
 50
196.1931014017073096
 51
269.8597109387421256
  0
LINE
  5
2B9F2
  8
0
 10
3056.6575813892459337
 20
201.6233386745329028
 30
0.0
 11
3056.9722803462350385
 21
201.6233956977027901
 31
0.0
  0
ARC
  5
2B9F3
  8
0
 10
3042.1970806315098343
 20
200.8435655134721003
 30
0.0
 40
14.3347948440066499
 50
3.2679475747339031
 51
5.4415232576159713
  0
ARC
  5
2B9F4
  8
0
 10
3038.4928795900641489
 20
200.6320616532003953
 30
0.0
 40
18.0450292353025006
 50
0.6765666295074199
 51
3.2679475747339031
  0
ARC
  5
2B9F5
  8
0
 10
3050.6138513021760446
 20
200.634377765333511
 30
0.0
 40
5.9265481942308798
 50
353.7511579842110905
 51
2.0379863228579129
  0
ARC
  5
2B9F6
  8
0
 10
3057.3963401101700583
 20
198.1115823324495011
 30
0.0
 40
1.8905303620700591
 50
246.855521894660086
 51
269.4622224173647851
  0
ARC
  5
2B9F7
  8
0
 10
3057.1521788259619825
 20
197.5272744992892058
 30
0.0
 40
1.257292288321775
 50
218.9264334728740096
 51
246.6207206567875119
  0
ARC
  5
2B9F8
  8
0
 10
3056.7826006178011085
 20
197.2287808553342074
 30
0.0
 40
0.78222754807138
 50
193.4036701520668942
 51
218.9264334728740096
  0
ARC
  5
2B9F9
  8
0
 10
3057.3722810654398927
 20
197.3070853685987913
 30
0.0
 40
1.3753298050271541
 50
181.6086268396470018
 51
190.8815138895587893
  0
ARC
  5
2B9FA
  8
0
 10
3074.1305146118379525
 20
197.1312319272113882
 30
0.0
 40
18.1335407150519998
 50
178.1581687600713906
 51
179.5663487120530135
  0
ARC
  5
2B9FB
  8
0
 10
3058.9582596139312045
 20
197.6063030848395954
 30
0.0
 40
2.9538830867135819
 50
173.2477363041192859
 51
177.9095423605828898
  0
ARC
  5
2B9FC
  8
0
 10
3057.41576714415487
 20
197.7243939407788105
 30
0.0
 40
1.4096625503036151
 50
150.7817757267945922
 51
170.6419258313291039
  0
ARC
  5
2B9FD
  8
0
 10
3057.404398329184005
 20
197.7310436625697889
 30
0.0
 40
1.396494271343655
 50
129.6760175228442051
 51
150.7922016028680048
  0
ARC
  5
2B9FE
  8
0
 10
3057.3983349935929255
 20
197.7368627053184014
 30
0.0
 40
1.3881447625586281
 50
121.8792677170931995
 51
129.6367399282835891
  0
ARC
  5
2B9FF
  8
0
 10
3061.298128265941159
 20
196.6562871536883108
 30
0.0
 40
5.8379111261982137
 50
145.1852998925982945
 51
145.7838263561764904
  0
ARC
  5
2BA00
  8
0
 10
3057.2092357669957892
 20
199.4367832618927139
 30
0.0
 40
0.89319672841292
 50
145.7838263561764904
 51
160.8852148701660099
  0
ARC
  5
2BA01
  8
0
 10
3057.6765088110810211
 20
199.4124280628751933
 30
0.0
 40
1.373936805393051
 50
183.1253024514701053
 51
202.9699134954379929
  0
ARC
  5
2BA02
  8
0
 10
3058.1189997504320672
 20
199.7901409556216947
 30
0.0
 40
1.9366745125230209
 50
208.1567569618538869
 51
211.7552199035476974
  0
LINE
  5
2BA03
  8
0
 10
3056.3046155196839209
 20
204.3738686200543953
 30
0.0
 11
3056.3046155196839209
 21
204.2320757453543933
 31
0.0
  0
ARC
  5
2BA04
  8
0
 10
3056.3651244999900882
 20
204.2324002638414981
 30
0.0
 40
0.0605098505200925
 50
180.307282676463501
 51
231.0597993692690011
  0
LINE
  5
2BA05
  8
0
 10
3056.3270935177138199
 20
204.1853355594751918
 30
0.0
 11
3056.4138050958881649
 21
204.1155413563174932
 31
0.0
  0
ARC
  5
2BA06
  8
0
 10
3056.4514263001879044
 20
204.1622815417491097
 30
0.0
 40
0.0599999995594031
 50
231.169390242106914
 51
266.7706200171070918
  0
ARC
  5
2BA07
  8
0
 10
3056.9512672771170401
 20
203.5330479387640992
 30
0.0
 40
0.0102414777992121
 50
248.2729754371345052
 51
269.8144755409741151
  0
ARC
  5
2BA08
  8
0
 10
3056.9705137964087953
 20
203.5813459828854945
 30
0.0
 40
0.0622331076141402
 50
184.5672870115238027
 51
248.2729754371351021
  0
ARC
  5
2BA09
  8
0
 10
3056.1538557754320209
 20
203.559766499278112
 30
0.0
 40
0.7548056189356011
 50
1.261986917391444
 51
25.9317841417187083
  0
ARC
  5
2BA0A
  8
0
 10
3056.5043209174759795
 20
203.718281706574686
 30
0.0
 40
0.3704627832281775
 50
27.587419550652811
 51
53.1094843142810618
  0
ARC
  5
2BA0B
  8
0
 10
3056.4717029763719438
 20
203.6616496255848006
 30
0.0
 40
0.4354081949898584
 50
54.1501945330976682
 51
80.6935320124424464
  0
ARC
  5
2BA0C
  8
0
 10
3056.4119645420728375
 20
203.3892875100816866
 30
0.0
 40
0.7140015818827476
 50
79.4972158075893418
 51
87.1033497154069352
  0
LINE
  5
2BA0D
  8
0
 10
3056.1308056139400833
 20
203.1713985511543967
 30
0.0
 11
3056.9769688972401127
 21
203.1713985511543967
 31
0.0
  0
ARC
  5
2BA0E
  8
0
 10
3057.3970125077798912
 20
199.2920812049310086
 30
0.0
 40
1.0977191246268361
 50
257.2210267024566974
 51
269.0386930957097888
  0
ARC
  5
2BA0F
  8
0
 10
3057.1028826959418438
 20
198.0010858066297033
 30
0.0
 40
0.2263615049532998
 50
76.8949297147948272
 51
85.8806445219405958
  0
ARC
  5
2BA10
  8
0
 10
3057.1340943046038774
 20
198.4344572691913982
 30
0.0
 40
0.2081324410092323
 50
252.3499890365694114
 51
265.88064452194061
  0
ARC
  5
2BA11
  8
0
 10
3057.0525844451749435
 20
198.1782816726650083
 30
0.0
 40
0.0606979766145092
 50
72.3499890365694256
 51
97.2217826246336756
  0
ARC
  5
2BA12
  8
0
 10
3057.0421397139621149
 20
198.2607082064183999
 30
0.0
 40
0.0223876772415483
 50
213.3971810635376016
 51
277.2217826246338745
  0
ARC
  5
2BA13
  8
0
 10
3056.9997851434250151
 20
198.2327835025544118
 30
0.0
 40
0.0283439571821606
 50
33.3971810635389375
 51
72.5036044936197328
  0
ARC
  5
2BA14
  8
0
 10
3057.0484924320680875
 20
198.3872971797256923
 30
0.0
 40
0.1336649203522398
 50
240.7032357876236972
 51
252.5036044936196902
  0
ARC
  5
2BA15
  8
0
 10
3056.959741460792884
 20
198.2197648254303033
 30
0.0
 40
0.0560557162931061
 50
65.3894662443256323
 51
91.869272475972835
  0
ARC
  5
2BA16
  8
0
 10
3056.9573694922419236
 20
198.2983591375237893
 30
0.0
 40
0.0225749685489424
 50
199.0767845602588864
 51
271.3794914259966049
  0
ARC
  5
2BA17
  8
0
 10
3056.9119502607281902
 20
198.2749103496614111
 30
0.0
 40
0.0289534504064698
 50
33.7138864376005785
 51
62.5750078909565701
  0
ARC
  5
2BA18
  8
0
 10
3057.2835191787280564
 20
198.929715939835404
 30
0.0
 40
0.7239513724779599
 50
238.2476977947657133
 51
240.3414155446324116
  0
ARC
  5
2BA19
  8
0
 10
3056.8754718101490653
 20
198.2674948461877023
 30
0.0
 40
0.0539113083603362
 50
59.8603866756422178
 51
86.1776092740997939
  0
ARC
  5
2BA1A
  8
0
 10
3056.8804695553621968
 20
198.3429868874949022
 30
0.0
 40
0.0217460177544734
 50
191.7241692857062958
 51
266.298705469417996
  0
ARC
  5
2BA1B
  8
0
 10
3056.8393251266948027
 20
198.3321142720936052
 30
0.0
 40
0.0208748029107841
 50
18.0090859095577613
 51
55.9205095293890793
  0
ARC
  5
2BA1C
  8
0
 10
3056.9245176718977746
 20
198.4461173427584129
 30
0.0
 40
0.121470362562136
 50
211.2387145364949959
 51
232.7676417733858898
  0
ARC
  5
2BA1D
  8
0
 10
3057.1826121675708237
 20
198.7753714581365898
 30
0.0
 40
0.5337318596166362
 50
201.9400427925382076
 51
227.3003010628902132
  0
ARC
  5
2BA1E
  8
0
 10
3057.0404461967491443
 20
198.707679127855414
 30
0.0
 40
0.3766940821949919
 50
179.5018784625542878
 51
200.4688465787980931
  0
ARC
  5
2BA1F
  8
0
 10
3056.5873163922351523
 20
198.7110643875525113
 30
0.0
 40
0.0764500377819943
 50
359.9172789976948934
 51
17.3036324597312294
  0
ARC
  5
2BA20
  8
0
 10
3056.7428074673048286
 20
198.7587582866921991
 30
0.0
 40
0.0861926183373133
 50
175.9711503603716949
 51
196.8295438444457943
  0
ARC
  5
2BA21
  8
0
 10
3056.8335220786721038
 20
198.7501484970734111
 30
0.0
 40
0.1773018054438349
 50
171.9237867100393942
 51
175.2553402245602001
  0
ARC
  5
2BA22
  8
0
 10
3056.6433213706568495
 20
198.7736271003678041
 30
0.0
 40
0.014727016001402
 50
5.5744298295775661
 51
39.5435825004561323
  0
ARC
  5
2BA23
  8
0
 10
3056.6712391352930354
 20
198.794810904986889
 30
0.0
 40
0.0203394277935363
 50
172.4764368239079033
 51
215.4877638652810958
  0
LINE
  5
2BA24
  8
0
 10
3056.6510748076398158
 20
198.7974740259543864
 30
0.0
 11
3056.7098255605401391
 21
199.2884555632543879
 31
0.0
  0
ARC
  5
2BA25
  8
0
 10
3056.7312246236410829
 20
199.2857196658933958
 30
0.0
 40
0.0215729448006559
 50
120.3561702927879935
 51
172.7141903895143003
  0
ARC
  5
2BA26
  8
0
 10
3056.7097319173049073
 20
199.322417387134891
 30
0.0
 40
0.0209553889308678
 50
300.3561702928137152
 51
344.9863020634322766
  0
ARC
  5
2BA27
  8
0
 10
3057.1443690757619152
 20
199.1776554222199138
 30
0.0
 40
0.4371942091650033
 50
159.4633608996398948
 51
161.4157199612631075
  0
ARC
  5
2BA28
  8
0
 10
3056.7165405609471236
 20
199.3354509375996031
 30
0.0
 40
0.0189429410095122
 50
346.4909890882012178
 51
28.4904483198542202
  0
ARC
  5
2BA29
  8
0
 10
3056.7465359563939273
 20
199.3504256893832007
 30
0.0
 40
0.0146081441329773
 50
152.5241723821123969
 51
203.9874185385079954
  0
ARC
  5
2BA2A
  8
0
 10
3056.7527023774041481
 20
199.3491024989016864
 30
0.0
 40
0.0207568901945541
 50
114.8333869212049052
 51
157.1419131864822134
  0
ARC
  5
2BA2B
  8
0
 10
3056.7319755392340994
 20
199.3954512258665943
 30
0.0
 40
0.0300181359214962
 50
293.5825199487164241
 51
329.4605069504361836
  0
ARC
  5
2BA2C
  8
0
 10
3056.9543887762988561
 20
199.2776478332316969
 30
0.0
 40
0.2217026889961525
 50
149.1343376179547988
 51
152.4477465803263101
  0
ARC
  5
2BA2D
  8
0
 10
3055.6974594372368301
 20
199.5206251622929869
 30
0.0
 40
1.074426879743051
 50
353.0914250967264252
 51
354.1566450662390935
  0
ARC
  5
2BA2E
  8
0
 10
3056.7871458482609341
 20
199.4091057305371919
 30
0.0
 40
0.0209511636877736
 50
106.1549751738276939
 51
174.1566450662423904
  0
ARC
  5
2BA2F
  8
0
 10
3056.7724338858488409
 20
199.4598935719351118
 30
0.0
 40
0.0319246027074592
 50
286.1549751738277223
 51
320.8110510233173045
  0
ARC
  5
2BA30
  8
0
 10
3056.9221508193218142
 20
199.3378354979757034
 30
0.0
 40
0.1612419927154945
 50
122.0607580321454009
 51
140.8110510233173898
  0
ARC
  5
2BA31
  8
0
 10
3056.749528458019995
 20
199.6134382608152009
 30
0.0
 40
0.1639585031425812
 50
302.0607580321453725
 51
312.0013148366422797
  0
ARC
  5
2BA32
  8
0
 10
3057.2130918668990489
 20
199.1130575679839865
 30
0.0
 40
0.518171539674728
 50
128.8129133072741865
 51
133.0694079638255971
  0
ARC
  5
2BA33
  8
0
 10
3057.2497437652918961
 20
199.7676596655990977
 30
0.0
 40
0.3839422145332185
 50
135.2563423161765002
 51
140.2346564124401027
  0
ARC
  5
2BA34
  8
0
 10
3057.1989943547300754
 20
199.8098905011310933
 30
0.0
 40
0.3179198990475937
 50
140.2346564124401027
 51
155.8690418137952065
  0
ARC
  5
2BA35
  8
0
 10
3057.1190056187301707
 20
199.845723072231408
 30
0.0
 40
0.2302719039846476
 50
155.8690418137937002
 51
163.851717785053097
  0
ARC
  5
2BA36
  8
0
 10
3057.2016867632760295
 20
199.8217828891320096
 30
0.0
 40
0.3163492182446429
 50
163.851717785053097
 51
172.1344182248404877
  0
ARC
  5
2BA37
  8
0
 10
7366.6376089811428756
 20
199.8351754081903948
 30
0.0
 40
4309.7492952786224123
 50
179.9996024994811989
 51
180.0003975005170958
  0
ARC
  5
2BA38
  8
0
 10
74326.7673788915271871
 20
199.3625702928505916
 30
0.0
 40
71269.8790664602565812
 50
179.9996440971792993
 51
179.9998759984092089
  0
ARC
  5
2BA39
  8
0
 10
3051.7720465808852168
 20
199.5168262055983064
 30
0.0
 40
5.1162660173067049
 50
358.4405711393117144
 51
359.9998759984092089
  0
ARC
  5
2BA3A
  8
0
 10
3057.1418642180728966
 20
199.370638877412091
 30
0.0
 40
0.2555411452392962
 50
178.4405711393116007
 51
192.9044835372866942
  0
ARC
  5
2BA3B
  8
0
 10
3057.2158624653498009
 20
199.3875928328747023
 30
0.0
 40
0.3314567378784968
 50
192.9044835372866942
 51
206.8109758311144049
  0
ARC
  5
2BA3C
  8
0
 10
3057.1764533412238052
 20
199.3676763752091006
 30
0.0
 40
0.2873008283053391
 50
206.8109758311144049
 51
225.4089458804457138
  0
ARC
  5
2BA3D
  8
0
 10
3057.3318028429930564
 20
199.5252594562190893
 30
0.0
 40
0.5085832160372985
 50
225.4089458804457138
 51
243.7639471413617969
  0
ARC
  5
2BA3E
  8
0
 10
3057.3634100589679292
 20
199.6094091414053935
 30
0.0
 40
0.5981019108519297
 50
244.6116797689165878
 51
259.8533763366987728
  0
ARC
  5
2BA3F
  8
0
 10
3057.3929811453681396
 20
199.8447749413876124
 30
0.0
 40
0.8350875027902404
 50
260.701108964246373
 51
269.0129702828695031
  0
ARC
  5
2BA40
  8
0
 10
3057.1308816632658818
 20
199.2183001625770089
 30
0.0
 40
0.266135935628344
 50
155.088254104701889
 51
179.7973023547309879
  0
ARC
  5
2BA41
  8
0
 10
3057.3784855499898185
 20
199.5596779137578096
 30
0.0
 40
0.7037429189243775
 50
249.3755633886732994
 51
270.0089820059329213
  0
ARC
  5
2BA42
  8
0
 10
3057.3074985503621974
 20
199.3710643544224013
 30
0.0
 40
0.5022131968448394
 50
226.3885681845735007
 51
249.3755633886732994
  0
ARC
  5
2BA43
  8
0
 10
3057.183289934072036
 20
199.2406845576271905
 30
0.0
 40
0.3221391238281721
 50
196.2425026242788135
 51
226.3885681845735007
  0
ARC
  5
2BA44
  8
0
 10
3057.0973848470230223
 20
199.2156577036950011
 30
0.0
 40
0.2326627168888693
 50
179.1173714797741923
 51
196.2425026242788135
  0
ARC
  5
2BA45
  8
0
 10
3056.7233158001918127
 20
199.2876235395742128
 30
0.0
 40
0.0136299963512527
 50
181.2907342801503034
 51
215.7527205736913061
  0
ARC
  5
2BA46
  8
0
 10
3056.6962155597479978
 20
199.2667928376204998
 30
0.0
 40
0.020562132014788
 50
352.3849338295906932
 51
38.7376203109903301
  0
ARC
  5
2BA47
  8
0
 10
3056.7964421651031444
 20
199.2471967367914942
 30
0.0
 40
0.0816087867830125
 50
168.0690060616479116
 51
198.8935692651078
  0
ARC
  5
2BA48
  8
0
 10
3056.6438173508331602
 20
199.1945797942559011
 30
0.0
 40
0.0798316336676657
 50
1.777785439887561
 51
19.1522339766161096
  0
ARC
  5
2BA49
  8
0
 10
3057.1045490192609577
 20
199.2175994588573928
 30
0.0
 40
0.3814919748007448
 50
183.0868237070856992
 51
226.2714710699671059
  0
ARC
  5
2BA4A
  8
0
 10
3056.7642561421412211
 20
198.8663687487648133
 30
0.0
 40
0.1075854561452908
 50
30.3148002956420513
 51
44.6107411209307685
  0
ARC
  5
2BA4B
  8
0
 10
3056.9557748182751311
 20
198.980256019965509
 30
0.0
 40
0.1152423753671847
 50
211.1330531496074059
 51
233.0125382990059109
  0
ARC
  5
2BA4C
  8
0
 10
3057.2565820422450997
 20
199.3670862146065872
 30
0.0
 40
0.6052543687313969
 50
232.2985329726948862
 51
232.7792033858679019
  0
ARC
  5
2BA4D
  8
0
 10
3056.877002928049933
 20
198.8652711453260906
 30
0.0
 40
0.0239832600454339
 50
11.2182119744980504
 51
55.8366692061785699
  0
ARC
  5
2BA4E
  8
0
 10
3056.9148129368390983
 20
198.8738301788845888
 30
0.0
 40
0.0148060040778567
 50
195.2449521962880965
 51
238.2924690748585874
  0
ARC
  5
2BA4F
  8
0
 10
3056.9228168324411854
 20
198.8855131783498109
 30
0.0
 40
0.0289596631773881
 50
236.9690350737251094
 51
264.1918821321822861
  0
ARC
  5
2BA50
  8
0
 10
3056.9177150298492052
 20
198.8099024555243943
 30
0.0
 40
0.0468500635092999
 50
59.5966634702833673
 51
87.343800496580144
  0
ARC
  5
2BA51
  8
0
 10
3057.3376637379660679
 20
199.4996877268644084
 30
0.0
 40
0.7607211243871939
 50
238.6092111398783118
 51
240.1291042982745978
  0
ARC
  5
2BA52
  8
0
 10
3056.9444453117471312
 20
198.8143892912937929
 30
0.0
 40
0.0293785695909882
 50
23.546216165931579
 51
60.7761165190161989
  0
ARC
  5
2BA53
  8
0
 10
3056.9869450953660817
 20
198.8340087711073068
 30
0.0
 40
0.0174494864758383
 50
206.857007149347595
 51
245.013845531221591
  0
ARC
  5
2BA54
  8
0
 10
3056.9933036547658958
 20
198.845929742983202
 30
0.0
 40
0.0309491884599935
 50
243.6658898417616967
 51
269.7110630659456092
  0
ARC
  5
2BA55
  8
0
 10
3056.9954695907958921
 20
198.7646312683370127
 30
0.0
 40
0.0504031940823346
 50
66.231472043363155
 51
92.6404759820328962
  0
ARC
  5
2BA56
  8
0
 10
3057.1214030974701927
 20
199.0243040286939049
 30
0.0
 40
0.2382366189946209
 50
243.6830744939773012
 51
248.734020501156607
  0
ARC
  5
2BA57
  8
0
 10
3057.0236421010281447
 20
198.7731194522328906
 30
0.0
 40
0.0313016971628909
 50
32.1293283819655571
 51
68.7340205011565644
  0
ARC
  5
2BA58
  8
0
 10
3057.0664239881471076
 20
198.801969479623807
 30
0.0
 40
0.0203409084664152
 50
216.8636797776414937
 51
251.24361878581459
  0
ARC
  5
2BA59
  8
0
 10
3057.0710976851401028
 20
198.8134556446082115
 30
0.0
 40
0.0327280874744201
 50
249.9617146225571958
 51
274.9417045432192026
  0
ARC
  5
2BA5A
  8
0
 10
3057.0813394823580893
 20
198.7290522425653876
 30
0.0
 40
0.052326092961093
 50
72.3536826841198035
 51
98.1549938329638962
  0
ARC
  5
2BA5B
  8
0
 10
3057.5083422516718201
 20
200.4821399980307888
 30
0.0
 40
1.748439651841533
 50
259.4713547851334852
 51
265.7443429218662914
  0
ARC
  5
2BA5C
  8
0
 10
3057.1456773344789326
 20
198.5591510245972984
 30
0.0
 40
0.208506232876368
 50
78.0486656738881237
 51
87.3221511418867777
  0
ARC
  5
2BA5D
  8
0
 10
3057.1648149522920903
 20
198.9683250596170012
 30
0.0
 40
0.2011151036648081
 50
250.354951371177691
 51
267.3221511418867067
  0
ARC
  5
2BA5E
  8
0
 10
3057.1549126108411656
 20
199.1996051319212029
 30
0.0
 40
0.2310869093747707
 50
173.0101612602207979
 51
202.5188111233036921
  0
ARC
  5
2BA5F
  8
0
 10
3057.208717221004008
 20
199.2219124297213
 30
0.0
 40
0.2893325238867266
 50
202.5188111233036921
 51
224.5914592775307881
  0
ARC
  5
2BA60
  8
0
 10
3057.298237581775993
 20
199.3101651790512108
 30
0.0
 40
0.4150402911769878
 50
224.5914592775295944
 51
243.1871772689430884
  0
ARC
  5
2BA61
  8
0
 10
3057.3624176314451688
 20
199.4371494586123958
 30
0.0
 40
0.5573220047989357
 50
243.1871772689430884
 51
259.7804390256940792
  0
ARC
  5
2BA62
  8
0
 10
3057.3804749836808696
 20
199.5373117860546017
 30
0.0
 40
0.6590990150144833
 50
259.7804390256940792
 51
269.8366477957264919
  0
ARC
  5
2BA63
  8
0
 10
3057.2755844146558957
 20
199.2611392406060133
 30
0.0
 40
0.283500600257963
 50
211.4680486620817987
 51
237.8134866749809078
  0
ARC
  5
2BA64
  8
0
 10
3057.3647696940151945
 20
199.4028370187891142
 30
0.0
 40
0.4509290159955797
 50
237.8134866749809078
 51
253.2397304271696044
  0
ARC
  5
2BA65
  8
0
 10
3057.3964479106330145
 20
199.53198284178481
 30
0.0
 40
0.5837645512800157
 50
253.9178555221201918
 51
268.2475710064176724
  0
ARC
  5
2BA66
  8
0
 10
3056.9014633812948887
 20
199.8661621178777068
 30
0.0
 40
0.0131944259228679
 50
184.7255391400508984
 51
236.7758395336711885
  0
ARC
  5
2BA67
  8
0
 10
3056.8848537777839738
 20
199.836151636456691
 30
0.0
 40
0.0211650327381065
 50
299.4527976469856867
 51
63.6922998890247811
  0
ARC
  5
2BA68
  8
0
 10
3056.9049045554320401
 20
199.8036138047974077
 30
0.0
 40
0.0170892528501679
 50
124.3550404466966057
 51
143.915482264114388
  0
ARC
  5
2BA69
  8
0
 10
3056.9032591206528195
 20
199.8048681809559071
 30
0.0
 40
0.0150207625148015
 50
144.0855989646460102
 51
174.2626628523827037
  0
ARC
  5
2BA6A
  8
0
 10
3057.1529066047878587
 20
199.8393302788309995
 30
0.0
 40
0.2669374082785886
 50
187.5991837186759028
 51
207.936425969701105
  0
ARC
  5
2BA6B
  8
0
 10
3057.2135748535738458
 20
199.8715018624988886
 30
0.0
 40
0.3356079784412751
 50
207.936425969701105
 51
231.8786882101613003
  0
ARC
  5
2BA6C
  8
0
 10
3057.3453832464761035
 20
200.039474626832714
 30
0.0
 40
0.5491221512666896
 50
231.8786882101613003
 51
242.9104861736371959
  0
ARC
  5
2BA6D
  8
0
 10
3057.1063921553941327
 20
199.5722342368410978
 30
0.0
 40
0.0243075900584565
 50
242.9104861736371959
 51
283.2324686475711246
  0
ARC
  5
2BA6E
  8
0
 10
3057.122374039002807
 20
199.5042683955036011
 30
0.0
 40
0.0455120074225118
 50
32.3522228704371315
 51
103.2324686475710962
  0
ARC
  5
2BA6F
  8
0
 10
3057.1809667538568647
 20
199.5413839632819872
 30
0.0
 40
0.0238469978004369
 50
212.3522228704356962
 51
246.9075796030755043
  0
ARC
  5
2BA70
  8
0
 10
3057.3767369396041431
 20
200.1554419433350915
 30
0.0
 40
0.6682545982452709
 50
252.1242468992948886
 51
270.1593840967498181
  0
LINE
  5
2BA71
  8
0
 10
3057.1119562246399255
 20
199.5485720292543874
 30
0.0
 11
3057.1119562382400545
 21
199.1435167656543967
 31
0.0
  0
ARC
  5
2BA72
  8
0
 10
3057.1154766732570351
 20
199.1435167657726026
 30
0.0
 40
0.0035204350171707
 50
180.000001923630407
 51
225.1870133231315947
  0
ARC
  5
2BA73
  8
0
 10
3057.1254793369298568
 20
199.1535849408602985
 30
0.0
 40
0.0177127368089189
 50
225.1870133231327884
 51
244.1148126055207115
  0
ARC
  5
2BA74
  8
0
 10
3057.2525870673130157
 20
199.5014156392481084
 30
0.0
 40
0.3879535021120605
 50
249.6613108725182997
 51
252.5393499184021096
  0
ARC
  5
2BA75
  8
0
 10
3057.0924268557891992
 20
199.0177924621831949
 30
0.0
 40
0.1216839867353377
 50
60.1933031117361992
 51
68.9259222330099277
  0
ARC
  5
2BA76
  8
0
 10
3057.162965127993175
 20
199.1418296614357928
 30
0.0
 40
0.0210116461955331
 50
241.4184663360013872
 51
254.3595736696817085
  0
ARC
  5
2BA77
  8
0
 10
3057.158603383586069
 20
199.1267427784553092
 30
0.0
 40
0.0053091299324699
 50
255.7931799028469015
 51
276.1409875374828857
  0
ARC
  5
2BA78
  8
0
 10
3057.1589805928811074
 20
199.1232368800847041
 30
0.0
 40
0.0017829974566186
 50
276.1409875374566809
 51
332.6412631845303167
  0
ARC
  5
2BA79
  8
0
 10
3057.158508569685182
 20
199.1234811225519081
 30
0.0
 40
0.0023144673807928
 50
332.6412631845287819
 51
2.1421487152313929
  0
LINE
  5
2BA7A
  8
0
 10
3057.1608214196389781
 20
199.1235676346543926
 30
0.0
 11
3057.1608214196389781
 21
199.5286228969544027
 31
0.0
  0
LINE
  5
2BA7B
  8
0
 10
3056.7236105545439386
 20
199.1970565625717029
 30
0.0
 11
3056.6638382248747803
 21
198.7133811972699107
 31
0.0
  0
LINE
  5
2BA7C
  8
0
 10
3056.6600741826891863
 20
198.7345845184185862
 30
0.0
 11
3056.7192516567311031
 21
199.2209885119422097
 31
0.0
  0
LINE
  5
2BA7D
  8
0
 10
3056.7153472236900598
 20
199.255813846254398
 30
0.0
 11
3056.6579207195400159
 21
198.7749223727543892
 31
0.0
  0
LINE
  5
2BA7E
  8
0
 10
3056.6533584935659746
 20
198.7851168359541987
 30
0.0
 11
3056.7122442958398096
 21
199.2796558740544128
 31
0.0
  0
LINE
  5
2BA7F
  8
0
 10
3056.8571309219528302
 20
198.9206725759678989
 30
0.0
 11
3056.8206588069401732
 21
198.3831222227044009
 31
0.0
  0
LINE
  5
2BA80
  8
0
 10
3056.8589527657900362
 20
198.3393145804544133
 30
0.0
 11
3056.9005279487400912
 21
198.8699369961543937
 31
0.0
  0
LINE
  5
2BA81
  8
0
 10
3056.9713777669080628
 20
198.8261256966472104
 30
0.0
 11
3056.9360343089401795
 21
198.2909808478543994
 31
0.0
  0
LINE
  5
2BA82
  8
0
 10
3056.9588699198898212
 20
198.2757956631043896
 30
0.0
 11
3056.9931690903399613
 21
198.8149687026543972
 31
0.0
  0
LINE
  5
2BA83
  8
0
 10
3057.0501499370311649
 20
198.7897667005298956
 30
0.0
 11
3057.0221333659401353
 21
198.2501972622544031
 31
0.0
  0
LINE
  5
2BA84
  8
0
 10
3057.0449538695229421
 20
198.2384985861567088
 30
0.0
 11
3057.0739139468209942
 21
198.7808489523521018
 31
0.0
  0
LINE
  5
2BA85
  8
0
 10
3056.9199070064400985
 20
198.8567014525544039
 30
0.0
 11
3056.8780755850639252
 21
198.3213730448381966
 31
0.0
  0
ARC
  5
2BA86
  8
0
 10
3056.9537105843101017
 20
197.3698044257866968
 30
0.0
 40
0.9615710071703804
 50
186.0488904996759914
 51
200.0418909006999968
  0
ARC
  5
2BA87
  8
0
 10
3056.7811220409607813
 20
197.3126212285395127
 30
0.0
 40
0.7798558239690317
 50
200.4406144631190045
 51
219.3932438328637886
  0
ARC
  5
2BA88
  8
0
 10
3057.1317259331058267
 20
197.600541282563313
 30
0.0
 40
1.2335308692337379
 50
219.3932438328637886
 51
233.0208633807305887
  0
ARC
  5
2BA89
  8
0
 10
3057.2191648459179305
 20
197.7554657674290866
 30
0.0
 40
1.4100828011668971
 50
233.9692727065153974
 51
248.0554563211701975
  0
ARC
  5
2BA8A
  8
0
 10
3057.3524885221982004
 20
198.0863752245246019
 30
0.0
 40
1.7668408024117499
 50
248.0554563211701975
 51
260.1503346315042222
  0
ARC
  5
2BA8B
  8
0
 10
3057.4237267213661653
 20
198.5873564181351014
 30
0.0
 40
2.272676725346213
 50
260.5413936147663776
 51
268.8621447535642233
  0
ARC
  5
2BA8C
  8
0
 10
3057.5258550244961953
 20
199.3489602361347011
 30
0.0
 40
1.221293121204851
 50
161.8563740541871141
 51
180.5366525042364003
  0
LINE
  5
2BA8D
  8
0
 10
3054.5227418031090565
 20
203.8898435549359078
 30
0.0
 11
3056.8326640397399387
 21
203.8898435549544104
 31
0.0
  0
LINE
  5
2BA8E
  8
0
 10
3054.4008120272401356
 20
203.9691297484544066
 30
0.0
 11
3056.7770195562889057
 21
203.9691297484544066
 31
0.0
  0
LINE
  5
2BA8F
  8
0
 10
3056.9719967121159243
 20
201.6038686200544134
 30
0.0
 11
3056.6670508378151681
 21
201.6038686200544134
 31
0.0
  0
ARC
  5
2BA90
  8
0
 10
3056.6670508378151681
 20
201.5838651625147975
 30
0.0
 40
0.0200034575395662
 50
90.0
 51
195.2277968542364874
  0
ARC
  5
2BA91
  8
0
 10
3347.0119010850598897
 20
281.6985639535594146
 30
0.0
 40
301.2151178859817264
 50
195.4257364662337011
 51
195.5804074745601895
  0
ARC
  5
2BA92
  8
0
 10
3052.409363028523785
 20
199.5692026255536007
 30
0.0
 40
4.6212828419427501
 50
10.7122082953149196
 51
15.3826151016879304
  0
ARC
  5
2BA93
  8
0
 10
3048.1236423118239145
 20
198.7584614683954953
 30
0.0
 40
8.9830145262012682
 50
9.7460349590203368
 51
10.7122082953149196
  0
ARC
  5
2BA94
  8
0
 10
3057.098035170447929
 20
200.5131693342995902
 30
0.0
 40
0.6555402872890277
 50
247.9529542218488984
 51
251.7646075230981921
  0
ARC
  5
2BA95
  8
0
 10
3056.8911870131960313
 20
200.0024100413602923
 30
0.0
 40
0.1044856479994693
 50
219.9432943620182073
 51
247.9529542218494953
  0
ARC
  5
2BA96
  8
0
 10
3056.8381639363278737
 20
199.966342744025809
 30
0.0
 40
0.0406611938038567
 50
134.6545925520235016
 51
179.8327395340108126
  0
ARC
  5
2BA97
  8
0
 10
3056.8455450193318939
 20
199.968884194846197
 30
0.0
 40
0.0481031541144449
 50
182.8869657949373959
 51
224.2351397645639111
  0
ARC
  5
2BA98
  8
0
 10
3073.1467940561101386
 20
184.9351913107117014
 30
0.0
 40
22.2195917640751084
 50
136.9989614594277896
 51
137.3293083982453027
  0
ARC
  5
2BA99
  8
0
 10
3056.2421610813221378
 20
200.7051923063002903
 30
0.0
 40
0.898798372245028
 50
316.7377508837172968
 51
324.8438736916364746
  0
LINE
  5
2BA9A
  8
0
 10
3056.704272667254827
 20
201.6038686200544134
 30
0.0
 11
3056.7046126556451782
 21
201.6233465417890898
 31
0.0
  0
LINE
  5
2BA9C
  8
0
 10
3060.3913276367989056
 20
204.3738686200543953
 30
0.0
 11
3057.3785958726548415
 21
204.3738686200543953
 31
0.0
  0
LINE
  5
2BA9D
  8
0
 10
3058.3091454536279343
 20
204.1023768216543886
 30
0.0
 11
3057.3785958726548415
 21
204.1023768216543886
 31
0.0
  0
LINE
  5
2BA9E
  8
0
 10
3057.8059576301689049
 20
203.5228065146544054
 30
0.0
 11
3057.3785958726548415
 21
203.5228065146544054
 31
0.0
  0
LINE
  5
2BA9F
  8
0
 10
3057.780200780226096
 20
199.9516414829367932
 30
0.0
 11
3057.7801480449688825
 21
200.7741240310544129
 31
0.0
  0
ARC
  5
2BAA0
  8
0
 10
3074.506318830940927
 20
200.7476346626218913
 30
0.0
 40
16.7261917616688116
 50
178.1054628611474868
 51
179.909260298505302
  0
ARC
  5
2BAA1
  8
0
 10
2909.4292269692068658
 20
199.4587385814436971
 30
0.0
 40
148.371475840490092
 50
0.7112798001402514
 51
0.9519891661011698
  0
LINE
  5
2BAA2
  8
0
 10
3057.7802228462651328
 20
201.923868470554396
 30
0.0
 11
3057.7802228489490517
 21
203.5228065146544054
 31
0.0
  0
ARC
  5
2BAA3
  8
0
 10
3057.494923691871918
 20
199.9474423527871068
 30
0.0
 40
0.2853079911842139
 50
352.0816587664767212
 51
0.8433031303593137
  0
ARC
  5
2BAA4
  8
0
 10
3057.5662279062839843
 20
199.8330197116256954
 30
0.0
 40
0.24465386574433
 50
16.9911396409486208
 51
29.0030036951026986
  0
ARC
  5
2BAA5
  8
0
 10
3057.4347013774699917
 20
199.8177340852448083
 30
0.0
 40
0.375661826237435
 50
4.130718810025896
 51
13.3561773501066607
  0
ARC
  5
2BAA6
  8
0
 10
3057.4406411199738614
 20
199.854202534764795
 30
0.0
 40
0.3688662432249792
 50
350.3666662953411901
 51
358.538393670324524
  0
ARC
  5
2BAA7
  8
0
 10
3057.5706390975819886
 20
199.8455470149316966
 30
0.0
 40
0.2396179499278722
 50
323.2424459334920925
 51
347.203818121180916
  0
ARC
  5
2BAA8
  8
0
 10
3057.4792836571959924
 20
199.9137841205661061
 30
0.0
 40
0.3536447848107531
 50
300.9818498052724749
 51
323.2424459334920925
  0
ARC
  5
2BAA9
  8
0
 10
3057.4025953741229387
 20
200.0415064866965054
 30
0.0
 40
0.5026216137832997
 50
284.1541110311409284
 51
300.9818498052724749
  0
ARC
  5
2BAAA
  8
0
 10
3057.3786418159170353
 20
200.1364898512429988
 30
0.0
 40
0.6005788110241909
 50
269.9956169698673989
 51
284.1541110311409284
  0
ARC
  5
2BAAB
  8
0
 10
3057.5853022293258618
 20
199.9016531527942107
 30
0.0
 40
0.1923185190239868
 50
339.5018544694049751
 51
1.9322994130013089
  0
ARC
  5
2BAAC
  8
0
 10
3057.5486154785580766
 20
199.9153684134479079
 30
0.0
 40
0.2314851637202522
 50
318.1073180529920137
 51
339.5018544694049751
  0
ARC
  5
2BAAD
  8
0
 10
3057.5689268858509422
 20
199.8879344132892868
 30
0.0
 40
0.2083469088122146
 50
337.4277793587467045
 51
0.5319081310181931
  0
ARC
  5
2BAAE
  8
0
 10
3057.5463337979408607
 20
199.8973261585867931
 30
0.0
 40
0.232814285072948
 50
313.5700497518882912
 51
337.4277793587467045
  0
ARC
  5
2BAAF
  8
0
 10
3057.444938786001785
 20
200.0039129203302934
 30
0.0
 40
0.3799254206987215
 50
295.7040853983116904
 51
313.5700497518882912
  0
ARC
  5
2BAB0
  8
0
 10
3057.3743252567428499
 20
200.1604913554348002
 30
0.0
 40
0.5516531914174592
 50
270.4435589525890009
 51
295.2589622424300728
  0
ARC
  5
2BAB1
  8
0
 10
3057.3723163332101649
 20
200.1393158493538067
 30
0.0
 40
0.5810279388869565
 50
270.6192440809792856
 51
288.2617793262839996
  0
ARC
  5
2BAB2
  8
0
 10
3057.4189995314409316
 20
199.9829733227782071
 30
0.0
 40
0.4179570163451534
 50
288.9005223725598057
 51
307.6519528792247797
  0
ARC
  5
2BAB3
  8
0
 10
3057.4927013761448507
 20
199.8874488300569112
 30
0.0
 40
0.2973050763593241
 50
307.6519528792042024
 51
328.6817814371776194
  0
ARC
  5
2BAB4
  8
0
 10
3057.5917084668271855
 20
199.8272084473489087
 30
0.0
 40
0.181411557497458
 50
328.6817814371776194
 51
351.0139360412491101
  0
ARC
  5
2BAB5
  8
0
 10
3057.3301774729798126
 20
199.8685656820645988
 30
0.0
 40
0.4461923755450421
 50
351.0139360412491101
 51
359.997667234857488
  0
ARC
  5
2BAB6
  8
0
 10
3057.5853518860280928
 20
199.8522662841263013
 30
0.0
 40
0.189546795810853
 50
345.729793533941006
 51
1.2152035602356019
  0
ARC
  5
2BAB7
  8
0
 10
3057.566821888739014
 20
199.8569792610147999
 30
0.0
 40
0.2086667579097262
 50
327.6603557561645061
 51
345.729793533941006
  0
ARC
  5
2BAB8
  8
0
 10
3057.5061483990361921
 20
199.895394233660312
 30
0.0
 40
0.2804788911195412
 50
302.5589176484494942
 51
327.6603557561658135
  0
ARC
  5
2BAB9
  8
0
 10
3057.4058135851428233
 20
200.0525315305650906
 30
0.0
 40
0.4669170979263862
 50
283.8283260032283124
 51
302.5589176484494942
  0
ARC
  5
2BABA
  8
0
 10
3057.3675577577969307
 20
200.2668829316444885
 30
0.0
 40
0.6843444289136174
 50
270.9241907936088865
 51
282.6489239943318807
  0
ARC
  5
2BABB
  8
0
 10
3057.4858211376481449
 20
199.8140068824999105
 30
0.0
 40
0.3035966013770222
 50
2.191047602875996
 51
16.0442729120575898
  0
ARC
  5
2BABC
  8
0
 10
3057.5843270028649385
 20
199.8238101197487993
 30
0.0
 40
0.2048895735626313
 50
0.8163441316166636
 51
0.8428869948358629
  0
ARC
  5
2BABD
  8
0
 10
3057.5105708150840655
 20
199.8375818943071067
 30
0.0
 40
0.2788818824437141
 50
341.255658022033515
 51
357.5404395953543144
  0
ARC
  5
2BABE
  8
0
 10
3057.5319091476330868
 20
199.8475973786239024
 30
0.0
 40
0.2624030547942453
 50
321.991439752950896
 51
337.6852271525336846
  0
ARC
  5
2BABF
  8
0
 10
3057.4851351959650856
 20
199.8841524499808031
 30
0.0
 40
0.3217669815218624
 50
298.5074444103651103
 51
321.991439752949475
  0
ARC
  5
2BAC0
  8
0
 10
3057.3728970239149021
 20
200.0908054123989075
 30
0.0
 40
0.5569325702916464
 50
282.1456261432117003
 51
298.5074444103651103
  0
ARC
  5
2BAC1
  8
0
 10
3057.5816124239008786
 20
199.8029885246243111
 30
0.0
 40
0.1905578362102936
 50
337.8936453868852254
 51
1.2888539453039409
  0
ARC
  5
2BAC2
  8
0
 10
3057.5440530307578229
 20
199.8182446653840998
 30
0.0
 40
0.2310974198801259
 50
320.523374562748927
 51
337.8936453868852254
  0
ARC
  5
2BAC3
  8
0
 10
3057.3524333841928637
 20
199.9760724612366971
 30
0.0
 40
0.4793466939850683
 50
315.0571577617199068
 51
320.523374562748927
  0
ARC
  5
2BAC4
  8
0
 10
3057.5835839179148934
 20
199.7754452822726989
 30
0.0
 40
0.2052978952947784
 50
7.4141655731488578
 51
20.5112688492285216
  0
LINE
  5
2BAC5
  8
0
 10
3058.4300982276899958
 20
204.1853355594543871
 30
0.0
 11
3057.3785958726548415
 21
204.1853355594543871
 31
0.0
  0
LINE
  5
2BAC6
  8
0
 10
3057.3785958726548415
 20
203.5228065146544054
 30
0.0
 11
3057.3786480439539446
 21
203.5228065146544054
 31
0.0
  0
LINE
  5
2BAC7
  8
0
 10
3060.3913276348689578
 20
204.3738686200543953
 30
0.0
 11
3060.3795675989990741
 21
204.0145719270902873
 31
0.0
  0
ARC
  5
2BAC8
  8
0
 10
3060.3195997122670633
 20
204.0165347182511937
 30
0.0
 40
0.0599999999018633
 50
307.806747207106298
 51
358.1253380400426067
  0
LINE
  5
2BAC9
  8
0
 10
3060.35637971813685
 20
203.9691297485069867
 30
0.0
 11
3060.2704157716862028
 21
203.9024330609626077
 31
0.0
  0
ARC
  5
2BACA
  8
0
 10
3060.2336357653598498
 20
203.9498380312942061
 30
0.0
 40
0.0600000006452331
 50
270.7775054659908847
 51
307.806747207106298
  0
ARC
  5
2BACB
  8
0
 10
3060.2717163156321476
 20
196.718692105722198
 30
0.0
 40
7.171248279108779
 50
90.2977473540920244
 51
94.6294629178970865
  0
ARC
  5
2BACC
  8
0
 10
3059.8499300621870134
 20
201.6230078441971898
 30
0.0
 40
2.2490241211616162
 50
94.0033667560042545
 51
105.4413752296188989
  0
ARC
  5
2BACD
  8
0
 10
3059.4841918901420286
 20
202.9808859556565892
 30
0.0
 40
0.8428302727474992
 50
106.0533342400510008
 51
145.9503570637700989
  0
ARC
  5
2BACE
  8
0
 10
3059.9354228163479092
 20
202.6759576864729127
 30
0.0
 40
1.3874315930836081
 50
145.9503570637700989
 51
148.428080839728409
  0
ARC
  5
2BACF
  8
0
 10
3058.7044277180179961
 20
203.4324395197972137
 30
0.0
 40
0.0574260802745598
 50
274.6638396771849102
 51
328.428080839728409
  0
ARC
  5
2BAD0
  8
0
 10
3058.8778696989320451
 20
201.3063939543453102
 30
0.0
 40
2.075682418400759
 50
94.6638396771849244
 51
96.3732928615332725
  0
LINE
  5
2BAD1
  8
0
 10
3058.6474571241701597
 20
203.3692481778543879
 30
0.0
 11
3057.7802228480691156
 21
203.3692481778543879
 31
0.0
  0
LINE
  5
2BAD2
  8
0
 10
3058.6261659190699902
 20
203.3692481778543879
 30
0.0
 11
3058.626386131369145
 21
203.3458976090543899
 31
0.0
  0
LINE
  5
2BAD3
  8
0
 10
3058.626386131369145
 20
203.3458976090543899
 30
0.0
 11
3058.626386131369145
 21
203.1713985511543967
 31
0.0
  0
ARC
  5
2BAD4
  8
0
 10
3058.5663861321768309
 20
203.1713985511543967
 30
0.0
 40
0.0599999991923772
 50
335.6535803333010222
 51
0.0
  0
ARC
  5
2BAD5
  8
0
 10
3064.9560156789430039
 20
200.3945885763386912
 30
0.0
 40
6.9069314516568667
 50
156.5186116231500932
 51
163.077751239653395
  0
ARC
  5
2BAD6
  8
0
 10
2737.7918207458010329
 20
294.6696016840475068
 30
0.0
 40
333.5702538218299082
 50
343.8068985982926051
 51
343.9427825294980039
  0
ARC
  5
2BAD7
  8
0
 10
3058.0995366829561135
 20
201.6534276183230929
 30
0.0
 40
0.0300890339847392
 50
270.1402890612578744
 51
343.8068985982926051
  0
LINE
  5
2BAD8
  8
0
 10
3058.0996103560642041
 20
201.6233386745329028
 30
0.0
 11
3057.7849113990741898
 21
201.6233956977027901
 31
0.0
  0
ARC
  5
2BAD9
  8
0
 10
3072.5601111137989392
 20
200.8435655134721003
 30
0.0
 40
14.3347948440066499
 50
174.5584767423839878
 51
176.7320524252677103
  0
ARC
  5
2BADA
  8
0
 10
3076.2643121552441698
 20
200.6320616532003953
 30
0.0
 40
18.0450292353025006
 50
176.7320524252677103
 51
179.3234333704942003
  0
ARC
  5
2BADB
  8
0
 10
3064.1433404431331837
 20
200.634377765333511
 30
0.0
 40
5.9265481942308798
 50
177.962013677142096
 51
186.2488420157887958
  0
ARC
  5
2BADC
  8
0
 10
3057.36085163513917
 20
198.1115823324495011
 30
0.0
 40
1.8905303620700451
 50
270.5377775826351012
 51
293.1444781053398856
  0
ARC
  5
2BADD
  8
0
 10
3057.605012919346791
 20
197.5272744992892058
 30
0.0
 40
1.257292288321775
 50
293.3792793432124881
 51
321.0735665271259904
  0
ARC
  5
2BADE
  8
0
 10
3057.9745911275081198
 20
197.2287808553342074
 30
0.0
 40
0.78222754807138
 50
321.0735665271259904
 51
346.5963298479330774
  0
ARC
  5
2BADF
  8
0
 10
3057.3849106798697903
 20
197.3070853685987913
 30
0.0
 40
1.3753298050271541
 50
349.1184861104395054
 51
358.3913731603529982
  0
ARC
  5
2BAE0
  8
0
 10
3040.626677133470821
 20
197.1312319272113882
 30
0.0
 40
18.1335407150519998
 50
0.4336512879470022
 51
1.8418312399286141
  0
ARC
  5
2BAE1
  8
0
 10
3055.7989321313780238
 20
197.6063030848395954
 30
0.0
 40
2.9538830867135819
 50
2.0904576394171119
 51
6.7522636958823297
  0
ARC
  5
2BAE2
  8
0
 10
3057.341424601152994
 20
197.7243939407788105
 30
0.0
 40
1.4096625503036151
 50
9.3580741686708926
 51
29.2182242732054114
  0
ARC
  5
2BAE3
  8
0
 10
3057.3527934161252233
 20
197.7310436625697889
 30
0.0
 40
1.396494271343655
 50
29.2077983971319313
 51
50.3239824771557807
  0
ARC
  5
2BAE4
  8
0
 10
3057.3588567517158481
 20
197.7368627053184014
 30
0.0
 40
1.3881447625586281
 50
50.3632600717163967
 51
58.1207322829068218
  0
ARC
  5
2BAE5
  8
0
 10
3053.4590634793680692
 20
196.6562871536883108
 30
0.0
 40
5.8379111261982137
 50
34.2161736438234882
 51
34.8147001074016487
  0
ARC
  5
2BAE6
  8
0
 10
3057.5479559783129844
 20
199.4367832618927139
 30
0.0
 40
0.89319672841292
 50
19.1147851298340292
 51
34.2161736438234882
  0
ARC
  5
2BAE7
  8
0
 10
3057.0806829342282072
 20
199.4124280628751933
 30
0.0
 40
1.373936805393051
 50
337.0300865045604723
 51
356.8746975485299231
  0
ARC
  5
2BAE8
  8
0
 10
3056.6381919948771611
 20
199.7901409556216947
 30
0.0
 40
1.9366745125230209
 50
328.2447800964523026
 51
331.8432430381461131
  0
LINE
  5
2BAE9
  8
0
 10
3058.4525762256248527
 20
204.3738686200543953
 30
0.0
 11
3058.4525762256248527
 21
204.2320757453543933
 31
0.0
  0
ARC
  5
2BAEA
  8
0
 10
3058.3920672453191401
 20
204.2324002638414981
 30
0.0
 40
0.0605098505200925
 50
308.9402006307308852
 51
359.6927173235363853
  0
LINE
  5
2BAEB
  8
0
 10
3058.4300982275949536
 20
204.1853355594751918
 30
0.0
 11
3058.3433866494210633
 21
204.1155413563174932
 31
0.0
  0
ARC
  5
2BAEC
  8
0
 10
3058.3057654451208691
 20
204.1622815417491097
 30
0.0
 40
0.0599999995594031
 50
273.2293799828929082
 51
308.8306097578931144
  0
ARC
  5
2BAED
  8
0
 10
3057.8059244681930977
 20
203.5330479387640992
 30
0.0
 40
0.0102414777992121
 50
270.185524459025828
 51
291.7270245628654948
  0
ARC
  5
2BAEE
  8
0
 10
3057.7866779489008877
 20
203.5813459828854945
 30
0.0
 40
0.0622331076141402
 50
291.7270245628649263
 51
355.4327129884762257
  0
ARC
  5
2BAEF
  8
0
 10
3058.6033359698772074
 20
203.559766499278112
 30
0.0
 40
0.7548056189356011
 50
154.0682158582812917
 51
178.7380130826084894
  0
ARC
  5
2BAF0
  8
0
 10
3058.252870827832794
 20
203.718281706574686
 30
0.0
 40
0.3704627832281775
 50
126.8905156857188956
 51
152.412580449347189
  0
ARC
  5
2BAF1
  8
0
 10
3058.2854887689368297
 20
203.6616496255848006
 30
0.0
 40
0.4354081949898584
 50
99.3064679875575393
 51
125.8498054669022963
  0
ARC
  5
2BAF2
  8
0
 10
3058.345227203235936
 20
203.3892875100816866
 30
0.0
 40
0.7140015818827476
 50
92.8966502845930648
 51
100.5027841924106013
  0
LINE
  5
2BAF3
  8
0
 10
3058.626386131369145
 20
203.1713985511543967
 30
0.0
 11
3057.7802228480691156
 21
203.1713985511543967
 31
0.0
  0
ARC
  5
2BAF4
  8
0
 10
3057.3601792375288824
 20
199.2920812049310086
 30
0.0
 40
1.097719124626829
 50
270.9613069042902112
 51
282.7789732975434163
  0
ARC
  5
2BAF5
  8
0
 10
3057.6543090493678392
 20
198.0010858066297033
 30
0.0
 40
0.2263615049532998
 50
94.1193554780594042
 51
103.1050702852052012
  0
ARC
  5
2BAF6
  8
0
 10
3057.6230974407058056
 20
198.4344572691913982
 30
0.0
 40
0.2081324410092323
 50
274.11935547805939
 51
287.6500109634305886
  0
ARC
  5
2BAF7
  8
0
 10
3057.7046073001351942
 20
198.1782816726650083
 30
0.0
 40
0.0606979766145092
 50
82.7782173753663244
 51
107.6500109634306028
  0
ARC
  5
2BAF8
  8
0
 10
3057.7150520313471134
 20
198.2607082064183999
 30
0.0
 40
0.0223876772415483
 50
262.7782173753661255
 51
326.6028189364624268
  0
ARC
  5
2BAF9
  8
0
 10
3057.7574066018851227
 20
198.2327835025544118
 30
0.0
 40
0.0283439571821606
 50
107.4963955063802956
 51
146.6028189364610057
  0
ARC
  5
2BAFA
  8
0
 10
3057.7086993132411408
 20
198.3872971797256923
 30
0.0
 40
0.1336649203522398
 50
287.4963955063802814
 51
299.2967642123762744
  0
ARC
  5
2BAFB
  8
0
 10
3057.797450284516799
 20
198.2197648254303033
 30
0.0
 40
0.0560557162931061
 50
88.130727524027165
 51
114.6105337556742967
  0
ARC
  5
2BAFC
  8
0
 10
3057.79982225306685
 20
198.2983591375237893
 30
0.0
 40
0.0225749685489424
 50
268.6205085740033951
 51
340.9232154397411136
  0
ARC
  5
2BAFD
  8
0
 10
3057.8452414845810381
 20
198.2749103496614111
 30
0.0
 40
0.0289534504064698
 50
117.4249921090434015
 51
146.2861135623994073
  0
ARC
  5
2BAFE
  8
0
 10
3057.4736725665798076
 20
198.929715939835404
 30
0.0
 40
0.7239513724779599
 50
299.6585844553675884
 51
301.7523022052344004
  0
ARC
  5
2BAFF
  8
0
 10
3057.881719935160163
 20
198.2674948461877023
 30
0.0
 40
0.0539113083603362
 50
93.8223907259002061
 51
120.1396133243577964
  0
ARC
  5
2BB00
  8
0
 10
3057.8767221899470314
 20
198.3429868874949022
 30
0.0
 40
0.0217460177544734
 50
273.701294530582004
 51
348.2758307142937042
  0
ARC
  5
2BB01
  8
0
 10
3057.9178666186130613
 20
198.3321142720936052
 30
0.0
 40
0.0208748029107841
 50
124.0794904706109065
 51
161.9909140904422031
  0
ARC
  5
2BB02
  8
0
 10
3057.832674073410999
 20
198.4461173427584129
 30
0.0
 40
0.121470362562136
 50
307.2323582266139965
 51
328.7612854635049757
  0
ARC
  5
2BB03
  8
0
 10
3057.5745795777379499
 20
198.7753714581365898
 30
0.0
 40
0.5337318596166362
 50
312.6996989371098721
 51
338.0599572074618209
  0
ARC
  5
2BB04
  8
0
 10
3057.716745548560084
 20
198.707679127855414
 30
0.0
 40
0.3766940821949919
 50
339.5311534212019069
 51
0.4981215374472992
  0
ARC
  5
2BB05
  8
0
 10
3058.169875353074076
 20
198.7110643875525113
 30
0.0
 40
0.0764500377819943
 50
162.6963675402687102
 51
180.0827210023049929
  0
ARC
  5
2BB06
  8
0
 10
3058.0143842780048544
 20
198.7587582866921991
 30
0.0
 40
0.0861926183373133
 50
343.1704561555525856
 51
4.0288496396282758
  0
ARC
  5
2BB07
  8
0
 10
3057.9236696666371245
 20
198.7501484970734111
 30
0.0
 40
0.1773018054438349
 50
4.744659775439751
 51
8.0762132899605685
  0
ARC
  5
2BB08
  8
0
 10
3058.1138703746510146
 20
198.7736271003678041
 30
0.0
 40
0.014727016001402
 50
140.4564174995437895
 51
174.4255701704223895
  0
ARC
  5
2BB09
  8
0
 10
3058.0859526100171024
 20
198.794810904986889
 30
0.0
 40
0.0203394277935363
 50
324.5122361347188757
 51
7.5235631760921038
  0
LINE
  5
2BB0A
  8
0
 10
3058.1061169376689577
 20
198.7974740259543864
 30
0.0
 11
3058.0473661847690892
 21
199.2884555632543879
 31
0.0
  0
ARC
  5
2BB0B
  8
0
 10
3058.0259671216681454
 20
199.2857196658933958
 30
0.0
 40
0.0215729448006559
 50
7.2858096104856811
 51
59.6438297072120278
  0
ARC
  5
2BB0C
  8
0
 10
3058.0474598280038663
 20
199.322417387134891
 30
0.0
 40
0.0209553889308678
 50
195.0136979365676098
 51
239.6438297071861996
  0
ARC
  5
2BB0D
  8
0
 10
3057.6128226695468584
 20
199.1776554222199138
 30
0.0
 40
0.4371942091650033
 50
18.5842800387368783
 51
20.5366391003600803
  0
ARC
  5
2BB0E
  8
0
 10
3058.0406511843621047
 20
199.3354509375996031
 30
0.0
 40
0.0189429410095122
 50
151.5095516801457904
 51
193.5090109117988106
  0
ARC
  5
2BB0F
  8
0
 10
3058.0106557889148462
 20
199.3504256893832007
 30
0.0
 40
0.0146081441329773
 50
336.0125814614918909
 51
27.4758276178876208
  0
ARC
  5
2BB10
  8
0
 10
3058.0044893679059896
 20
199.3491024989016864
 30
0.0
 40
0.0207568901945541
 50
22.8580868135178008
 51
65.1666130787950237
  0
ARC
  5
2BB11
  8
0
 10
3058.0252162060751289
 20
199.3954512258665943
 30
0.0
 40
0.0300181359214962
 50
210.539493049563788
 51
246.4174800512836043
  0
ARC
  5
2BB12
  8
0
 10
3057.8028029690099174
 20
199.2776478332316969
 30
0.0
 40
0.2217026889961525
 50
27.5522534196736615
 51
30.8656623820451692
  0
ARC
  5
2BB13
  8
0
 10
3059.0597323080719434
 20
199.5206251622929869
 30
0.0
 40
1.074426879743051
 50
185.8433549337607928
 51
186.9085749032734896
  0
ARC
  5
2BB14
  8
0
 10
3057.9700458970478394
 20
199.4091057305371919
 30
0.0
 40
0.0209511636877736
 50
5.8433549337576007
 51
73.8450248261723061
  0
ARC
  5
2BB15
  8
0
 10
3057.9847578594599327
 20
199.4598935719351118
 30
0.0
 40
0.0319246027074592
 50
219.1889489766826102
 51
253.8450248261723061
  0
ARC
  5
2BB16
  8
0
 10
3057.8350409259869593
 20
199.3378354979757034
 30
0.0
 40
0.1612419927154945
 50
39.1889489766826173
 51
57.939241967854592
  0
ARC
  5
2BB17
  8
0
 10
3058.0076632872887785
 20
199.6134382608152009
 30
0.0
 40
0.1639585031425812
 50
227.9986851633576919
 51
237.9392419678545991
  0
ARC
  5
2BB18
  8
0
 10
3057.5440998784101794
 20
199.1130575679839865
 30
0.0
 40
0.518171539674728
 50
46.9305920361743532
 51
51.1870866927257779
  0
ARC
  5
2BB19
  8
0
 10
3057.5074479800168774
 20
199.7676596655990977
 30
0.0
 40
0.3839422145332185
 50
39.7653435875611123
 51
44.7436576838234785
  0
ARC
  5
2BB1A
  8
0
 10
3057.5581973905791529
 20
199.8098905011310933
 30
0.0
 40
0.3179198990475937
 50
24.1309581862047615
 51
39.7653435875598618
  0
ARC
  5
2BB1B
  8
0
 10
3057.6381861265790576
 20
199.845723072231408
 30
0.0
 40
0.2302719039846476
 50
16.1482822149469207
 51
24.1309581862062501
  0
ARC
  5
2BB1C
  8
0
 10
3057.5555049820341083
 20
199.8217828891320096
 30
0.0
 40
0.3163492182446429
 50
7.8655817751595043
 51
16.1482822149469207
  0
ARC
  5
2BB1D
  8
0
 10
-1251.8804172358350115
 20
199.8351754081903948
 30
0.0
 40
4309.7492952786224123
 50
359.9996024994828758
 51
0.0003975005187713
  0
ARC
  5
2BB1E
  8
0
 10
-68212.0101871462102281
 20
199.3625702928505916
 30
0.0
 40
71269.8790664602565812
 50
0.0001240015907677
 51
0.0003559028190272
  0
ARC
  5
2BB1F
  8
0
 10
3062.9851451644240115
 20
199.5168262055983064
 30
0.0
 40
5.1162660173067049
 50
180.0001240015907058
 51
181.559428860688314
  0
ARC
  5
2BB20
  8
0
 10
3057.6153275272358769
 20
199.370638877412091
 30
0.0
 40
0.2555411452392962
 50
347.0955164627117142
 51
1.5594288606883611
  0
ARC
  5
2BB21
  8
0
 10
3057.5413292799598821
 20
199.3875928328747023
 30
0.0
 40
0.3314567378784968
 50
333.1890241688856236
 51
347.0955164627117142
  0
ARC
  5
2BB22
  8
0
 10
3057.5807384040849684
 20
199.3676763752091006
 30
0.0
 40
0.2873008283053391
 50
314.5910541195543146
 51
333.1890241688856236
  0
ARC
  5
2BB23
  8
0
 10
3057.4253889023161719
 20
199.5252594562190893
 30
0.0
 40
0.5085832160372985
 50
296.2360528586381747
 51
314.5910541195543146
  0
ARC
  5
2BB24
  8
0
 10
3057.3937816863408443
 20
199.6094091414053935
 30
0.0
 40
0.5981019108519297
 50
280.1466236633012272
 51
295.3883202310834122
  0
ARC
  5
2BB25
  8
0
 10
3057.3642105999410887
 20
199.8447749413876124
 30
0.0
 40
0.8350875027902404
 50
270.9870297171304969
 51
279.2988910357536838
  0
ARC
  5
2BB26
  8
0
 10
3057.6263100820428917
 20
199.2183001625770089
 30
0.0
 40
0.266135935628344
 50
0.2026976452690059
 51
24.9117458952980897
  0
ARC
  5
2BB27
  8
0
 10
3057.378706195318955
 20
199.5596779137578096
 30
0.0
 40
0.7037429189243775
 50
269.9910179940670787
 51
290.6244366113268143
  0
ARC
  5
2BB28
  8
0
 10
3057.4496931949479404
 20
199.3710643544224013
 30
0.0
 40
0.5022131968448394
 50
290.6244366113268143
 51
313.6114318154264993
  0
ARC
  5
2BB29
  8
0
 10
3057.5739018112371923
 20
199.2406845576271905
 30
0.0
 40
0.3221391238281721
 50
313.6114318154264993
 51
343.7574973757195949
  0
ARC
  5
2BB2A
  8
0
 10
3057.659806898286206
 20
199.2156577036950011
 30
0.0
 40
0.2326627168888693
 50
343.7574973757210728
 51
0.8826285202257801
  0
ARC
  5
2BB2B
  8
0
 10
3058.0338759451169608
 20
199.2876235395742128
 30
0.0
 40
0.0136299963512527
 50
324.2472794263086939
 51
358.709265719849725
  0
ARC
  5
2BB2C
  8
0
 10
3058.0609761855607758
 20
199.2667928376204998
 30
0.0
 40
0.020562132014788
 50
141.262379689009606
 51
187.6150661704076015
  0
ARC
  5
2BB2D
  8
0
 10
3057.9607495802060839
 20
199.2471967367914942
 30
0.0
 40
0.0816087867830125
 50
341.1064307348921716
 51
11.9309939383520192
  0
ARC
  5
2BB2E
  8
0
 10
3058.1133743944760681
 20
199.1945797942559011
 30
0.0
 40
0.0798316336676657
 50
160.8477660233839117
 51
178.2222145601124055
  0
ARC
  5
2BB2F
  8
0
 10
3057.6526427260478158
 20
199.2175994588573928
 30
0.0
 40
0.3814919748007448
 50
313.7285289300328941
 51
356.9131762929142155
  0
ARC
  5
2BB30
  8
0
 10
3057.9929356031689167
 20
198.8663687487648133
 30
0.0
 40
0.1075854561452908
 50
135.3892588790691889
 51
149.685199704357899
  0
ARC
  5
2BB31
  8
0
 10
3057.8014169270350067
 20
198.980256019965509
 30
0.0
 40
0.1152423753671847
 50
306.9874617009941176
 51
328.8669468503924804
  0
ARC
  5
2BB32
  8
0
 10
3057.5006097030641286
 20
199.3670862146065872
 30
0.0
 40
0.6052543687313969
 50
307.2207966141322117
 51
307.7014670273050001
  0
ARC
  5
2BB33
  8
0
 10
3057.8801888172588406
 20
198.8652711453260906
 30
0.0
 40
0.0239832600454339
 50
124.1633307938214017
 51
168.7817880255018963
  0
ARC
  5
2BB34
  8
0
 10
3057.84237880847013
 20
198.8738301788845888
 30
0.0
 40
0.0148060040778567
 50
301.7075309251413842
 51
344.7550478037118751
  0
ARC
  5
2BB35
  8
0
 10
3057.8343749128680429
 20
198.8855131783498109
 30
0.0
 40
0.0289596631773881
 50
275.8081178678177139
 51
303.030964926274919
  0
ARC
  5
2BB36
  8
0
 10
3057.8394767154600231
 20
198.8099024555243943
 30
0.0
 40
0.0468500635092999
 50
92.6561995034198844
 51
120.4033365297165972
  0
ARC
  5
2BB37
  8
0
 10
3057.4195280073431604
 20
199.4996877268644084
 30
0.0
 40
0.7607211243871939
 50
299.8708957017253169
 51
301.3907888601216882
  0
ARC
  5
2BB38
  8
0
 10
3057.8127464335620971
 20
198.8143892912937929
 30
0.0
 40
0.0293785695909882
 50
119.2238834809838011
 51
156.4537838340683891
  0
ARC
  5
2BB39
  8
0
 10
3057.7702466499431466
 20
198.8340087711073068
 30
0.0
 40
0.0174494864758383
 50
294.986154468778409
 51
333.1429928506523197
  0
ARC
  5
2BB3A
  8
0
 10
3057.7638880905428778
 20
198.845929742983202
 30
0.0
 40
0.0309491884599935
 50
270.2889369340543908
 51
296.3341101582382748
  0
ARC
  5
2BB3B
  8
0
 10
3057.7617221545128814
 20
198.7646312683370127
 30
0.0
 40
0.0504031940823346
 50
87.359524017967118
 51
113.7685279566369019
  0
ARC
  5
2BB3C
  8
0
 10
3057.635788647839945
 20
199.0243040286939049
 30
0.0
 40
0.2382366189946209
 50
291.2659794988434214
 51
296.3169255060226988
  0
ARC
  5
2BB3D
  8
0
 10
3057.7335496442810836
 20
198.7731194522328906
 30
0.0
 40
0.0313016971628909
 50
111.265979498843393
 51
147.8706716180344074
  0
ARC
  5
2BB3E
  8
0
 10
3057.6907677571630302
 20
198.801969479623807
 30
0.0
 40
0.0203409084664152
 50
288.7563812141852964
 51
323.1363202223585063
  0
ARC
  5
2BB3F
  8
0
 10
3057.6860940601682159
 20
198.8134556446082115
 30
0.0
 40
0.0327280874744201
 50
265.0582954567807974
 51
290.038285377442719
  0
ARC
  5
2BB40
  8
0
 10
3057.675852262951139
 20
198.7290522425653876
 30
0.0
 40
0.052326092961093
 50
81.8450061670361464
 51
107.6463173158801965
  0
ARC
  5
2BB41
  8
0
 10
3057.2488494936369534
 20
200.4821399980307035
 30
0.0
 40
1.7484396518413969
 50
274.255657078133595
 51
280.5286452148665148
  0
ARC
  5
2BB42
  8
0
 10
3057.6115144108298409
 20
198.5591510245972984
 30
0.0
 40
0.208506232876368
 50
92.6778488581132365
 51
101.9513343261118052
  0
ARC
  5
2BB43
  8
0
 10
3057.592376793017138
 20
198.9683250596170012
 30
0.0
 40
0.2011151036648081
 50
272.6778488581131796
 51
289.6450486288222805
  0
ARC
  5
2BB44
  8
0
 10
3057.6022791344680627
 20
199.1996051319212029
 30
0.0
 40
0.2310869093747707
 50
337.4811888766961943
 51
6.9898387397791764
  0
ARC
  5
2BB45
  8
0
 10
3057.5484745243052203
 20
199.2219124297213
 30
0.0
 40
0.2893325238867266
 50
315.4085407224691835
 51
337.4811888766961943
  0
ARC
  5
2BB46
  8
0
 10
3057.4589541635327805
 20
199.3101651790512108
 30
0.0
 40
0.4150402911769878
 50
296.8128227310568832
 51
315.4085407224703204
  0
ARC
  5
2BB47
  8
0
 10
3057.3947741138640595
 20
199.4371494586123958
 30
0.0
 40
0.5573220047989357
 50
280.2195609743059208
 51
296.8128227310568832
  0
ARC
  5
2BB48
  8
0
 10
3057.3767167616269944
 20
199.5373117860546017
 30
0.0
 40
0.6590990150144833
 50
270.1633522042733944
 51
280.2195609743059208
  0
ARC
  5
2BB49
  8
0
 10
3057.4816073306528779
 20
199.2611392406060133
 30
0.0
 40
0.283500600257963
 50
302.1865133250191207
 51
328.5319513379182013
  0
ARC
  5
2BB4A
  8
0
 10
3057.3924220512940337
 20
199.4028370187891142
 30
0.0
 40
0.4509290159955797
 50
286.7602695728303956
 51
302.1865133250191207
  0
ARC
  5
2BB4B
  8
0
 10
3057.3607438346762137
 20
199.53198284178481
 30
0.0
 40
0.5837645512800015
 50
271.7524289935823276
 51
286.0821444778799219
  0
ARC
  5
2BB4C
  8
0
 10
3057.8557283640138849
 20
199.8661621178777068
 30
0.0
 40
0.0131944259228679
 50
303.2241604663287831
 51
355.2744608599489879
  0
ARC
  5
2BB4D
  8
0
 10
3057.8723379675247998
 20
199.836151636456691
 30
0.0
 40
0.0211650327381065
 50
116.3077001109752047
 51
240.5472023530143133
  0
ARC
  5
2BB4E
  8
0
 10
3057.8522871898780977
 20
199.8036138047974077
 30
0.0
 40
0.0170892528501679
 50
36.0845177358856333
 51
55.6449595533034014
  0
ARC
  5
2BB4F
  8
0
 10
3057.853932624655954
 20
199.8048681809559071
 30
0.0
 40
0.0150207625148015
 50
5.7373371476173141
 51
35.91440103535394
  0
ARC
  5
2BB50
  8
0
 10
3057.6042851405209149
 20
199.8393302788309995
 30
0.0
 40
0.2669374082785886
 50
332.0635740302988097
 51
352.4008162813241256
  0
ARC
  5
2BB51
  8
0
 10
3057.5436168917349278
 20
199.8715018624988886
 30
0.0
 40
0.3356079784412751
 50
308.1213117898387281
 51
332.0635740302988097
  0
ARC
  5
2BB52
  8
0
 10
3057.4118084988331248
 20
200.039474626832714
 30
0.0
 40
0.5491221512666896
 50
297.0895138263628041
 51
308.1213117898387281
  0
ARC
  5
2BB53
  8
0
 10
3057.6507995899150956
 20
199.5722342368410978
 30
0.0
 40
0.0243075900584565
 50
256.7675313524288754
 51
297.0895138263628041
  0
ARC
  5
2BB54
  8
0
 10
3057.6348177063059666
 20
199.5042683955036011
 30
0.0
 40
0.0455120074225118
 50
76.7675313524288327
 51
147.6477771295629111
  0
ARC
  5
2BB55
  8
0
 10
3057.5762249914519089
 20
199.5413839632819872
 30
0.0
 40
0.0238469978004369
 50
293.0924203969245241
 51
327.6477771295641901
  0
ARC
  5
2BB56
  8
0
 10
3057.3804548057050852
 20
200.1554419433350915
 30
0.0
 40
0.6682545982452709
 50
269.840615903250125
 51
287.8757531007050261
  0
LINE
  5
2BB57
  8
0
 10
3057.645235520668848
 20
199.5485720292543874
 30
0.0
 11
3057.6452355070691738
 21
199.1435167656543967
 31
0.0
  0
ARC
  5
2BB58
  8
0
 10
3057.6417150720521931
 20
199.1435167657726026
 30
0.0
 40
0.0035204350171707
 50
314.8129866768683769
 51
359.9999980763678877
  0
ARC
  5
2BB59
  8
0
 10
3057.6317124083798262
 20
199.1535849408602985
 30
0.0
 40
0.0177127368089189
 50
295.8851873944793738
 51
314.8129866768671832
  0
ARC
  5
2BB5A
  8
0
 10
3057.5046046779962126
 20
199.5014156392481084
 30
0.0
 40
0.3879535021120605
 50
287.4606500815979189
 51
290.338689127481075
  0
ARC
  5
2BB5B
  8
0
 10
3057.6647648895200291
 20
199.0177924621831949
 30
0.0
 40
0.1216839867353377
 50
111.0740777669900012
 51
119.8066968882638008
  0
ARC
  5
2BB5C
  8
0
 10
3057.5942266173160533
 20
199.1418296614357928
 30
0.0
 40
0.0210116461955331
 50
285.6404263303182915
 51
298.5815336639985844
  0
ARC
  5
2BB5D
  8
0
 10
3057.5985883617231593
 20
199.1267427784553092
 30
0.0
 40
0.0053091299324699
 50
263.8590124625171143
 51
284.2068200971531269
  0
ARC
  5
2BB5E
  8
0
 10
3057.5982111524281208
 20
199.1232368800847041
 30
0.0
 40
0.0017829974566186
 50
207.3587368154697117
 51
263.8590124625433191
  0
ARC
  5
2BB5F
  8
0
 10
3057.5986831756240463
 20
199.1234811225519081
 30
0.0
 40
0.0023144673807928
 50
177.8578512847670083
 51
207.3587368154711044
  0
LINE
  5
2BB60
  8
0
 10
3057.5963703256688859
 20
199.1235676346543926
 30
0.0
 11
3057.5963703256688859
 21
199.5286228969544027
 31
0.0
  0
LINE
  5
2BB61
  8
0
 10
3058.0335811907648349
 20
199.1970565625717029
 30
0.0
 11
3058.0933535204349027
 21
198.7133811972699107
 31
0.0
  0
LINE
  5
2BB62
  8
0
 10
3058.097117562620042
 20
198.7345845184185862
 30
0.0
 11
3058.0379400885781251
 21
199.2209885119422097
 31
0.0
  0
LINE
  5
2BB63
  8
0
 10
3058.0418445216191685
 20
199.255813846254398
 30
0.0
 11
3058.0992710257692124
 21
198.7749223727543892
 31
0.0
  0
LINE
  5
2BB64
  8
0
 10
3058.1038332517441631
 20
198.7851168359541987
 30
0.0
 11
3058.0449474494689639
 21
199.2796558740544128
 31
0.0
  0
LINE
  5
2BB65
  8
0
 10
3057.9000608233568528
 20
198.9206725759678989
 30
0.0
 11
3057.936532938369055
 21
198.3831222227044009
 31
0.0
  0
LINE
  5
2BB66
  8
0
 10
3057.8982389795191921
 20
198.3393145804544133
 30
0.0
 11
3057.856663796569137
 21
198.8699369961543937
 31
0.0
  0
LINE
  5
2BB67
  8
0
 10
3057.7858139784011655
 20
198.8261256966472104
 30
0.0
 11
3057.8211574363690488
 21
198.2909808478543994
 31
0.0
  0
LINE
  5
2BB68
  8
0
 10
3057.7983218254189524
 20
198.2757956631043896
 30
0.0
 11
3057.7640226549701765
 21
198.8149687026543972
 31
0.0
  0
LINE
  5
2BB69
  8
0
 10
3057.7070418082780634
 20
198.7897667005298956
 30
0.0
 11
3057.735058379369093
 21
198.2501972622544031
 31
0.0
  0
LINE
  5
2BB6A
  8
0
 10
3057.7122378757858314
 20
198.2384985861567088
 30
0.0
 11
3057.6832777984891436
 21
198.7808489523521018
 31
0.0
  0
LINE
  5
2BB6B
  8
0
 10
3057.8372847388691298
 20
198.8567014525544039
 30
0.0
 11
3057.8791161602462125
 21
198.3213730448381966
 31
0.0
  0
ARC
  5
2BB6C
  8
0
 10
3057.8034811610000361
 20
197.3698044257866968
 30
0.0
 40
0.9615710071703804
 50
339.9581090992984969
 51
353.9511095003239802
  0
ARC
  5
2BB6D
  8
0
 10
3057.9760697043479922
 20
197.3126212285395127
 30
0.0
 40
0.7798558239690317
 50
320.6067561671360977
 51
339.5593855368809955
  0
ARC
  5
2BB6E
  8
0
 10
3057.6254658122029468
 20
197.600541282563313
 30
0.0
 40
1.2335308692337379
 50
306.979136619269525
 51
320.6067561671360977
  0
ARC
  5
2BB6F
  8
0
 10
3057.5380268993922073
 20
197.7554657674290866
 30
0.0
 40
1.4100828011668971
 50
291.9445436788299162
 51
306.0307272934834941
  0
ARC
  5
2BB70
  8
0
 10
3057.4047032231110279
 20
198.0863752245246019
 30
0.0
 40
1.7668408024117499
 50
279.8496653684957778
 51
291.9445436788299162
  0
ARC
  5
2BB71
  8
0
 10
3057.3334239026280557
 20
198.5877998413089074
 30
0.0
 40
2.2731208778988399
 50
271.1386695871801749
 51
279.4577920444959886
  0
ARC
  5
2BB72
  8
0
 10
3057.2313367208139425
 20
199.3489602361347011
 30
0.0
 40
1.221293121204851
 50
359.4633474957619228
 51
18.1436259458129001
  0
LINE
  5
2BB73
  8
0
 10
3060.2344499422001718
 20
203.8898435549359078
 30
0.0
 11
3057.924527705570199
 21
203.8898435549544104
 31
0.0
  0
LINE
  5
2BB74
  8
0
 10
3060.3563797180690926
 20
203.9691297484544066
 30
0.0
 11
3057.9801721890198678
 21
203.9691297484544066
 31
0.0
  0
LINE
  5
2BB75
  8
0
 10
3057.7851950331942135
 20
201.6038686200544134
 30
0.0
 11
3058.0901409074940602
 21
201.6038686200544134
 31
0.0
  0
ARC
  5
2BB76
  8
0
 10
3058.0901409074940602
 20
201.5838651625147975
 30
0.0
 40
0.0200034575395662
 50
344.7722031457633989
 51
90.0
  0
ARC
  5
2BB77
  8
0
 10
2767.7452906602488838
 20
281.6985639535594146
 30
0.0
 40
301.2151178859817264
 50
344.4195925254397821
 51
344.5742635337663273
  0
ARC
  5
2BB78
  8
0
 10
3062.3478287167849885
 20
199.5692026255536007
 30
0.0
 40
4.6212828419427501
 50
164.6173848983135883
 51
169.2877917046866969
  0
ARC
  5
2BB79
  8
0
 10
3066.633549433484859
 20
198.7584614683954953
 30
0.0
 40
8.9830145262012682
 50
169.2877917046866969
 51
170.2539650409796081
  0
ARC
  5
2BB7A
  8
0
 10
3057.6591565748608446
 20
200.5131693342995902
 30
0.0
 40
0.6555402872890277
 50
288.2353924769017794
 51
292.0470457781510731
  0
ARC
  5
2BB7B
  8
0
 10
3057.866004732113197
 20
200.0024100413602923
 30
0.0
 40
0.1044856479994693
 50
292.0470457781505047
 51
320.0567056379817927
  0
ARC
  5
2BB7C
  8
0
 10
3057.9190278089799904
 20
199.966342744025809
 30
0.0
 40
0.0406611938038567
 50
0.1672604659891522
 51
45.3454074479765126
  0
ARC
  5
2BB7D
  8
0
 10
3057.9116467259768797
 20
199.968884194846197
 30
0.0
 40
0.0481031541144449
 50
315.7648602354361174
 51
357.1130342050608988
  0
ARC
  5
2BB7E
  8
0
 10
3041.6103976891990897
 20
184.9351913107117014
 30
0.0
 40
22.2195917640751084
 50
42.6706916017546689
 51
43.0010385405721607
  0
ARC
  5
2BB7F
  8
0
 10
3058.5150306639870905
 20
200.7051923063002903
 30
0.0
 40
0.898798372245028
 50
215.1561263083634117
 51
223.2622491162825895
  0
LINE
  5
2BB80
  8
0
 10
3058.0529190780539466
 20
201.6038686200544134
 30
0.0
 11
3058.0525790896640501
 21
201.6233465417890898
 31
0.0
  0
ARC
  5
2BB81
  8
0
 10
3057.3607922545947986
 20
200.3446029070190093
 30
0.0
 40
0.7304737164099827
 50
263.5527230724197807
 51
271.3965912406558232
  0
ARC
  5
2BB82
  8
0
 10
3057.379136746939821
 20
200.1141441186371992
 30
0.0
 40
0.4992859711859275
 50
274.551141247281123
 51
297.8059261693966278
  0
ARC
  5
2BB83
  8
0
 10
3057.4441403066011844
 20
199.9908848008757047
 30
0.0
 40
0.3599363311303171
 50
297.8059261693966278
 51
320.2644128555000975
  0
ARC
  5
2BB84
  8
0
 10
3057.3772243870721468
 20
200.0282987592864004
 30
0.0
 40
0.4139548472708953
 50
270.1898286245299801
 51
275.7579038634066251
  0
ENDSEC
  0
EOF
