  0
SECTION
  2
HEADER
  9
$ACADVER
  1
AC1009
  9
$INSBASE
 10
-49.6021542548014267
 20
52.6734153616370904
 30
0.0
  9
$EXTMIN
 10
-52.617866467606909
 20
44.5197837706414319
 30
-0.0015258207003583
  9
$EXTMAX
 10
-46.5893134086700513
 20
52.6829096314413121
 30
0.0000000349246037
  9
$LIMMIN
 10
0.0
 20
0.0
  9
$LIMMAX
 10
11.6929133858000007
 20
8.2677165353999982
  9
$ORTHOMODE
 70
     0
  9
$REGENMODE
 70
     1
  9
$FILLMODE
 70
     1
  9
$QTEXTMODE
 70
     0
  9
$MIRRTEXT
 70
     0
  9
$DRAGMODE
 70
     2
  9
$LTSCALE
 40
0.6431102362
  9
$OSMODE
 70
  4095
  9
$ATTMODE
 70
     1
  9
$TEXTSIZE
 40
0.2
  9
$TRACEWID
 40
0.05
  9
$TEXTSTYLE
  7
STANDARD
  9
$CLAYER
  8
0
  9
$CELTYPE
  6
BYLAYER
  9
$CECOLOR
 62
   256
  9
$DIMSCALE
 40
1.0
  9
$DIMASZ
 40
0.1875
  9
$DIMEXO
 40
0.0625
  9
$DIMDLI
 40
0.4443307087
  9
$DIMRND
 40
0.0
  9
$DIMDLE
 40
0.0
  9
$DIMEXE
 40
0.125
  9
$DIMTP
 40
0.01
  9
$DIMTM
 40
0.01
  9
$DIMTXT
 40
1.0
  9
$DIMCEN
 40
0.1052362205
  9
$DIMTSZ
 40
0.0
  9
$DIMTOL
 70
     1
  9
$DIMLIM
 70
     0
  9
$DIMTIH
 70
     1
  9
$DIMTOH
 70
     1
  9
$DIMSE1
 70
     0
  9
$DIMSE2
 70
     0
  9
$DIMTAD
 70
     0
  9
$DIMZIN
 70
     0
  9
$DIMBLK
  1

  9
$DIMASO
 70
     1
  9
$DIMSHO
 70
     1
  9
$DIMPOST
  1
\X
  9
$DIMAPOST
  1

  9
$DIMALT
 70
     1
  9
$DIMALTD
 70
     2
  9
$DIMALTF
 40
25.3999999999999986
  9
$DIMLFAC
 40
1.0
  9
$DIMTOFL
 70
     0
  9
$DIMTVP
 40
0.0
  9
$DIMTIX
 70
     0
  9
$DIMSOXD
 70
     0
  9
$DIMSAH
 70
     0
  9
$DIMBLK1
  1

  9
$DIMBLK2
  1

  9
$DIMSTYLE
  2
STANDARD
  9
$DIMCLRD
 70
     0
  9
$DIMCLRE
 70
     0
  9
$DIMCLRT
 70
     0
  9
$DIMTFAC
 40
1.0
  9
$DIMGAP
 40
0.09
  9
$LUNITS
 70
     2
  9
$LUPREC
 70
     4
  9
$SKETCHINC
 40
0.1
  9
$FILLETRAD
 40
0.0
  9
$AUNITS
 70
     0
  9
$AUPREC
 70
     0
  9
$MENU
  1
.
  9
$ELEVATION
 40
0.0
  9
$PELEVATION
 40
0.0
  9
$THICKNESS
 40
0.0
  9
$LIMCHECK
 70
     0
  9
$BLIPMODE
 70
     0
  9
$CHAMFERA
 40
0.0
  9
$CHAMFERB
 40
0.0
  9
$SKPOLY
 70
     0
  9
$TDCREATE
 40
2457704.4687268519774079
  9
$TDUPDATE
 40
2459609.8554398152045906
  9
$TDINDWG
 40
0.0550896296
  9
$TDUSRTIMER
 40
0.0550896296
  9
$USRTIMER
 70
     1
  9
$ANGBASE
 50
0.0
  9
$ANGDIR
 70
     0
  9
$PDMODE
 70
     0
  9
$PDSIZE
 40
0.3125
  9
$PLINEWID
 40
0.0
  9
$COORDS
 70
     1
  9
$SPLFRAME
 70
     0
  9
$SPLINETYPE
 70
     6
  9
$SPLINESEGS
 70
     8
  9
$ATTDIA
 70
     1
  9
$ATTREQ
 70
     1
  9
$HANDLING
 70
     1
  9
$HANDSEED
  5
ACF6
  9
$SURFTAB1
 70
     6
  9
$SURFTAB2
 70
     6
  9
$SURFTYPE
 70
     6
  9
$SURFU
 70
     6
  9
$SURFV
 70
     6
  9
$UCSNAME
  2

  9
$UCSORG
 10
0.0
 20
0.0
 30
0.0
  9
$UCSXDIR
 10
1.0
 20
0.0
 30
0.0
  9
$UCSYDIR
 10
0.0
 20
1.0
 30
0.0
  9
$PUCSNAME
  2

  9
$PUCSORG
 10
0.0
 20
0.0
 30
0.0
  9
$PUCSXDIR
 10
1.0
 20
0.0
 30
0.0
  9
$PUCSYDIR
 10
0.0
 20
1.0
 30
0.0
  9
$USERI1
 70
     0
  9
$USERI2
 70
     0
  9
$USERI3
 70
     0
  9
$USERI4
 70
     0
  9
$USERI5
 70
     0
  9
$USERR1
 40
0.0
  9
$USERR2
 40
0.0
  9
$USERR3
 40
0.0
  9
$USERR4
 40
0.0
  9
$USERR5
 40
0.0
  9
$WORLDVIEW
 70
     1
  9
$SHADEDGE
 70
     3
  9
$SHADEDIF
 70
    70
  9
$TILEMODE
 70
     1
  9
$MAXACTVP
 70
    64
  9
$PLIMCHECK
 70
     0
  9
$PEXTMIN
 10
1.0000000000000000E+20
 20
1.0000000000000000E+20
 30
1.0000000000000000E+20
  9
$PEXTMAX
 10
-1.0000000000000000E+20
 20
-1.0000000000000000E+20
 30
-1.0000000000000000E+20
  9
$PLIMMIN
 10
0.0
 20
0.0
  9
$PLIMMAX
 10
12.0
 20
9.0
  9
$UNITMODE
 70
     0
  9
$VISRETAIN
 70
     1
  9
$PLINEGEN
 70
     0
  9
$PSLTSCALE
 70
     1
  0
ENDSEC
  0
SECTION
  2
TABLES
  0
TABLE
  2
VPORT
 70
     1
  0
VPORT
  2
*ACTIVE
 70
     0
 10
0.0
 20
0.0
 11
1.0
 21
1.0
 12
-52.7847987870917308
 22
52.6900071456820314
 13
0.0
 23
0.0
 14
1.0
 24
1.0
 15
0.0
 25
0.0
 16
-0.0000000000000067
 26
0.0
 36
29.7687812281221298
 17
3.1812088489532471
 27
-4.088660444640654
 37
0.0
 40
8.2215730626671757
 41
2.2831541218637992
 42
50.0
 43
0.0
 44
0.0
 50
0.0
 51
0.0
 71
     0
 72
   100
 73
     1
 74
     1
 75
     0
 76
     0
 77
     0
 78
     0
  0
ENDTAB
  0
TABLE
  2
LTYPE
 70
     2
  0
LTYPE
  2
CONTINUOUS
 70
     0
  3
Solid line
 72
    65
 73
     0
 40
0.0
  0
LTYPE
  2
PHANTOM2
 70
     0
  3
___ _ _ ___ _ _ ___ _ _ ___ _ _
 72
    65
 73
     6
 40
1.25
 49
0.625
 49
-0.125
 49
0.125
 49
-0.125
 49
0.125
 49
-0.125
  0
ENDTAB
  0
TABLE
  2
LAYER
 70
     2
  0
LAYER
  2
0
 70
     0
 62
     7
  6
CONTINUOUS
  0
LAYER
  2
DEFPOINTS
 70
     0
 62
     7
  6
CONTINUOUS
  0
ENDTAB
  0
TABLE
  2
STYLE
 70
     1
  0
STYLE
  2
STANDARD
 70
     0
 40
0.0
 41
0.8
 50
0.0
 71
     0
 42
0.2
  3
txt
  4

  0
ENDTAB
  0
TABLE
  2
VIEW
 70
     0
  0
ENDTAB
  0
TABLE
  2
UCS
 70
     0
  0
ENDTAB
  0
TABLE
  2
APPID
 70
     8
  0
APPID
  2
ACAD
 70
     0
  0
APPID
  2
ACAD_DSTYLE_DIMJAG
 70
     0
  0
APPID
  2
ACAD_DSTYLE_DIMTALN
 70
     0
  0
APPID
  2
ACAD_NAV_VCDISPLAY
 70
     0
  0
APPID
  2
ACAD_EXEMPT_FROM_CAD_STANDARDS
 70
     0
  0
APPID
  2
ACAD_MLEADERVER
 70
     0
  0
APPID
  2
ACDBATTR
 70
     0
  0
APPID
  2
ACAD_DSTYLE_DIMRADIAL_EXTENSION
 70
     0
  0
ENDTAB
  0
TABLE
  2
DIMSTYLE
 70
     1
  0
DIMSTYLE
  2
STANDARD
 70
     0
  3

  4

  5

  6

  7

 40
1.0
 41
0.1875
 42
0.0625
 43
0.38
 44
0.125
 45
0.0
 46
0.0
 47
0.01
 48
0.01
140
0.15625
141
0.09
142
0.0
143
25.3999999999999986
144
1.0
145
0.0
146
1.0
147
0.09
 71
     1
 72
     0
 73
     1
 74
     1
 75
     0
 76
     0
 77
     0
 78
     4
170
     0
171
     2
172
     0
173
     0
174
     0
175
     0
176
     0
177
     0
178
     0
  0
ENDTAB
  0
ENDSEC
  0
SECTION
  2
BLOCKS
  0
BLOCK
  8
0
  2
$MODEL_SPACE
 70
     0
 10
0.0
 20
0.0
 30
0.0
  3
$MODEL_SPACE
  1

  0
ENDBLK
  5
21
  8
0
  0
BLOCK
 67
     1
  8
0
  2
$PAPER_SPACE
 70
     0
 10
0.0
 20
0.0
 30
0.0
  3
$PAPER_SPACE
  1

  0
ENDBLK
  5
1D
 67
     1
  8
0
  0
ENDSEC
  0
SECTION
  2
ENTITIES
  0
ATTDEF
  5
A3E4
  8
DEFPOINTS
 10
-49.601320953888461
 20
52.6781616259123524
 30
0.0
 40
0.001
  1
TS24820-4G
  3

  2
MODELNUMBER
 70
     0
1001
ACDBATTR
1070
     0
1070
     1
  0
ATTDEF
  5
A3E5
  8
DEFPOINTS
 10
-49.601320953888461
 20
52.6764949592456873
 30
0.0
 40
0.001
  1

  3

  2
TRADENAME
 70
     0
1001
ACDBATTR
1070
     0
1070
     1
  0
ATTDEF
  5
A3E6
  8
DEFPOINTS
 10
-49.601320953888461
 20
52.6748282925790221
 30
0.0
 40
0.001
  1
BATH AND SHOWER TRIM
  3

  2
PRODUCT
 70
     0
1001
ACDBATTR
1070
     0
1070
     1
  0
LINE
  5
A894
  8
0
 10
-52.6148338456161966
 20
52.6734153616370904
 30
0.0
 11
-46.5894746659161925
 21
52.6734153616370904
 31
0.0
  0
LINE
  5
A895
  8
0
 10
-50.5326516644746704
 20
52.4019235632370979
 30
0.0
 11
-48.6716568451281617
 21
52.4019235632370979
 31
0.0
  0
LINE
  5
A896
  8
0
 10
-50.029463841016188
 20
51.8223532562371005
 30
0.0
 11
-49.6021542548014267
 21
51.8223532562371005
 31
0.0
  0
LINE
  5
A897
  8
0
 10
-50.0037069910732797
 20
48.2511882245194812
 30
0.0
 11
-50.0036542558162012
 21
49.0736707726371009
 31
0.0
  0
ARC
  5
A898
  8
0
 10
-63.8343749713154196
 20
49.0745575593711365
 30
0.0
 40
13.8307207439283495
 50
359.9963263565098828
 51
2.1778570007103051
  0
ARC
  5
A899
  8
0
 10
-505.1123538317341968
 20
57.1519115848220878
 30
0.0
 40
455.1613608449579829
 50
359.0493391862220847
 51
359.1278061654155067
  0
LINE
  5
A89A
  8
0
 10
-50.0037290571122313
 20
50.2234152121370983
 30
0.0
 11
-50.0037290597963278
 21
51.8223532562371005
 31
0.0
  0
ARC
  5
A89B
  8
0
 10
-49.6813395098022994
 20
48.334726295947398
 30
0.0
 40
0.3583901636717467
 50
220.9582594030181042
 51
244.8843078935277902
  0
ARC
  5
A89C
  8
0
 10
-49.7946280663833321
 20
48.2363908624705502
 30
0.0
 40
0.2083763158799766
 50
187.9183412335218861
 51
220.9582594030163989
  0
ARC
  5
A89D
  8
0
 10
-49.7184299027195991
 20
48.2469890943698232
 30
0.0
 40
0.2853079911842139
 50
179.1566968696407969
 51
187.9183412335218861
  0
ARC
  5
A89E
  8
0
 10
-49.7897341171311467
 20
48.132566453208419
 30
0.0
 40
0.24465386574433
 50
150.9969963048920931
 51
163.0088603590500043
  0
ARC
  5
A89F
  8
0
 10
-49.6582075883169693
 20
48.1172808268275389
 30
0.0
 40
0.375661826237435
 50
166.643822649896606
 51
175.8692811899740036
  0
ARC
  5
A8A0
  8
0
 10
-49.6641473308203771
 20
48.1537492763475328
 30
0.0
 40
0.3688662432249792
 50
181.4616063296761865
 51
189.633333704658412
  0
ARC
  5
A8A1
  8
0
 10
-49.7941453084287602
 20
48.1450937565143988
 30
0.0
 40
0.2396179499278722
 50
192.7961818788189134
 51
216.7575540665031895
  0
ARC
  5
A8A2
  8
0
 10
-49.7027898680431335
 20
48.2133308621487728
 30
0.0
 40
0.3536447848107531
 50
216.7575540665031895
 51
239.018150194735
  0
ARC
  5
A8A3
  8
0
 10
-49.6261015849695681
 20
48.3410532282791578
 30
0.0
 40
0.5026216137832997
 50
239.018150194735
 51
255.8458889688670865
  0
ARC
  5
A8A4
  8
0
 10
-49.6021480267637713
 20
48.4360365928256584
 30
0.0
 40
0.6005788110241909
 50
255.8458889688670865
 51
269.9994058393900218
  0
ARC
  5
A8A5
  8
0
 10
-49.8088084401735287
 20
48.2011998943769271
 30
0.0
 40
0.1923185190239868
 50
178.0677005869983986
 51
200.4981455305924101
  0
ARC
  5
A8A6
  8
0
 10
-49.772121689404841
 20
48.2149151550306385
 30
0.0
 40
0.2314851637202522
 50
200.4981455305920122
 51
221.8926819470156033
  0
ARC
  5
A8A7
  8
0
 10
-49.6977829053714615
 20
48.2815983944127112
 30
0.0
 40
0.3313496179872666
 50
221.8926819470150917
 51
239.168015592630212
  0
ARC
  5
A8A8
  8
0
 10
-49.6398953120231283
 20
48.3785826005085724
 30
0.0
 40
0.4442961083962348
 50
239.168015592630212
 51
244.3235613417531056
  0
LINE
  5
A8A9
  8
0
 10
-49.8324037083161926
 20
47.9781583888370875
 30
0.0
 11
-49.8334572912161917
 21
48.0102209955370967
 31
0.0
  0
ARC
  5
A8AA
  8
0
 10
-49.7924330966984172
 20
48.1874811548720103
 30
0.0
 40
0.2083469088122146
 50
179.4680918689813041
 51
202.5722206412538071
  0
ARC
  5
A8AB
  8
0
 10
-49.7698400087874973
 20
48.1968729001695309
 30
0.0
 40
0.232814285072948
 50
202.5722206412538071
 51
226.4299502481034949
  0
ARC
  5
A8AC
  8
0
 10
-49.6684449968483221
 20
48.3034596619130028
 30
0.0
 40
0.3799254206987215
 50
226.4299502481038076
 51
244.2959146016970067
  0
ARC
  5
A8AD
  8
0
 10
-49.6099282145782112
 20
48.4250263709768802
 30
0.0
 40
0.5148427233691674
 50
244.2959146016964951
 51
270.8672039812876164
  0
ARC
  5
A8AE
  8
0
 10
-49.6134586407421025
 20
48.3673571814617915
 30
0.0
 40
0.5076290328621874
 50
251.0994776274347942
 51
271.2760246304592897
  0
ARC
  5
A8AF
  8
0
 10
-49.6425057422883995
 20
48.2825200643609094
 30
0.0
 40
0.4179570163451534
 50
232.3480471207849121
 51
251.0994776274343963
  0
ARC
  5
A8B0
  8
0
 10
-49.716207586991743
 20
48.1869955716395779
 30
0.0
 40
0.2973050763593241
 50
211.3182185628292018
 51
232.3480471207861058
  0
ARC
  5
A8B1
  8
0
 10
-49.8152146776741205
 20
48.1267551889316465
 30
0.0
 40
0.181411557497458
 50
188.9860639587492983
 51
211.3182185628286049
  0
ARC
  5
A8B2
  8
0
 10
-49.5536836838270673
 20
48.1681124236473224
 30
0.0
 40
0.4461923755450421
 50
180.0023327651421141
 51
188.9860639587492983
  0
ARC
  5
A8B3
  8
0
 10
-49.8088580968747081
 20
48.1518130257089894
 30
0.0
 40
0.189546795810853
 50
178.7847964397645057
 51
194.2702064660597898
  0
ARC
  5
A8B4
  8
0
 10
-49.7903280995862403
 20
48.1565260025975235
 30
0.0
 40
0.2086667579097262
 50
194.2702064660593066
 51
212.3396442438381939
  0
ARC
  5
A8B5
  8
0
 10
-49.7296546098828571
 20
48.1949409752430427
 30
0.0
 40
0.2804788911195412
 50
212.3396442438379097
 51
237.4410823515457878
  0
ARC
  5
A8B6
  8
0
 10
-49.6293197959903623
 20
48.3520782721477289
 30
0.0
 40
0.4669170979263862
 50
237.4410823515457878
 51
256.171673996781692
  0
ARC
  5
A8B7
  8
0
 10
-49.6112733078389425
 20
48.4484423827805415
 30
0.0
 40
0.5648284341537357
 50
256.7305010202031781
 51
270.9250702005577978
  0
ARC
  5
A8B8
  8
0
 10
-49.7093273484951297
 20
48.1135536240825985
 30
0.0
 40
0.3035966013770222
 50
163.9557270879402893
 51
177.8089523971237895
  0
ARC
  5
A8B9
  8
0
 10
-49.8078332137122004
 20
48.1233568613315228
 30
0.0
 40
0.2048895735626313
 50
179.1571130051640921
 51
179.1836558683824023
  0
ARC
  5
A8BA
  8
0
 10
-49.7340770259307234
 20
48.1371286358897805
 30
0.0
 40
0.2788818824437141
 50
182.4595604046452024
 51
198.7443419779621934
  0
ARC
  5
A8BB
  8
0
 10
-49.7554153584799792
 20
48.1471441202065975
 30
0.0
 40
0.2624030547942453
 50
202.3147728474718008
 51
218.0085602470421975
  0
ARC
  5
A8BC
  8
0
 10
-49.7086414068122409
 20
48.1836991915634769
 30
0.0
 40
0.3217669815218624
 50
218.0085602470427943
 51
241.4925555896404035
  0
ARC
  5
A8BD
  8
0
 10
-49.5964032347616026
 20
48.39035215398156
 30
0.0
 40
0.5569325702916464
 50
241.4925555896404035
 51
258.1389050432975978
  0
ARC
  5
A8BE
  8
0
 10
-49.8051186347479415
 20
48.1025352662070205
 30
0.0
 40
0.1905578362102936
 50
178.7111460546954049
 51
202.1063546131123871
  0
ARC
  5
A8BF
  8
0
 10
-49.7675592416053192
 20
48.1177914069667807
 30
0.0
 40
0.2310974198801259
 50
202.1063546131123871
 51
219.4766254372555068
  0
ARC
  5
A8C0
  8
0
 10
-49.5759395950396993
 20
48.2756192028193993
 30
0.0
 40
0.4793466939850683
 50
219.4766254372555068
 51
224.9428422382864881
  0
ARC
  5
A8C1
  8
0
 10
-49.807090128762411
 20
48.0749920238554083
 30
0.0
 40
0.2052978952947784
 50
159.488731150769496
 51
172.5858344268517044
  0
LINE
  5
A8C2
  8
0
 10
-50.6536044385364903
 20
52.4848823010371035
 30
0.0
 11
-48.5507040711866722
 21
52.4848823010371035
 31
0.0
  0
LINE
  5
A8C3
  8
0
 10
-46.5894746659161925
 20
52.6734153616370904
 30
0.0
 11
-46.6012346997567519
 21
52.3141186686730109
 31
0.0
  0
ARC
  5
A8C4
  8
0
 10
-46.6612025864885922
 20
52.316081459833903
 30
0.0
 40
0.0599999999018633
 50
307.806747207113176
 51
358.1253380400419815
  0
LINE
  5
A8C5
  8
0
 10
-46.6244225806188695
 20
52.2686764900897032
 30
0.0
 11
-46.7103865270706322
 21
52.201979802545317
 31
0.0
  0
ARC
  5
A8C6
  8
0
 10
-46.7471665333960331
 20
52.2493847728768301
 30
0.0
 40
0.0600000006452331
 50
270.7775054659832108
 51
307.8067472071128918
  0
LINE
  5
A8C7
  8
0
 10
-46.7463523565556471
 20
52.1893902965185887
 30
0.0
 11
-49.0562745931866715
 21
52.1893902965371126
 31
0.0
  0
ARC
  5
A8C8
  8
0
 10
-46.7090859831239271
 20
45.0182388473048789
 30
0.0
 40
7.171248279108779
 50
90.297747354094497
 51
94.629462917901094
  0
ARC
  5
A8C9
  8
0
 10
-47.1308722365684716
 20
49.9225545857798565
 30
0.0
 40
2.2490241211616162
 50
94.0033667560140316
 51
105.4413752296138966
  0
ARC
  5
A8CA
  8
0
 10
-47.4966104086138188
 20
51.2804326972392985
 30
0.0
 40
0.8428302727474992
 50
106.0533342400453023
 51
145.9503570637673135
  0
ARC
  5
A8CB
  8
0
 10
-47.0453794824080731
 20
50.9755044280556575
 30
0.0
 40
1.3874315930836081
 50
145.9503570637673135
 51
148.4280808397338944
  0
ARC
  5
A8CC
  8
0
 10
-48.2763745807380289
 20
51.7319862613798804
 30
0.0
 40
0.0574260802745598
 50
274.6638396771812154
 51
328.4280808397339229
  0
ARC
  5
A8CD
  8
0
 10
-48.1029325998235677
 20
49.6059406959280693
 30
0.0
 40
2.075682418400759
 50
94.6638396771816275
 51
96.373292861544499
  0
LINE
  5
A8CE
  8
0
 10
-48.3333451745866611
 20
51.6687949194370972
 30
0.0
 11
-49.2005794506866678
 21
51.6687949194370972
 31
0.0
  0
LINE
  5
A8CF
  8
0
 10
-48.3546363796862622
 20
51.6687949194370972
 30
0.0
 11
-48.3544161673866668
 21
51.6454443506370993
 31
0.0
  0
LINE
  5
A8D0
  8
0
 10
-48.3544161673866668
 20
51.6454443506370993
 30
0.0
 11
-48.3544161673866668
 21
51.4709452927371132
 31
0.0
  0
ARC
  5
A8D1
  8
0
 10
-48.4144161665790378
 20
51.4709452927371132
 30
0.0
 40
0.0599999991923772
 50
335.6535803333013064
 51
0.0
  0
ARC
  5
A8D2
  8
0
 10
-42.0247866198128435
 20
48.6941353179214218
 30
0.0
 40
6.9069314516568667
 50
156.5186116231473079
 51
163.077751239650695
  0
ARC
  5
A8D3
  8
0
 10
-369.1889815529553971
 20
142.9691484256300953
 30
0.0
 40
333.5702538218299082
 50
343.8068985982906725
 51
343.9427825294966965
  0
ARC
  5
A8D4
  8
0
 10
-48.8812656157995207
 20
49.9529743599057809
 30
0.0
 40
0.0300890339847392
 50
270.1402890612455963
 51
343.8068985982894787
  0
LINE
  5
A8D5
  8
0
 10
-48.8811919426921904
 20
49.9228854161156121
 30
0.0
 11
-49.1960096233289619
 21
49.9229424607980619
 31
0.0
  0
ARC
  5
A8D6
  8
0
 10
-48.8823873672747169
 20
49.9027820827311075
 30
0.0
 40
0.0201598334899718
 50
344.6457034158211741
 51
85.7879985723498635
  0
ARC
  5
A8D7
  8
0
 10
-63.2362646291577093
 20
53.8441828693505684
 30
0.0
 40
14.9053347605765207
 50
343.231021307325193
 51
344.6457034158211741
  0
ARC
  5
A8D8
  8
0
 10
-34.1341432494398092
 20
45.0749244550205717
 30
0.0
 40
15.4892924280752897
 50
163.2310213073257046
 51
164.9683435976104136
  0
ARC
  5
A8D9
  8
0
 10
-47.4867507283248216
 20
48.6803944869265877
 30
0.0
 40
1.658596646456681
 50
165.626983466694611
 51
177.2824819542919954
  0
ARC
  5
A8DA
  8
0
 10
-47.9026196951816772
 20
48.7488805658393574
 30
0.0
 40
1.2409039847503489
 50
179.5312934584981122
 51
192.6543534618967044
  0
ARC
  5
A8DB
  8
0
 10
-51.1628731860319093
 20
48.0257514163831019
 30
0.0
 40
2.0985889258333672
 50
7.6178506401440123
 51
12.4180155388381994
  0
ARC
  5
A8DC
  8
0
 10
-49.3149118824024271
 20
48.3079452068207118
 30
0.0
 40
0.2321404393056842
 50
347.5588768915976061
 51
359.0141886690357751
  0
ARC
  5
A8DD
  8
0
 10
-49.1575894668038131
 20
48.2696609748133909
 30
0.0
 40
0.0703512051587502
 50
300.9300007391399845
 51
350.4042503125551207
  0
ARC
  5
A8DE
  8
0
 10
-34.4206911849571782
 20
49.1431122550548167
 30
0.0
 40
14.3347948440066499
 50
174.5584767423852952
 51
176.7320524252660903
  0
ARC
  5
A8DF
  8
0
 10
-30.7164901435118409
 20
48.9316083947830904
 30
0.0
 40
18.0450292353025006
 50
176.7320524252660903
 51
179.3234333704934045
  0
ARC
  5
A8E0
  8
0
 10
-42.8374618556233102
 20
48.9339245069162132
 30
0.0
 40
5.9265481942308798
 50
177.9620136771422949
 51
186.2488420157893927
  0
ARC
  5
A8E1
  8
0
 10
-49.5972293553159602
 20
46.3390469868943526
 30
0.0
 40
1.815334291953971
 50
269.8445596250276139
 51
293.3792793432056101
  0
ARC
  5
A8E2
  8
0
 10
-49.375789379409099
 20
45.8268212408719435
 30
0.0
 40
1.257292288321775
 50
293.3792793432056101
 51
321.0735665271237167
  0
ARC
  5
A8E3
  8
0
 10
-49.0062111712478909
 20
45.5283275969169523
 30
0.0
 40
0.78222754807138
 50
321.0735665271237167
 51
346.5963298479342143
  0
ARC
  5
A8E4
  8
0
 10
-49.5954589805531612
 20
45.606566963261578
 30
0.0
 40
1.3748926474417
 50
349.1177486121512743
 51
358.3935774817509241
  0
ARC
  5
A8E5
  8
0
 10
-66.3351919619442896
 20
45.4312710747838508
 30
0.0
 40
18.1146014675460094
 50
0.4325471838464375
 51
1.84219931595873
  0
ARC
  5
A8E6
  8
0
 10
-51.1818701673782712
 20
45.9058498264222905
 30
0.0
 40
2.9538830867135819
 50
2.0904576394175192
 51
6.7522636958808979
  0
ARC
  5
A8E7
  8
0
 10
-49.6393776976022068
 20
46.0239406823614985
 30
0.0
 40
1.4096625503036151
 50
9.3580741686698907
 51
29.21822427320431
  0
ARC
  5
A8E8
  8
0
 10
-49.6280088826312209
 20
46.0305904041524414
 30
0.0
 40
1.396494271343655
 50
29.2077983971306487
 51
50.3239824771536277
  0
ARC
  5
A8E9
  8
0
 10
-49.6219455470400277
 20
46.0364094469010894
 30
0.0
 40
1.3881447625586281
 50
50.3632600717133627
 51
58.1207322829099269
  0
ARC
  5
A8EA
  8
0
 10
-53.5217388193876218
 20
44.9558338952709917
 30
0.0
 40
5.8379111261982137
 50
34.2161736438215485
 51
34.8147001073994176
  0
ARC
  5
A8EB
  8
0
 10
-49.4328463204430335
 20
47.7363300034753877
 30
0.0
 40
0.89319672841292
 50
19.1147851298354787
 51
34.2161736438215485
  0
ARC
  5
A8EC
  8
0
 10
-49.7918562076875375
 20
47.6185144774275599
 30
0.0
 40
1.2710078104622551
 50
0.8364079302565064
 51
18.8333873592492402
  0
ARC
  5
A8ED
  8
0
 10
-49.7001055770443685
 20
47.6840789745856313
 30
0.0
 40
1.1800585302029509
 50
334.4864664007077977
 51
357.7168601239030181
  0
ARC
  5
A8EE
  8
0
 10
-50.3426103038789208
 20
48.0896876972044325
 30
0.0
 40
1.9366745125230209
 50
328.2447800964491194
 51
331.8432430381427025
  0
LINE
  5
A8EF
  8
0
 10
-48.5282260731304333
 20
52.6734153616370904
 30
0.0
 11
-48.5282260731304333
 21
52.5316224869371027
 31
0.0
  0
ARC
  5
A8F0
  8
0
 10
-48.5887350534367783
 20
52.5319470054242217
 30
0.0
 40
0.0605098505200925
 50
308.9402006307323063
 51
359.6927173235358737
  0
LINE
  5
A8F1
  8
0
 10
-48.5507040711608369
 20
52.4848823010578798
 30
0.0
 11
-48.6374156493354235
 21
52.4150880979001883
 31
0.0
  0
ARC
  5
A8F2
  8
0
 10
-48.6750368536349711
 20
52.4618282833317906
 30
0.0
 40
0.0599999995594031
 50
273.2293799828843817
 51
308.8306097578985145
  0
LINE
  5
A8F3
  8
0
 10
-49.1748446685866725
 20
51.8223532562371005
 30
0.0
 11
-49.6021542548014267
 21
51.8223532562371005
 31
0.0
  0
ARC
  5
A8F4
  8
0
 10
-49.1748778305634104
 20
51.8325946803468085
 30
0.0
 40
0.0102414777992121
 50
270.1855244590186089
 51
291.7270245628629937
  0
ARC
  5
A8F5
  8
0
 10
-49.1941243498555068
 20
51.8808927244681968
 30
0.0
 40
0.0622331076141402
 50
291.7270245628602083
 51
355.4327129884750889
  0
ARC
  5
A8F6
  8
0
 10
-48.377466328878711
 20
51.8593132408607715
 30
0.0
 40
0.7548056189356011
 50
154.0682158582818033
 51
178.7380130826076936
  0
ARC
  5
A8F7
  8
0
 10
-48.727931470923231
 20
52.0178284481573669
 30
0.0
 40
0.3704627832281775
 50
126.8905156857170056
 51
152.412580449344091
  0
ARC
  5
A8F8
  8
0
 10
-48.6953135298191526
 20
51.9611963671674886
 30
0.0
 40
0.4354081949898584
 50
99.3064679875655116
 51
125.8498054668960009
  0
ARC
  5
A8F9
  8
0
 10
-48.6355750955199468
 20
51.6888342516643817
 30
0.0
 40
0.7140015818827476
 50
92.8966502845885458
 51
100.5027841924190994
  0
LINE
  5
A8FA
  8
0
 10
-48.3544161673866668
 20
51.4709452927371132
 30
0.0
 11
-49.2005794506866678
 21
51.4709452927371132
 31
0.0
  0
ARC
  5
A8FB
  8
0
 10
-49.6019860382278566
 20
47.4840178844480221
 30
0.0
 40
0.9886681781079877
 50
269.9902633306459165
 51
283.1050702851986216
  0
ARC
  5
A8FC
  8
0
 10
-49.3264932493882782
 20
46.3006325482124268
 30
0.0
 40
0.2263615049532998
 50
94.1193554780716255
 51
103.1050702851985932
  0
ARC
  5
A8FD
  8
0
 10
-49.3577048580504183
 20
46.734004010774072
 30
0.0
 40
0.2081324410092323
 50
274.1193554780716113
 51
287.6500109634292244
  0
ARC
  5
A8FE
  8
0
 10
-49.2761949986214631
 20
46.4778284142477318
 30
0.0
 40
0.0606979766145092
 50
82.778217375368655
 51
107.650010963430006
  0
ARC
  5
A8FF
  8
0
 10
-49.2657502674092314
 20
46.5602549480010879
 30
0.0
 40
0.0223876772415483
 50
262.7782173753628854
 51
326.6028189364619152
  0
ARC
  5
A900
  8
0
 10
-49.2233956968717976
 20
46.5323302441371283
 30
0.0
 40
0.0283439571821606
 50
107.4963955063784056
 51
146.6028189364600109
  0
ARC
  5
A901
  8
0
 10
-49.2721029855150334
 20
46.6868439213083803
 30
0.0
 40
0.1336649203522398
 50
287.4963955063793719
 51
299.2967642123736027
  0
ARC
  5
A902
  8
0
 10
-49.1833520142396097
 20
46.5193115670130268
 30
0.0
 40
0.0560557162931061
 50
88.1307275240174022
 51
114.6105337556683992
  0
ARC
  5
A903
  8
0
 10
-49.1809800456889121
 20
46.5979058791064986
 30
0.0
 40
0.0225749685489424
 50
268.6205085740074878
 51
340.9232154397412273
  0
ARC
  5
A904
  8
0
 10
-49.135560814174859
 20
46.5744570912440921
 30
0.0
 40
0.0289534504064698
 50
117.424992109040403
 51
146.2861135624017948
  0
ARC
  5
A905
  8
0
 10
-49.5071297321754784
 20
47.2292626814181133
 30
0.0
 40
0.7239513724779599
 50
299.6585844553654283
 51
301.7523022052384931
  0
ARC
  5
A906
  8
0
 10
-49.0990823635961888
 20
46.5670415877704471
 30
0.0
 40
0.0539113083603362
 50
93.8223907258892069
 51
120.139613324347593
  0
ARC
  5
A907
  8
0
 10
-49.1040801088088372
 20
46.6425336290775974
 30
0.0
 40
0.0217460177544734
 50
273.7012945305825156
 51
348.275830714296319
  0
ARC
  5
A908
  8
0
 10
-49.0629356801424734
 20
46.6316610136763217
 30
0.0
 40
0.0208748029107841
 50
124.0794904706215931
 51
161.9909140904414926
  0
ARC
  5
A909
  8
0
 10
-49.1481282253446281
 20
46.745664084341108
 30
0.0
 40
0.121470362562136
 50
307.2323582266083122
 51
328.7612854635073063
  0
ARC
  5
A90A
  8
0
 10
-49.4062227210185227
 20
47.074918199719292
 30
0.0
 40
0.5337318596166362
 50
312.6996989371023119
 51
338.0599572074655725
  0
ARC
  5
A90B
  8
0
 10
-49.2640567501959765
 20
47.0072258694380665
 30
0.0
 40
0.3766940821949919
 50
339.5311534212023048
 51
0.4981215374464779
  0
ARC
  5
A90C
  8
0
 10
-48.8109269456818495
 20
47.0106111291351993
 30
0.0
 40
0.0764500377819943
 50
162.6963675402718934
 51
180.082721002304595
  0
ARC
  5
A90D
  8
0
 10
-48.9664180207515898
 20
47.05830502827488
 30
0.0
 40
0.0861926183373133
 50
343.1704561555536088
 51
4.0288496396293167
  0
ARC
  5
A90E
  8
0
 10
-49.0571326321189716
 20
47.0496952386561205
 30
0.0
 40
0.1773018054438349
 50
4.7446597754397848
 51
8.0762132899599361
  0
ARC
  5
A90F
  8
0
 10
-48.8669319241043993
 20
47.073173841950549
 30
0.0
 40
0.014727016001402
 50
140.4564174995497012
 51
174.4255701704221053
  0
ARC
  5
A910
  8
0
 10
-48.8948496887392565
 20
47.0943576465696268
 30
0.0
 40
0.0203394277935363
 50
324.5122361347188757
 51
7.5235631760910078
  0
LINE
  5
A911
  8
0
 10
-48.8746853610866623
 20
47.0970207675371029
 30
0.0
 11
-48.9334361139866729
 21
47.5880023048370973
 31
0.0
  0
ARC
  5
A912
  8
0
 10
-48.9548351770883201
 20
47.5852664074761265
 30
0.0
 40
0.0215729448006559
 50
7.2858096104848373
 51
59.6438297072009505
  0
ARC
  5
A913
  8
0
 10
-48.9333424707519669
 20
47.6219641287176216
 30
0.0
 40
0.0209553889308678
 50
195.0136979365659045
 51
239.6438297071877912
  0
ARC
  5
A914
  8
0
 10
-49.3679796292085697
 20
47.4772021638026587
 30
0.0
 40
0.4371942091650033
 50
18.5842800387393403
 51
20.5366391003564104
  0
ARC
  5
A915
  8
0
 10
-48.9401511143935295
 20
47.6349976791823408
 30
0.0
 40
0.0189429410095122
 50
151.5095516801451936
 51
193.5090109117967074
  0
ARC
  5
A916
  8
0
 10
-48.9701465098405393
 20
47.6499724309658816
 30
0.0
 40
0.0146081441329773
 50
336.0125814614908109
 51
27.4758276178861216
  0
ARC
  5
A917
  8
0
 10
-48.9763129308504404
 20
47.64864924048441
 30
0.0
 40
0.0207568901945541
 50
22.8580868135163087
 51
65.1666130787854456
  0
ARC
  5
A918
  8
0
 10
-48.9555860926812514
 20
47.6949979674493107
 30
0.0
 40
0.0300181359214962
 50
210.5394930495681081
 51
246.4174800512820127
  0
ARC
  5
A919
  8
0
 10
-49.177999329745532
 20
47.5771945748144489
 30
0.0
 40
0.2217026889961525
 50
27.5522534196719704
 51
30.8656623820406395
  0
ARC
  5
A91A
  8
0
 10
-47.9210699906836766
 20
47.8201719038757318
 30
0.0
 40
1.074426879743051
 50
185.8433549337622139
 51
186.9085749032718979
  0
ARC
  5
A91B
  8
0
 10
-49.0107564017080506
 20
47.7086524721198728
 30
0.0
 40
0.0209511636877736
 50
5.8433549337589588
 51
73.8450248261663234
  0
ARC
  5
A91C
  8
0
 10
-48.9960444392957726
 20
47.7594403135178069
 30
0.0
 40
0.0319246027074592
 50
219.1889489766853956
 51
253.8450248261688955
  0
ARC
  5
A91D
  8
0
 10
-49.1457613727689377
 20
47.6373822395583773
 30
0.0
 40
0.1612419927154945
 50
39.1889489766865395
 51
57.9392419678585995
  0
ARC
  5
A91E
  8
0
 10
-48.9731390114667278
 20
47.9129850023979174
 30
0.0
 40
0.1639585031425812
 50
227.9986851633535139
 51
237.9392419678586066
  0
ARC
  5
A91F
  8
0
 10
-49.4367024203459806
 20
47.4126043095667171
 30
0.0
 40
0.518171539674728
 50
46.9305920361802933
 51
51.1870866927191273
  0
ARC
  5
A920
  8
0
 10
-49.4733543187387497
 20
48.0672064071818212
 30
0.0
 40
0.3839422145332185
 50
39.7653435875552717
 51
44.7436576838260578
  0
ARC
  5
A921
  8
0
 10
-49.4226049081771635
 20
48.1094372427138524
 30
0.0
 40
0.3179198990475937
 50
24.1309581862012692
 51
39.7653435875552717
  0
ARC
  5
A922
  8
0
 10
-49.3426161721770171
 20
48.1452698138141173
 30
0.0
 40
0.2302719039846476
 50
16.14828221494896
 51
24.1309581862030917
  0
ARC
  5
A923
  8
0
 10
-49.4252973167226912
 20
48.1213296307147331
 30
0.0
 40
0.3163492182446429
 50
7.8655817751574864
 51
16.1482822149493508
  0
ARC
  5
A924
  8
0
 10
-4358.8612195345904183
 20
48.1347221497730686
 30
0.0
 40
4309.7492952786224123
 50
359.9996024994832737
 51
0.0003975005183642
  0
ARC
  5
A925
  8
0
 10
-71318.9909894449665444
 20
47.6621170344332725
 30
0.0
 40
71269.8790664602565812
 50
0.0001240015903606
 51
0.0003559028198415
  0
ARC
  5
A926
  8
0
 10
-43.9956571343318075
 20
47.816372947181037
 30
0.0
 40
5.1162660173067049
 50
180.0001240015903932
 51
181.5594288606878024
  0
ARC
  5
A927
  8
0
 10
-49.3654747715200912
 20
47.670185618994779
 30
0.0
 40
0.2555411452392962
 50
347.0955164627097247
 51
1.5594288606889981
  0
ARC
  5
A928
  8
0
 10
-49.4394730187961784
 20
47.6871395744573618
 30
0.0
 40
0.3314567378784968
 50
333.1890241688818151
 51
347.0955164627097247
  0
ARC
  5
A929
  8
0
 10
-49.4000638946712911
 20
47.6672231167918596
 30
0.0
 40
0.2873008283053391
 50
314.5910541195476071
 51
333.1890241688818151
  0
ARC
  5
A92A
  8
0
 10
-49.5554133964398886
 20
47.8248061978018626
 30
0.0
 40
0.5085832160372985
 50
296.2360528586384021
 51
314.5910541195476071
  0
ARC
  5
A92B
  8
0
 10
-49.5870206124151025
 20
47.9089558829881099
 30
0.0
 40
0.5981019108519297
 50
280.1466236632992945
 51
295.3883202310830143
  0
ARC
  5
A92C
  8
0
 10
-49.6165916988149789
 20
48.1443216829703076
 30
0.0
 40
0.8350875027902404
 50
270.9905760068032805
 51
279.2988910357451005
  0
ARC
  5
A92D
  8
0
 10
-49.354492216713119
 20
47.5178469041596472
 30
0.0
 40
0.266135935628344
 50
0.2026976452694302
 51
24.9117458953030884
  0
ARC
  5
A92E
  8
0
 10
-49.6020961034370487
 20
47.8592246553405332
 30
0.0
 40
0.7037429189243775
 50
269.9977026408288907
 51
290.6244366113168098
  0
ARC
  5
A92F
  8
0
 10
-49.5311091038083191
 20
47.670611096005139
 30
0.0
 40
0.5022131968448394
 50
290.6244366113168098
 51
313.611431815430592
  0
ARC
  5
A930
  8
0
 10
-49.4069004875192093
 20
47.5402312992099425
 30
0.0
 40
0.3221391238281721
 50
313.611431815430592
 51
343.7574973757207886
  0
ARC
  5
A931
  8
0
 10
-49.3209954004694708
 20
47.5152044452777318
 30
0.0
 40
0.2326627168888693
 50
343.7574973757211865
 51
0.882628520225661
  0
ARC
  5
A932
  8
0
 10
-48.9469263536394479
 20
47.5871702811569506
 30
0.0
 40
0.0136299963512527
 50
324.2472794263164246
 51
358.709265719849725
  0
ARC
  5
A933
  8
0
 10
-48.9198261131947021
 20
47.5663395792031807
 30
0.0
 40
0.020562132014788
 50
141.2623796890061953
 51
187.6150661704083973
  0
ARC
  5
A934
  8
0
 10
-49.0200527185502821
 20
47.5467434783742107
 30
0.0
 40
0.0816087867830125
 50
341.1064307348945022
 51
11.9309939383521701
  0
ARC
  5
A935
  8
0
 10
-48.8674279042796016
 20
47.4941265358386033
 30
0.0
 40
0.0798316336676657
 50
160.8477660233843096
 51
178.2222145601132013
  0
ARC
  5
A936
  8
0
 10
-49.3281595727076905
 20
47.517146200440088
 30
0.0
 40
0.3814919748007448
 50
313.7285289300281192
 51
356.9131762929151819
  0
ARC
  5
A937
  8
0
 10
-48.9878666955875488
 20
47.1659154903475226
 30
0.0
 40
0.1075854561452908
 50
135.3892588790708942
 51
149.6851997043642086
  0
ARC
  5
A938
  8
0
 10
-49.179385371721672
 20
47.2798027615482397
 30
0.0
 40
0.1152423753671847
 50
306.9874617009969029
 51
328.8669468503952089
  0
ARC
  5
A939
  8
0
 10
-49.4801925956919106
 20
47.6666329561892397
 30
0.0
 40
0.6052543687313969
 50
307.2207966141348265
 51
307.7014670273097181
  0
ARC
  5
A93A
  8
0
 10
-49.1006134814968718
 20
47.1648178869088284
 30
0.0
 40
0.0239832600454339
 50
124.1633307938197959
 51
168.7817880255003899
  0
ARC
  5
A93B
  8
0
 10
-49.1384234902854828
 20
47.1733769204672768
 30
0.0
 40
0.0148060040778567
 50
301.7075309251474096
 51
344.7550478037136941
  0
ARC
  5
A93C
  8
0
 10
-49.1464273858877192
 20
47.1850599199324705
 30
0.0
 40
0.0289596631773881
 50
275.8081178678261267
 51
303.0309649262828202
  0
ARC
  5
A93D
  8
0
 10
-49.1413255832957674
 20
47.1094491971070966
 30
0.0
 40
0.0468500635092999
 50
92.6561995034312957
 51
120.4033365297205052
  0
ARC
  5
A93E
  8
0
 10
-49.5612742914133193
 20
47.7992344684471107
 30
0.0
 40
0.7607211243871939
 50
299.8708957017186094
 51
301.3907888601140144
  0
ARC
  5
A93F
  8
0
 10
-49.1680558651938711
 20
47.1139360328765235
 30
0.0
 40
0.0293785695909882
 50
119.2238834809806036
 51
156.4537838340690996
  0
ARC
  5
A940
  8
0
 10
-49.210555648812992
 20
47.1335555126900374
 30
0.0
 40
0.0174494864758383
 50
294.9861544687714741
 51
333.142992850654025
  0
ARC
  5
A941
  8
0
 10
-49.2169142082133177
 20
47.1454764845658616
 30
0.0
 40
0.0309491884599935
 50
270.2889369340553003
 51
296.3341101582466877
  0
ARC
  5
A942
  8
0
 10
-49.2190801442431081
 20
47.0641780099197078
 30
0.0
 40
0.0504031940823346
 50
87.3595240179756587
 51
113.7685279566260022
  0
ARC
  5
A943
  8
0
 10
-49.3450136509161226
 20
47.3238507702766569
 30
0.0
 40
0.2382366189946209
 50
291.2659794988539943
 51
296.3169255060325895
  0
ARC
  5
A944
  8
0
 10
-49.2472526544753109
 20
47.0726661938155928
 30
0.0
 40
0.0313016971628909
 50
111.2659794988553017
 51
147.8706716180371927
  0
ARC
  5
A945
  8
0
 10
-49.2900345415931724
 20
47.1015162212065377
 30
0.0
 40
0.0203409084664152
 50
288.7563812141847848
 51
323.1363202223528219
  0
ARC
  5
A946
  8
0
 10
-49.2947082385876385
 20
47.1130023861908995
 30
0.0
 40
0.0327280874744201
 50
265.0582954567844922
 51
290.0382853774352157
  0
ARC
  5
A947
  8
0
 10
-49.3049500358049073
 20
47.0285989841480614
 30
0.0
 40
0.052326092961093
 50
81.8450061670418165
 51
107.6463173158701068
  0
ARC
  5
A948
  8
0
 10
-49.6020535196835084
 20
47.9583659477006776
 30
0.0
 40
0.9155266620053993
 50
269.9936958264398186
 51
281.9513343261040177
  0
ARC
  5
A949
  8
0
 10
-49.3692878879260135
 20
46.8586977661800788
 30
0.0
 40
0.208506232876368
 50
92.6778488581124265
 51
101.9513343261040035
  0
ARC
  5
A94A
  8
0
 10
-49.3884255057389865
 20
47.2678718011996892
 30
0.0
 40
0.2011151036648081
 50
272.6778488581127817
 51
289.6450486288132993
  0
ARC
  5
A94B
  8
0
 10
-49.3785231642884099
 20
47.499151873503962
 30
0.0
 40
0.2310869093747707
 50
337.4811888766928973
 51
6.9898387397788779
  0
ARC
  5
A94C
  8
0
 10
-49.43232777445089
 20
47.5214591713039667
 30
0.0
 40
0.2893325238867266
 50
315.4085407224731057
 51
337.4811888766928973
  0
ARC
  5
A94D
  8
0
 10
-49.5218481352232516
 20
47.6097119206338917
 30
0.0
 40
0.4150402911769878
 50
296.8128227310457987
 51
315.4085407224736741
  0
ARC
  5
A94E
  8
0
 10
-49.5860281848922284
 20
47.7366962001951265
 30
0.0
 40
0.5573220047989357
 50
280.2195609742955753
 51
296.8128227310457987
  0
ARC
  5
A94F
  8
0
 10
-49.6040855371282206
 20
47.8368585276373395
 30
0.0
 40
0.6590990150144833
 50
270.1678875881614772
 51
280.2195609742955753
  0
ARC
  5
A950
  8
0
 10
-49.4991949681026782
 20
47.5606859821887511
 30
0.0
 40
0.283500600257963
 50
302.1865133250233271
 51
328.5319513379134833
  0
ARC
  5
A951
  8
0
 10
-49.5883802474620197
 20
47.7023837603717809
 30
0.0
 40
0.4509290159955797
 50
286.7602695728398885
 51
302.1865133250233271
  0
ARC
  5
A952
  8
0
 10
-49.5945743956940532
 20
47.7229513026135592
 30
0.0
 40
0.4724090361582335
 50
272.5537272446829888
 51
286.7602695728398885
  0
ARC
  5
A953
  8
0
 10
-49.6102284250497689
 20
48.0739346792060971
 30
0.0
 40
0.823741327983749
 50
270.5616123297498916
 51
272.5537272446829888
  0
ARC
  5
A954
  8
0
 10
-49.1250739347418417
 20
48.1657088594604588
 30
0.0
 40
0.0131944259228679
 50
303.2241604663349221
 51
355.2744608599496132
  0
ARC
  5
A955
  8
0
 10
-49.1084643312308273
 20
48.1356983780394216
 30
0.0
 40
0.0211650327381065
 50
116.3077001109788995
 51
240.5472023530066963
  0
ARC
  5
A956
  8
0
 10
-49.128515108878581
 20
48.1031605463800815
 30
0.0
 40
0.0170892528501679
 50
36.0845177358913034
 51
55.644959553303849
  0
ARC
  5
A957
  8
0
 10
-49.1268696741001207
 20
48.1044149225385809
 30
0.0
 40
0.0150207625148015
 50
5.7373371476191828
 51
35.9144010353583027
  0
ARC
  5
A958
  8
0
 10
-49.3765171582349112
 20
48.1388770204137231
 30
0.0
 40
0.2669374082785886
 50
332.063574030292898
 51
352.4008162813232161
  0
ARC
  5
A959
  8
0
 10
-49.4371854070209693
 20
48.1710486040816193
 30
0.0
 40
0.3356079784412751
 50
308.1213117898349196
 51
332.0635740302935233
  0
ARC
  5
A95A
  8
0
 10
-49.5689937999229429
 20
48.3390213684153665
 30
0.0
 40
0.5491221512666896
 50
297.0895138263744002
 51
308.1213117898349196
  0
ARC
  5
A95B
  8
0
 10
-49.3300027088406523
 20
47.8717809784237929
 30
0.0
 40
0.0243075900584565
 50
256.7675313524355829
 51
297.0895138263736044
  0
ARC
  5
A95C
  8
0
 10
-49.3459845924497316
 20
47.8038151370863176
 30
0.0
 40
0.0455120074225118
 50
76.7675313524347871
 51
147.6477771295625985
  0
ARC
  5
A95D
  8
0
 10
-49.404577307304109
 20
47.8409307048646966
 30
0.0
 40
0.0238469978004369
 50
293.0924203969361201
 51
327.6477771295649859
  0
ARC
  5
A95E
  8
0
 10
-49.6003474930512027
 20
48.4549886849177511
 30
0.0
 40
0.6682545982452709
 50
269.8450890584696822
 51
287.8757531006929185
  0
LINE
  5
A95F
  8
0
 10
-49.3355667780869283
 20
47.8481187708371678
 30
0.0
 11
-49.3355667916866665
 21
47.443063507237099
 31
0.0
  0
ARC
  5
A960
  8
0
 10
-49.339087226703839
 20
47.4430635073552978
 30
0.0
 40
0.0035204350171707
 50
314.8129866768700822
 51
359.9999980763687972
  0
ARC
  5
A961
  8
0
 10
-49.3490898903766535
 20
47.4531316824430078
 30
0.0
 40
0.0177127368089189
 50
295.885187394470222
 51
314.8129866768675242
  0
ARC
  5
A962
  8
0
 10
-49.4761976207599687
 20
47.800962380830839
 30
0.0
 40
0.3879535021120605
 50
287.4606500815880281
 51
290.3386891274732875
  0
ARC
  5
A963
  8
0
 10
-49.316037409236408
 20
47.3173392037658971
 30
0.0
 40
0.1216839867353377
 50
111.0740777669897028
 51
119.8066968882649945
  0
ARC
  5
A964
  8
0
 10
-49.3865756814395525
 20
47.4413764030185305
 30
0.0
 40
0.0210116461955331
 50
285.640426330324317
 51
298.5815336639911948
  0
ARC
  5
A965
  8
0
 10
-49.3822139370330078
 20
47.4262895200380399
 30
0.0
 40
0.0053091299324699
 50
263.8590124625146132
 51
284.2068200971505121
  0
ARC
  5
A966
  8
0
 10
-49.382591146327961
 20
47.4227836216674277
 30
0.0
 40
0.0017829974566186
 50
207.3587368154693138
 51
263.8590124625375779
  0
ARC
  5
A967
  8
0
 10
-49.3821191231319929
 20
47.4230278641346032
 30
0.0
 40
0.0023144673807928
 50
177.8578512847672926
 51
207.3587368154715023
  0
LINE
  5
A968
  8
0
 10
-49.3844319730866701
 20
47.4231143762371019
 30
0.0
 11
-49.3844319730866701
 21
47.828169638537112
 31
0.0
  0
LINE
  5
A969
  8
0
 10
-49.2006015185295809
 20
48.2511882245194812
 30
0.0
 11
-49.2006542537866665
 21
49.0736707726371009
 31
0.0
  0
ARC
  5
A96A
  8
0
 10
-35.3699335382874409
 20
49.0745575593711365
 30
0.0
 40
13.8307207439283495
 50
177.8221429992896958
 51
180.0036736434900888
  0
ARC
  5
A96B
  8
0
 10
405.908045322131386
 20
57.1519115848220878
 30
0.0
 40
455.1613608449579829
 50
180.8721938345844933
 51
180.9506608137778869
  0
LINE
  5
A96C
  8
0
 10
-49.2005794524906293
 20
50.2234152121370983
 30
0.0
 11
-49.2005794498065399
 21
51.8223532562371005
 31
0.0
  0
ARC
  5
A96D
  8
0
 10
-49.4858786068832686
 20
48.2469890943698232
 30
0.0
 40
0.2853079911842139
 50
352.0816587664779718
 51
0.843303130359188
  0
ARC
  5
A96E
  8
0
 10
-49.4145743924717067
 20
48.132566453208419
 30
0.0
 40
0.24465386574433
 50
16.9911396409499709
 51
29.0030036951078714
  0
ARC
  5
A96F
  8
0
 10
-49.5460940205218421
 20
48.1172821744274017
 30
0.0
 40
0.3756548008188093
 50
4.1305901214977512
 51
13.3562205065750703
  0
ARC
  5
A970
  8
0
 10
-49.5401522783807096
 20
48.1537480902978672
 30
0.0
 40
0.3688572698529322
 50
350.3666165748621211
 51
358.538542398235677
  0
ARC
  5
A971
  8
0
 10
-49.4101632011741074
 20
48.1450937565143988
 30
0.0
 40
0.2396179499278722
 50
323.2424459334968105
 51
347.2038181211810866
  0
ARC
  5
A972
  8
0
 10
-49.5015186415597412
 20
48.2133308621487728
 30
0.0
 40
0.3536447848107531
 50
300.9818498052650284
 51
323.2424459334968105
  0
ARC
  5
A973
  8
0
 10
-49.5782069246332924
 20
48.3410532282791578
 30
0.0
 40
0.5026216137832997
 50
284.1541110311329135
 51
300.9818498052650284
  0
ARC
  5
A974
  8
0
 10
-49.6021604828391034
 20
48.4360365928256584
 30
0.0
 40
0.6005788110241909
 50
270.0005941606099782
 51
284.1541110311329135
  0
ARC
  5
A975
  8
0
 10
-49.3955000694293318
 20
48.2011998943769271
 30
0.0
 40
0.1923185190239868
 50
339.5018544694075899
 51
1.932299413001592
  0
ARC
  5
A976
  8
0
 10
-49.4118754129044433
 20
48.1874811548720103
 30
0.0
 40
0.2083469088122146
 50
337.4277793587460792
 51
0.531908131018702
  0
ARC
  5
A977
  8
0
 10
-49.4344685008153704
 20
48.1968729001695309
 30
0.0
 40
0.232814285072948
 50
313.5700497518964767
 51
337.4277793587460792
  0
ARC
  5
A978
  8
0
 10
-49.5358635127545384
 20
48.3034596619130028
 30
0.0
 40
0.3799254206987215
 50
295.704085398303107
 51
313.5700497518961924
  0
ARC
  5
A979
  8
0
 10
-49.5943802950246493
 20
48.4250263709768802
 30
0.0
 40
0.5148427233691674
 50
269.1327960187123836
 51
295.704085398303107
  0
ARC
  5
A97A
  8
0
 10
-49.5908498688607722
 20
48.3673571814617915
 30
0.0
 40
0.5076290328621874
 50
268.723975369540824
 51
288.9005223725653195
  0
ARC
  5
A97B
  8
0
 10
-49.5618027673144681
 20
48.2825200643609094
 30
0.0
 40
0.4179570163451534
 50
288.9005223725657174
 51
307.6519528792151164
  0
ARC
  5
A97C
  8
0
 10
-49.4881009226111175
 20
48.1869955716395779
 30
0.0
 40
0.2973050763593241
 50
307.6519528792139226
 51
328.6817814371707982
  0
ARC
  5
A97D
  8
0
 10
-49.3890938319287471
 20
48.1267551889316465
 30
0.0
 40
0.181411557497458
 50
328.6817814371714235
 51
351.0139360412507017
  0
ARC
  5
A97E
  8
0
 10
-49.6506248257757932
 20
48.1681124236473224
 30
0.0
 40
0.4461923755450421
 50
351.0139360412507017
 51
359.9976672348578859
  0
ARC
  5
A97F
  8
0
 10
-49.3954504127281524
 20
48.1518130257089894
 30
0.0
 40
0.189546795810853
 50
345.7297935339400965
 51
1.21520356023549
  0
ARC
  5
A980
  8
0
 10
-49.4139804100166202
 20
48.1565260025975235
 30
0.0
 40
0.2086667579097262
 50
327.6603557561617208
 51
345.7297935339404944
  0
ARC
  5
A981
  8
0
 10
-49.4746538997200105
 20
48.1949409752430427
 30
0.0
 40
0.2804788911195412
 50
302.5589176484542122
 51
327.6603557561621187
  0
ARC
  5
A982
  8
0
 10
-49.5749887136124983
 20
48.3520782721477289
 30
0.0
 40
0.4669170979263862
 50
283.828326003218308
 51
302.5589176484542122
  0
ARC
  5
A983
  8
0
 10
-49.593035201763918
 20
48.4484423827805415
 30
0.0
 40
0.5648284341537357
 50
269.0749297994422022
 51
283.2694989797968788
  0
ARC
  5
A984
  8
0
 10
-49.4949811611077379
 20
48.1135536240825985
 30
0.0
 40
0.3035966013770222
 50
2.1910476028761861
 51
16.0442729120597285
  0
ARC
  5
A985
  8
0
 10
-49.3964752958906672
 20
48.1233568613315228
 30
0.0
 40
0.2048895735626313
 50
0.8163441316176516
 51
0.8428869948358569
  0
ARC
  5
A986
  8
0
 10
-49.4702314836721513
 20
48.1371286358897805
 30
0.0
 40
0.2788818824437141
 50
341.2556580220377782
 51
357.5404395953547123
  0
ARC
  5
A987
  8
0
 10
-49.4488931511228884
 20
48.1471441202065975
 30
0.0
 40
0.2624030547942453
 50
321.9914397529577172
 51
337.6852271525282276
  0
ARC
  5
A988
  8
0
 10
-49.4956671027906268
 20
48.1836991915634769
 30
0.0
 40
0.3217669815218624
 50
298.5074444103593123
 51
321.9914397529572057
  0
ARC
  5
A989
  8
0
 10
-49.6079052748412579
 20
48.39035215398156
 30
0.0
 40
0.5569325702916464
 50
281.8610949567024022
 51
298.5074444103593123
  0
ARC
  5
A98A
  8
0
 10
-49.399189874854919
 20
48.1025352662070205
 30
0.0
 40
0.1905578362102936
 50
337.8936453868877265
 51
1.288853945304572
  0
ARC
  5
A98B
  8
0
 10
-49.4367492679975413
 20
48.1177914069667807
 30
0.0
 40
0.2310974198801259
 50
320.5233745627443795
 51
337.8936453868877265
  0
ARC
  5
A98C
  8
0
 10
-49.6283689145631683
 20
48.2756192028193993
 30
0.0
 40
0.4793466939850683
 50
315.0571577617134835
 51
320.5233745627443795
  0
ARC
  5
A98D
  8
0
 10
-49.3972183808404566
 20
48.0749920238554083
 30
0.0
 40
0.2052978952947784
 50
7.4141655731482974
 51
20.5112688492304684
  0
LINE
  5
A98E
  8
0
 10
-48.9472211079907922
 20
47.4966033041544407
 30
0.0
 11
-48.8874487783212714
 21
47.0129279388526626
 31
0.0
  0
LINE
  5
A98F
  8
0
 10
-48.8836847361359119
 20
47.0341312600013524
 30
0.0
 11
-48.9428622101781912
 21
47.5205352535248622
 31
0.0
  0
LINE
  5
A990
  8
0
 10
-48.9389577771366717
 20
47.5553605878371002
 30
0.0
 11
-48.8815312729866704
 21
47.0744691143370915
 31
0.0
  0
LINE
  5
A991
  8
0
 10
-48.8769690470126079
 20
47.084663577536908
 30
0.0
 11
-48.9358548492866703
 21
47.5792026156371008
 31
0.0
  0
LINE
  5
A992
  8
0
 10
-49.0807414753993427
 20
47.2202193175506082
 30
0.0
 11
-49.0442693603866715
 21
46.6826689642870889
 31
0.0
  0
LINE
  5
A993
  8
0
 10
-49.0825633192366624
 20
46.6388613220370871
 30
0.0
 11
-49.1241385021866606
 21
47.1694837377370888
 31
0.0
  0
LINE
  5
A994
  8
0
 10
-49.19498832035476
 20
47.12567243822987
 30
0.0
 11
-49.1596448623866706
 21
46.5905275894371016
 31
0.0
  0
LINE
  5
A995
  8
0
 10
-49.1824804733366605
 20
46.5753424046870919
 30
0.0
 11
-49.2167796437866727
 21
47.1145154442370924
 31
0.0
  0
LINE
  5
A996
  8
0
 10
-49.2737604904776489
 20
47.0893134421125907
 30
0.0
 11
-49.2457439193866691
 21
46.5497440038370982
 31
0.0
  0
LINE
  5
A997
  8
0
 10
-49.2685644229699378
 20
46.5380453277394182
 30
0.0
 11
-49.2975245002675493
 21
47.080395693934797
 31
0.0
  0
LINE
  5
A998
  8
0
 10
-49.143517559886682
 20
47.156248194137099
 30
0.0
 11
-49.1016861385103027
 21
46.6209197864209202
 31
0.0
  0
ARC
  5
A999
  8
0
 10
-49.1771375697604967
 20
45.669296639905447
 30
0.0
 40
0.9613798687513316
 50
339.9574127242041754
 51
353.9531702794478747
  0
ARC
  5
A99A
  8
0
 10
-49.0047325944082601
 20
45.6121679701221723
 30
0.0
 40
0.7798558239690317
 50
320.6067561671428052
 51
339.5593855368809955
  0
ARC
  5
A99B
  8
0
 10
-49.3553364865527229
 20
45.900088024146001
 30
0.0
 40
1.2335308692337379
 50
306.9791366192797
 51
320.6067561671428052
  0
ARC
  5
A99C
  8
0
 10
-49.4427753993643222
 20
46.0550125090118101
 30
0.0
 40
1.4100828011668971
 50
291.9445436788234929
 51
306.0307272934745129
  0
ARC
  5
A99D
  8
0
 10
-49.5760990756448905
 20
46.3859219661073325
 30
0.0
 40
1.7668408024117499
 50
279.8496653684961188
 51
291.9445436788237771
  0
ARC
  5
A99E
  8
0
 10
-49.6010583444468622
 20
46.5296776647540682
 30
0.0
 40
1.912747162768452
 50
269.9671723253864002
 51
279.8496653684961188
  0
LINE
  5
A99F
  8
0
 10
-46.6244225806866623
 20
52.2686764900371088
 30
0.0
 11
-49.0006301097365267
 21
52.2686764900371088
 31
0.0
  0
ARC
  5
A9A0
  8
0
 10
-49.4917377204837123
 20
48.2469491831735908
 30
0.0
 40
0.298623379623814
 50
305.7569175887578012
 51
337.7455443108518125
  0
ARC
  5
A9A1
  8
0
 10
-49.6140114715478973
 20
48.4167548969725914
 30
0.0
 40
0.5078716786326636
 50
274.8781989630559792
 51
305.7569175887578012
  0
LINE
  5
A9A2
  8
0
 10
-52.6148338436866609
 20
52.6734153616370904
 30
0.0
 11
-52.6030738098461086
 21
52.3141186686730109
 31
0.0
  0
ARC
  5
A9A3
  8
0
 10
-52.5431059231142825
 20
52.316081459833903
 30
0.0
 40
0.0599999999018633
 50
181.8746619599579049
 51
232.1932527928867955
  0
LINE
  5
A9A4
  8
0
 10
-52.5798859289839911
 20
52.2686764900897032
 30
0.0
 11
-52.4939219825322283
 21
52.201979802545317
 31
0.0
  0
ARC
  5
A9A5
  8
0
 10
-52.4571419762068274
 20
52.2493847728768301
 30
0.0
 40
0.0600000006452331
 50
232.1932527928867955
 51
269.2224945340166755
  0
ARC
  5
A9A6
  8
0
 10
-52.4952225264789334
 20
45.0182388473048789
 30
0.0
 40
7.171248279108779
 50
85.3705370820989202
 51
89.702252645905503
  0
ARC
  5
A9A7
  8
0
 10
-52.0734362730344031
 20
49.9225545857798565
 30
0.0
 40
2.2490241211616162
 50
74.5586247703860607
 51
85.9966332439859542
  0
ARC
  5
A9A8
  8
0
 10
-51.7076981009890417
 20
51.2804326972392985
 30
0.0
 40
0.8428302727474992
 50
34.049642936232658
 51
73.9466657599547403
  0
ARC
  5
A9A9
  8
0
 10
-52.1589290271947874
 20
50.9755044280556575
 30
0.0
 40
1.3874315930836081
 50
31.5719191602660807
 51
34.049642936232658
  0
ARC
  5
A9AA
  8
0
 10
-50.9279339288648316
 20
51.7319862613798804
 30
0.0
 40
0.0574260802745598
 50
211.5719191602661056
 51
265.3361603228183867
  0
ARC
  5
A9AB
  8
0
 10
-51.1013759097792999
 20
49.6059406959280693
 30
0.0
 40
2.075682418400759
 50
83.6267071384555152
 51
85.3361603228183583
  0
LINE
  5
A9AC
  8
0
 10
-50.8709633350161923
 20
51.6687949194370972
 30
0.0
 11
-50.0037290589161927
 21
51.6687949194370972
 31
0.0
  0
LINE
  5
A9AD
  8
0
 10
-50.8496721299166126
 20
51.6687949194370972
 30
0.0
 11
-50.8498923422162008
 21
51.6454443506370993
 31
0.0
  0
LINE
  5
A9AE
  8
0
 10
-50.8498923422162008
 20
51.6454443506370993
 30
0.0
 11
-50.8498923422162008
 21
51.4709452927371132
 31
0.0
  0
ARC
  5
A9AF
  8
0
 10
-50.7898923430238227
 20
51.4709452927371132
 30
0.0
 40
0.0599999991923772
 50
180.0
 51
204.3464196666986084
  0
ARC
  5
A9B0
  8
0
 10
-57.179521889790017
 20
48.6941353179214218
 30
0.0
 40
6.9069314516568667
 50
16.9222487603493015
 51
23.4813883768527099
  0
ARC
  5
A9B1
  8
0
 10
269.9846730433524726
 20
142.9691484256300953
 30
0.0
 40
333.5702538218299082
 50
196.0572174705033035
 51
196.1931014017092991
  0
ARC
  5
A9B2
  8
0
 10
-50.3230428938033398
 20
49.9529743599057809
 30
0.0
 40
0.0300890339847392
 50
196.1931014017104928
 51
269.8597109387538922
  0
LINE
  5
A9B3
  8
0
 10
-50.3231165669106701
 20
49.9228854161156121
 30
0.0
 11
-50.0082988862738915
 21
49.9229424607980619
 31
0.0
  0
ARC
  5
A9B4
  8
0
 10
-50.3219211423281507
 20
49.9027820827311075
 30
0.0
 40
0.0201598334899718
 50
94.2120014276501365
 51
195.3542965841787975
  0
ARC
  5
A9B5
  8
0
 10
-35.9680438804451583
 20
53.8441828693505684
 30
0.0
 40
14.9053347605765207
 50
195.3542965841787975
 51
196.768978692674807
  0
ARC
  5
A9B6
  8
0
 10
-65.0701652601630656
 20
45.0749244550205717
 30
0.0
 40
15.4892924280752897
 50
15.0316564023896593
 51
16.7689786926748106
  0
ARC
  5
A9B7
  8
0
 10
-51.7175577812780389
 20
48.6803944869265877
 30
0.0
 40
1.658596646456681
 50
2.71751804570795
 51
14.3730165333053606
  0
ARC
  5
A9B8
  8
0
 10
-51.3016888144211691
 20
48.7488805658393574
 30
0.0
 40
1.2409039847503489
 50
347.345646538103324
 51
0.4687065415019165
  0
ARC
  5
A9B9
  8
0
 10
-48.0414353235709584
 20
48.0257514163831019
 30
0.0
 40
2.0985889258333672
 50
167.5819844611617953
 51
172.3821493598559869
  0
ARC
  5
A9BA
  8
0
 10
-49.8893966272004405
 20
48.3079452068207118
 30
0.0
 40
0.2321404393056842
 50
180.9858113309641965
 51
192.4411231084023939
  0
ARC
  5
A9BB
  8
0
 10
-50.0467190427990616
 20
48.2696609748133909
 30
0.0
 40
0.0703512051587502
 50
189.5957496874449077
 51
239.0699992608593902
  0
ARC
  5
A9BC
  8
0
 10
-64.7836173246456895
 20
49.1431122550548167
 30
0.0
 40
14.3347948440066499
 50
3.2679475747338089
 51
5.4415232576146781
  0
ARC
  5
A9BD
  8
0
 10
-68.4878183660910338
 20
48.9316083947830904
 30
0.0
 40
18.0450292353025006
 50
0.6765666295065577
 51
3.2679475747338089
  0
ARC
  5
A9BE
  8
0
 10
-56.3668466539795503
 20
48.9339245069162132
 30
0.0
 40
5.9265481942308798
 50
353.7511579842105789
 51
2.0379863228576509
  0
ARC
  5
A9BF
  8
0
 10
-49.6070791542869074
 20
46.3390469868943526
 30
0.0
 40
1.815334291953971
 50
246.6207206567943899
 51
270.1554403749723861
  0
ARC
  5
A9C0
  8
0
 10
-49.8285191301937616
 20
45.8268212408719435
 30
0.0
 40
1.257292288321775
 50
218.9264334728763117
 51
246.6207206567943899
  0
ARC
  5
A9C1
  8
0
 10
-50.1980973383549696
 20
45.5283275969169523
 30
0.0
 40
0.78222754807138
 50
193.4036701520658141
 51
218.9264334728763117
  0
ARC
  5
A9C2
  8
0
 10
-49.6088495290497065
 20
45.606566963261578
 30
0.0
 40
1.3748926474417
 50
181.6064225182491043
 51
190.882251387848811
  0
ARC
  5
A9C3
  8
0
 10
-32.869116547658578
 20
45.4312710747838508
 30
0.0
 40
18.1146014675460094
 50
178.1578006840412058
 51
179.5674528161536045
  0
ARC
  5
A9C4
  8
0
 10
-48.0224383422245893
 20
45.9058498264222905
 30
0.0
 40
2.9538830867135819
 50
173.247736304119087
 51
177.9095423605824919
  0
ARC
  5
A9C5
  8
0
 10
-49.5649308120006467
 20
46.0239406823614985
 30
0.0
 40
1.4096625503036151
 50
150.7817757267957006
 51
170.6419258313300986
  0
ARC
  5
A9C6
  8
0
 10
-49.5762996269716467
 20
46.0305904041524414
 30
0.0
 40
1.396494271343655
 50
129.6760175228463083
 51
150.7922016028693122
  0
ARC
  5
A9C7
  8
0
 10
-49.5823629625628328
 20
46.0364094469010894
 30
0.0
 40
1.3881447625586281
 50
121.8792677170901015
 51
129.6367399282866018
  0
ARC
  5
A9C8
  8
0
 10
-45.6825696902152529
 20
44.9558338952709917
 30
0.0
 40
5.8379111261982137
 50
145.1852998926005114
 51
145.7838263561785084
  0
ARC
  5
A9C9
  8
0
 10
-49.7714621891598412
 20
47.7363300034753877
 30
0.0
 40
0.89319672841292
 50
145.7838263561785084
 51
160.8852148701645035
  0
ARC
  5
A9CA
  8
0
 10
-49.5042029325584991
 20
47.6840789745856313
 30
0.0
 40
1.1800585302029509
 50
182.2831398760970103
 51
205.5135335992922876
  0
ARC
  5
A9CB
  8
0
 10
-48.8616982057239468
 20
48.0896876972044325
 30
0.0
 40
1.9366745125230209
 50
208.1567569618572975
 51
211.7552199035507954
  0
LINE
  5
A9CC
  8
0
 10
-50.6760824364724414
 20
52.6734153616370904
 30
0.0
 11
-50.6760824364724414
 21
52.5316224869371027
 31
0.0
  0
ARC
  5
A9CD
  8
0
 10
-50.6155734561660822
 20
52.5319470054242217
 30
0.0
 40
0.0605098505200925
 50
180.3072826764640126
 51
231.0597993692672958
  0
LINE
  5
A9CE
  8
0
 10
-50.6536044384420165
 20
52.4848823010578798
 30
0.0
 11
-50.566892860267437
 21
52.4150880979001883
 31
0.0
  0
ARC
  5
A9CF
  8
0
 10
-50.5292716559678965
 20
52.4618282833317906
 30
0.0
 40
0.0599999995594031
 50
231.1693902421015139
 51
266.7706200171156183
  0
ARC
  5
A9D0
  8
0
 10
-50.0294306790394501
 20
51.8325946803468085
 30
0.0
 40
0.0102414777992121
 50
248.2729754371368927
 51
269.8144755409815048
  0
ARC
  5
A9D1
  8
0
 10
-50.0101841597473467
 20
51.8808927244681968
 30
0.0
 40
0.0622331076141402
 50
184.5672870115249111
 51
248.2729754371399054
  0
ARC
  5
A9D2
  8
0
 10
-50.8268421807241495
 20
51.8593132408607715
 30
0.0
 40
0.7548056189356011
 50
1.2619869173923031
 51
25.9317841417181683
  0
ARC
  5
A9D3
  8
0
 10
-50.4763770386796224
 20
52.0178284481573669
 30
0.0
 40
0.3704627832281775
 50
27.5874195506558593
 51
53.1094843142830015
  0
ARC
  5
A9D4
  8
0
 10
-50.5089949797837008
 20
51.9611963671674886
 30
0.0
 40
0.4354081949898584
 50
54.1501945331039281
 51
80.6935320124344884
  0
ARC
  5
A9D5
  8
0
 10
-50.5687334140829066
 20
51.6888342516643817
 30
0.0
 40
0.7140015818827476
 50
79.497215807580929
 51
87.10334971541144
  0
LINE
  5
A9D6
  8
0
 10
-50.8498923422162008
 20
51.4709452927371132
 30
0.0
 11
-50.0037290589161927
 21
51.4709452927371132
 31
0.0
  0
ARC
  5
A9D7
  8
0
 10
-49.602322471375011
 20
47.4840178844480221
 30
0.0
 40
0.9886681781079877
 50
256.8949297148013784
 51
270.0097366693540835
  0
ARC
  5
A9D8
  8
0
 10
-49.8778152602145894
 20
46.3006325482124268
 30
0.0
 40
0.2263615049532998
 50
76.8949297148013926
 51
85.8806445219283745
  0
ARC
  5
A9D9
  8
0
 10
-49.8466036515524493
 20
46.734004010774072
 30
0.0
 40
0.2081324410092323
 50
252.3499890365704914
 51
265.8806445219283887
  0
ARC
  5
A9DA
  8
0
 10
-49.9281135109814116
 20
46.4778284142477318
 30
0.0
 40
0.0606979766145092
 50
72.3499890365699656
 51
97.221782624631345
  0
ARC
  5
A9DB
  8
0
 10
-49.938558242193622
 20
46.5602549480010879
 30
0.0
 40
0.0223876772415483
 50
213.3971810635381132
 51
277.2217826246371146
  0
ARC
  5
A9DC
  8
0
 10
-49.98091281273107
 20
46.5323302441371283
 30
0.0
 40
0.0283439571821606
 50
33.3971810635399393
 51
72.5036044936215518
  0
ARC
  5
A9DD
  8
0
 10
-49.9322055240878413
 20
46.6868439213083803
 30
0.0
 40
0.1336649203522398
 50
240.7032357876263973
 51
252.5036044936205997
  0
ARC
  5
A9DE
  8
0
 10
-50.0209564953632508
 20
46.5193115670130268
 30
0.0
 40
0.0560557162931061
 50
65.389466244331544
 51
91.8692724759825978
  0
ARC
  5
A9DF
  8
0
 10
-50.0233284639139626
 20
46.5979058791064986
 30
0.0
 40
0.0225749685489424
 50
199.0767845602588011
 51
271.3794914259925122
  0
ARC
  5
A9E0
  8
0
 10
-50.0687476954280015
 20
46.5744570912440921
 30
0.0
 40
0.0289534504064698
 50
33.7138864375982124
 51
62.5750078909596326
  0
ARC
  5
A9E1
  8
0
 10
-49.6971787774273821
 20
47.2292626814181133
 30
0.0
 40
0.7239513724779599
 50
238.2476977947613932
 51
240.3414155446344864
  0
ARC
  5
A9E2
  8
0
 10
-50.1052261460066717
 20
46.5670415877704471
 30
0.0
 40
0.0539113083603362
 50
59.8603866756523715
 51
86.1776092741107789
  0
ARC
  5
A9E3
  8
0
 10
-50.1002284007940304
 20
46.6425336290775974
 30
0.0
 40
0.0217460177544734
 50
191.7241692857037094
 51
266.2987054694172002
  0
ARC
  5
A9E4
  8
0
 10
-50.1413728294603871
 20
46.6316610136763217
 30
0.0
 40
0.0208748029107841
 50
18.0090859095585003
 51
55.9205095293784069
  0
ARC
  5
A9E5
  8
0
 10
-50.0561802842582395
 20
46.745664084341108
 30
0.0
 40
0.121470362562136
 50
211.2387145364928074
 51
232.7676417733916878
  0
ARC
  5
A9E6
  8
0
 10
-49.798085788584352
 20
47.074918199719292
 30
0.0
 40
0.5337318596166362
 50
201.940042792534399
 51
227.3003010628976028
  0
ARC
  5
A9E7
  8
0
 10
-49.9402517594068911
 20
47.0072258694380665
 30
0.0
 40
0.3766940821949919
 50
179.501878462553492
 51
200.4688465787978089
  0
ARC
  5
A9E8
  8
0
 10
-50.393381563921011
 20
47.0106111291351993
 30
0.0
 40
0.0764500377819943
 50
359.9172789976952913
 51
17.3036324597280284
  0
ARC
  5
A9E9
  8
0
 10
-50.2378904888512707
 20
47.05830502827488
 30
0.0
 40
0.0861926183373133
 50
175.9711503603707001
 51
196.8295438444463912
  0
ARC
  5
A9EA
  8
0
 10
-50.1471758774839032
 20
47.0496952386561205
 30
0.0
 40
0.1773018054438349
 50
171.923786710039991
 51
175.2553402245602001
  0
ARC
  5
A9EB
  8
0
 10
-50.3373765854984612
 20
47.073173841950549
 30
0.0
 40
0.014727016001402
 50
5.5744298295778822
 51
39.5435825004502206
  0
ARC
  5
A9EC
  8
0
 10
-50.3094588208635969
 20
47.0943576465696268
 30
0.0
 40
0.0203394277935363
 50
172.4764368239090118
 51
215.4877638652810958
  0
LINE
  5
A9ED
  8
0
 10
-50.3296231485161911
 20
47.0970207675371029
 30
0.0
 11
-50.2708723956162018
 21
47.5880023048370973
 31
0.0
  0
ARC
  5
A9EE
  8
0
 10
-50.2494733325145404
 20
47.5852664074761265
 30
0.0
 40
0.0215729448006559
 50
120.3561702927990069
 51
172.7141903895152097
  0
ARC
  5
A9EF
  8
0
 10
-50.2709660388509008
 20
47.6219641287176216
 30
0.0
 40
0.0209553889308678
 50
300.3561702928121804
 51
344.9863020634340955
  0
ARC
  5
A9F0
  8
0
 10
-49.8363288803942979
 20
47.4772021638026587
 30
0.0
 40
0.4371942091650033
 50
159.4633608996435896
 51
161.4157199612606064
  0
ARC
  5
A9F1
  8
0
 10
-50.2641573952093381
 20
47.6349976791823408
 30
0.0
 40
0.0189429410095122
 50
346.490989088203321
 51
28.4904483198547887
  0
ARC
  5
A9F2
  8
0
 10
-50.2341619997623283
 20
47.6499724309658816
 30
0.0
 40
0.0146081441329773
 50
152.5241723821139033
 51
203.9874185385091039
  0
ARC
  5
A9F3
  8
0
 10
-50.2279955787524202
 20
47.64864924048441
 30
0.0
 40
0.0207568901945541
 50
114.8333869212144975
 51
157.1419131864836913
  0
ARC
  5
A9F4
  8
0
 10
-50.2487224169216091
 20
47.6949979674493107
 30
0.0
 40
0.0300181359214962
 50
293.5825199487180157
 51
329.4605069504319204
  0
ARC
  5
A9F5
  8
0
 10
-50.0263091798573427
 20
47.5771945748144489
 30
0.0
 40
0.2217026889961525
 50
149.1343376179592894
 51
152.447746580327987
  0
ARC
  5
A9F6
  8
0
 10
-51.2832385189191911
 20
47.8201719038757318
 30
0.0
 40
1.074426879743051
 50
353.0914250967280736
 51
354.1566450662377861
  0
ARC
  5
A9F7
  8
0
 10
-50.1935521078948028
 20
47.7086524721198728
 30
0.0
 40
0.0209511636877736
 50
106.1549751738337051
 51
174.1566450662409977
  0
ARC
  5
A9F8
  8
0
 10
-50.2082640703071021
 20
47.7594403135178069
 30
0.0
 40
0.0319246027074592
 50
286.1549751738310761
 51
320.8110510233144055
  0
ARC
  5
A9F9
  8
0
 10
-50.0585471368339299
 20
47.6373822395583773
 30
0.0
 40
0.1612419927154945
 50
122.0607580321413934
 51
140.8110510233134107
  0
ARC
  5
A9FA
  8
0
 10
-50.2311694981361399
 20
47.9129850023979174
 30
0.0
 40
0.1639585031425812
 50
302.0607580321413934
 51
312.0013148366459177
  0
ARC
  5
A9FB
  8
0
 10
-49.767606089256887
 20
47.4126043095667171
 30
0.0
 40
0.518171539674728
 50
128.8129133072808941
 51
133.0694079638197138
  0
ARC
  5
A9FC
  8
0
 10
-49.7309541908641179
 20
48.0672064071818212
 30
0.0
 40
0.3839422145332185
 50
135.2563423161739138
 51
140.234656412444707
  0
ARC
  5
A9FD
  8
0
 10
-49.7817036014257113
 20
48.1094372427138524
 30
0.0
 40
0.3179198990475937
 50
140.2346564124453039
 51
155.8690418137987024
  0
ARC
  5
A9FE
  8
0
 10
-49.8616923374258505
 20
48.1452698138141173
 30
0.0
 40
0.2302719039846476
 50
155.8690418137969118
 51
163.8517177850509938
  0
ARC
  5
A9FF
  8
0
 10
-49.7790111928801693
 20
48.1213296307147331
 30
0.0
 40
0.3163492182446429
 50
163.8517177850505959
 51
172.1344182248425057
  0
ARC
  5
AA00
  8
0
 10
4259.6569110249865844
 20
48.1347221497730686
 30
0.0
 40
4309.7492952786224123
 50
179.9996024994815969
 51
180.0003975005166978
  0
ARC
  5
AA01
  8
0
 10
71219.7866809353727149
 20
47.6621170344332725
 30
0.0
 40
71269.8790664602565812
 50
179.9996440971800951
 51
179.9998759984096068
  0
ARC
  5
AA02
  8
0
 10
-55.208651375271053
 20
47.816372947181037
 30
0.0
 40
5.1162660173067049
 50
358.440571139312226
 51
359.9998759984097205
  0
ARC
  5
AA03
  8
0
 10
-49.8388337380827835
 20
47.670185618994779
 30
0.0
 40
0.2555411452392962
 50
178.4405711393110039
 51
192.9044835372903037
  0
ARC
  5
AA04
  8
0
 10
-49.7648354908066821
 20
47.6871395744573618
 30
0.0
 40
0.3314567378784968
 50
192.9044835372903037
 51
206.8109758311182134
  0
ARC
  5
AA05
  8
0
 10
-49.8042446149315694
 20
47.6672231167918596
 30
0.0
 40
0.2873008283053391
 50
206.8109758311182134
 51
225.4089458804523929
  0
ARC
  5
AA06
  8
0
 10
-49.648895113162979
 20
47.8248061978018626
 30
0.0
 40
0.5085832160372985
 50
225.4089458804523929
 51
243.7639471413615979
  0
ARC
  5
AA07
  8
0
 10
-49.617287897187758
 20
47.9089558829881099
 30
0.0
 40
0.5981019108519297
 50
244.6116797689170141
 51
259.8533763367007055
  0
ARC
  5
AA08
  8
0
 10
-49.5877168107878887
 20
48.1443216829703076
 30
0.0
 40
0.8350875027902404
 50
260.7011089642548995
 51
269.0094239931966058
  0
ARC
  5
AA09
  8
0
 10
-49.8498162928897415
 20
47.5178469041596472
 30
0.0
 40
0.266135935628344
 50
155.0882541046968868
 51
179.79730235473059
  0
ARC
  5
AA0A
  8
0
 10
-49.6022124061658189
 20
47.8592246553405332
 30
0.0
 40
0.7037429189243775
 50
249.3755633886831902
 51
270.0022973591711093
  0
ARC
  5
AA0B
  8
0
 10
-49.6731994057945485
 20
47.670611096005139
 30
0.0
 40
0.5022131968448394
 50
226.388568184569408
 51
249.3755633886831902
  0
ARC
  5
AA0C
  8
0
 10
-49.7974080220836584
 20
47.5402312992099425
 30
0.0
 40
0.3221391238281721
 50
196.2425026242792114
 51
226.388568184569408
  0
ARC
  5
AA0D
  8
0
 10
-49.8833131091333968
 20
47.5152044452777318
 30
0.0
 40
0.2326627168888693
 50
179.117371479774306
 51
196.2425026242788135
  0
ARC
  5
AA0E
  8
0
 10
-50.2573821559634126
 20
47.5871702811569506
 30
0.0
 40
0.0136299963512527
 50
181.2907342801501898
 51
215.7527205736836038
  0
ARC
  5
AA0F
  8
0
 10
-50.2844823964081726
 20
47.5663395792031807
 30
0.0
 40
0.020562132014788
 50
352.3849338295912048
 51
38.737620310993762
  0
ARC
  5
AA10
  8
0
 10
-50.1842557910525784
 20
47.5467434783742107
 30
0.0
 40
0.0816087867830125
 50
168.0690060616477979
 51
198.8935692651054978
  0
ARC
  5
AA11
  8
0
 10
-50.3368806053232731
 20
47.4941265358386033
 30
0.0
 40
0.0798316336676657
 50
1.7777854398867621
 51
19.1522339766157188
  0
ARC
  5
AA12
  8
0
 10
-49.87614893689517
 20
47.517146200440088
 30
0.0
 40
0.3814919748007448
 50
183.0868237070847897
 51
226.2714710699717955
  0
ARC
  5
AA13
  8
0
 10
-50.2164418140153188
 20
47.1659154903475226
 30
0.0
 40
0.1075854561452908
 50
30.314800295635731
 51
44.6107411209290703
  0
ARC
  5
AA14
  8
0
 10
-50.0249231378812027
 20
47.2798027615482397
 30
0.0
 40
0.1152423753671847
 50
211.1330531496049048
 51
233.0125382990030971
  0
ARC
  5
AA15
  8
0
 10
-49.724115913910957
 20
47.6666329561892397
 30
0.0
 40
0.6052543687313969
 50
232.2985329726903956
 51
232.7792033858652871
  0
ARC
  5
AA16
  8
0
 10
-50.103695028106003
 20
47.1648178869088284
 30
0.0
 40
0.0239832600454339
 50
11.2182119744995603
 51
55.8366692061801331
  0
ARC
  5
AA17
  8
0
 10
-50.0658850193173919
 20
47.1733769204672768
 30
0.0
 40
0.0148060040778567
 50
195.2449521962861922
 51
238.2924690748519936
  0
ARC
  5
AA18
  8
0
 10
-50.0578811237151413
 20
47.1850599199324705
 30
0.0
 40
0.0289596631773881
 50
236.9690350737172082
 51
264.1918821321738164
  0
ARC
  5
AA19
  8
0
 10
-50.0629829263071002
 20
47.1094491971070966
 30
0.0
 40
0.0468500635092999
 50
59.5966634702795091
 51
87.3438004965683064
  0
ARC
  5
AA1A
  8
0
 10
-49.6430342181895483
 20
47.7992344684471107
 30
0.0
 40
0.7607211243871939
 50
238.6092111398860141
 51
240.1291042982813053
  0
ARC
  5
AA1B
  8
0
 10
-50.0362526444089823
 20
47.1139360328765235
 30
0.0
 40
0.0293785695909882
 50
23.5462161659308613
 51
60.7761165190194106
  0
ARC
  5
AA1C
  8
0
 10
-49.9937528607898827
 20
47.1335555126900374
 30
0.0
 40
0.0174494864758383
 50
206.8570071493460034
 51
245.0138455312284123
  0
ARC
  5
AA1D
  8
0
 10
-49.9873943013895428
 20
47.1454764845658616
 30
0.0
 40
0.0309491884599935
 50
243.6658898417529997
 51
269.7110630659448134
  0
ARC
  5
AA1E
  8
0
 10
-49.9852283653597524
 20
47.0641780099197078
 30
0.0
 40
0.0504031940823346
 50
66.2314720433739552
 51
92.6404759820243413
  0
ARC
  5
AA1F
  8
0
 10
-49.8592948586867379
 20
47.3238507702766569
 30
0.0
 40
0.2382366189946209
 50
243.6830744939674105
 51
248.734020501145892
  0
ARC
  5
AA20
  8
0
 10
-49.9570558551275496
 20
47.0726661938155928
 30
0.0
 40
0.0313016971628909
 50
32.1293283819628286
 51
68.7340205011446557
  0
ARC
  5
AA21
  8
0
 10
-49.914273968009681
 20
47.1015162212065377
 30
0.0
 40
0.0203409084664152
 50
216.8636797776472065
 51
251.2436187858147889
  0
ARC
  5
AA22
  8
0
 10
-49.909600271015222
 20
47.1130023861908995
 30
0.0
 40
0.0327280874744201
 50
249.9617146225648128
 51
274.9417045432155078
  0
ARC
  5
AA23
  8
0
 10
-49.8993584737979603
 20
47.0285989841480614
 30
0.0
 40
0.052326092961093
 50
72.3536826841298932
 51
98.1549938329581835
  0
ARC
  5
AA24
  8
0
 10
-49.6022549899193592
 20
47.9583659477006776
 30
0.0
 40
0.9155266620053993
 50
258.0486656738959823
 51
270.0063041735601814
  0
ARC
  5
AA25
  8
0
 10
-49.835020621676847
 20
46.8586977661800788
 30
0.0
 40
0.208506232876368
 50
78.0486656738960249
 51
87.3221511418875735
  0
ARC
  5
AA26
  8
0
 10
-49.8158830038638811
 20
47.2678718011996892
 30
0.0
 40
0.2011151036648081
 50
250.3549513711867007
 51
267.3221511418871046
  0
ARC
  5
AA27
  8
0
 10
-49.8257853453144506
 20
47.499151873503962
 30
0.0
 40
0.2310869093747707
 50
173.0101612602211105
 51
202.5188111233071027
  0
ARC
  5
AA28
  8
0
 10
-49.7719807351519705
 20
47.5214591713039667
 30
0.0
 40
0.2893325238867266
 50
202.5188111233071027
 51
224.591459277526809
  0
ARC
  5
AA29
  8
0
 10
-49.6824603743796018
 20
47.6097119206338917
 30
0.0
 40
0.4150402911769878
 50
224.5914592775262975
 51
243.1871772689538886
  0
ARC
  5
AA2A
  8
0
 10
-49.6182803247106321
 20
47.7366962001951265
 30
0.0
 40
0.5573220047989357
 50
243.1871772689538886
 51
259.7804390257044247
  0
ARC
  5
AA2B
  8
0
 10
-49.6002229724746471
 20
47.8368585276373395
 30
0.0
 40
0.6590990150144833
 50
259.7804390257044247
 51
269.8321124118385228
  0
ARC
  5
AA2C
  8
0
 10
-49.7051135415001824
 20
47.5606859821887511
 30
0.0
 40
0.283500600257963
 50
211.4680486620864031
 51
237.8134866749767014
  0
ARC
  5
AA2D
  8
0
 10
-49.6159282621408479
 20
47.7023837603717809
 30
0.0
 40
0.4509290159955797
 50
237.8134866749767014
 51
253.2397304271601115
  0
ARC
  5
AA2E
  8
0
 10
-49.6097341139088073
 20
47.7229513026135592
 30
0.0
 40
0.4724090361582335
 50
253.2397304271597136
 51
267.4462727553170112
  0
ARC
  5
AA2F
  8
0
 10
-49.5940800845530916
 20
48.0739346792060971
 30
0.0
 40
0.823741327983749
 50
267.4462727553170112
 51
269.4383876702501084
  0
ARC
  5
AA30
  8
0
 10
-50.079234574861033
 20
48.1657088594604588
 30
0.0
 40
0.0131944259228679
 50
184.7255391400505005
 51
236.7758395336647084
  0
ARC
  5
AA31
  8
0
 10
-50.0958441783720403
 20
48.1356983780394216
 30
0.0
 40
0.0211650327381065
 50
299.4527976469933037
 51
63.6922998890211431
  0
ARC
  5
AA32
  8
0
 10
-50.0757934007242866
 20
48.1031605463800815
 30
0.0
 40
0.0170892528501679
 50
124.3550404466960941
 51
143.9154822641087037
  0
ARC
  5
AA33
  8
0
 10
-50.0774388355027469
 20
48.1044149225385809
 30
0.0
 40
0.0150207625148015
 50
144.0855989646416901
 51
174.2626628523807994
  0
ARC
  5
AA34
  8
0
 10
-49.8277913513679493
 20
48.1388770204137231
 30
0.0
 40
0.2669374082785886
 50
187.5991837186768123
 51
207.9364259697069883
  0
ARC
  5
AA35
  8
0
 10
-49.7671231025818912
 20
48.1710486040816193
 30
0.0
 40
0.3356079784412751
 50
207.9364259697065052
 51
231.8786882101645119
  0
ARC
  5
AA36
  8
0
 10
-49.6353147096799319
 20
48.3390213684153665
 30
0.0
 40
0.5491221512666896
 50
231.8786882101651088
 51
242.9104861736254861
  0
ARC
  5
AA37
  8
0
 10
-49.8743058007622224
 20
47.8717809784237929
 30
0.0
 40
0.0243075900584565
 50
242.9104861736259124
 51
283.2324686475644171
  0
ARC
  5
AA38
  8
0
 10
-49.8583239171531218
 20
47.8038151370863176
 30
0.0
 40
0.0455120074225118
 50
32.3522228704373873
 51
103.2324686475651987
  0
ARC
  5
AA39
  8
0
 10
-49.7997312022987586
 20
47.8409307048646966
 30
0.0
 40
0.0238469978004369
 50
212.3522228704350141
 51
246.9075796030639083
  0
ARC
  5
AA3A
  8
0
 10
-49.603961016551672
 20
48.4549886849177511
 30
0.0
 40
0.6682545982452709
 50
252.12424689930711
 51
270.1549109415303178
  0
LINE
  5
AA3B
  8
0
 10
-49.8687417315159394
 20
47.8481187708371678
 30
0.0
 11
-49.8687417179161869
 21
47.443063507237099
 31
0.0
  0
ARC
  5
AA3C
  8
0
 10
-49.8652212828990287
 20
47.4430635073552978
 30
0.0
 40
0.0035204350171707
 50
180.0000019236312028
 51
225.1870133231298894
  0
ARC
  5
AA3D
  8
0
 10
-49.8552186192262212
 20
47.4531316824430078
 30
0.0
 40
0.0177127368089189
 50
225.1870133231321915
 51
244.1148126055298064
  0
ARC
  5
AA3E
  8
0
 10
-49.7281108888428989
 20
47.800962380830839
 30
0.0
 40
0.3879535021120605
 50
249.6613108725262009
 51
252.5393499184120003
  0
ARC
  5
AA3F
  8
0
 10
-49.8882711003664525
 20
47.3173392037658971
 30
0.0
 40
0.1216839867353377
 50
60.1933031117349913
 51
68.9259222330103114
  0
ARC
  5
AA40
  8
0
 10
-49.8177328281633081
 20
47.4413764030185305
 30
0.0
 40
0.0210116461955331
 50
241.4184663360088052
 51
254.3595736696755978
  0
ARC
  5
AA41
  8
0
 10
-49.8220945725698527
 20
47.4262895200380399
 30
0.0
 40
0.0053091299324699
 50
255.7931799028494879
 51
276.1409875374853868
  0
ARC
  5
AA42
  8
0
 10
-49.8217173632748995
 20
47.4227836216674277
 30
0.0
 40
0.0017829974566186
 50
276.1409875374624221
 51
332.6412631845307146
  0
ARC
  5
AA43
  8
0
 10
-49.8221893864708818
 20
47.4230278641346032
 30
0.0
 40
0.0023144673807928
 50
332.6412631845284977
 51
2.1421487152326941
  0
LINE
  5
AA44
  8
0
 10
-49.8198765365161975
 20
47.4231143762371019
 30
0.0
 11
-49.8198765365161975
 21
47.828169638537112
 31
0.0
  0
LINE
  5
AA45
  8
0
 10
-50.2570874016120683
 20
47.4966033041544407
 30
0.0
 11
-50.3168597312815891
 21
47.0129279388526626
 31
0.0
  0
LINE
  5
AA46
  8
0
 10
-50.3206237734669486
 20
47.0341312600013524
 30
0.0
 11
-50.2614462994246765
 21
47.5205352535248622
 31
0.0
  0
LINE
  5
AA47
  8
0
 10
-50.265350732466203
 20
47.5553605878371002
 30
0.0
 11
-50.3227772366161972
 21
47.0744691143370915
 31
0.0
  0
LINE
  5
AA48
  8
0
 10
-50.3273394625902597
 20
47.084663577536908
 30
0.0
 11
-50.2684536603161902
 21
47.5792026156371008
 31
0.0
  0
LINE
  5
AA49
  8
0
 10
-50.123567034203532
 20
47.2202193175506082
 30
0.0
 11
-50.1600391492161819
 21
46.6826689642870889
 31
0.0
  0
LINE
  5
AA4A
  8
0
 10
-50.121745190366191
 20
46.6388613220370871
 30
0.0
 11
-50.0801700074162
 21
47.1694837377370888
 31
0.0
  0
LINE
  5
AA4B
  8
0
 10
-50.0093201892481005
 20
47.12567243822987
 30
0.0
 11
-50.0446636472161899
 21
46.5905275894371016
 31
0.0
  0
LINE
  5
AA4C
  8
0
 10
-50.0218280362662
 20
46.5753424046870919
 30
0.0
 11
-49.987528865816202
 21
47.1145154442370924
 31
0.0
  0
LINE
  5
AA4D
  8
0
 10
-49.9305480191252116
 20
47.0893134421125907
 30
0.0
 11
-49.9585645902161986
 21
46.5497440038370982
 31
0.0
  0
LINE
  5
AA4E
  8
0
 10
-49.9357440866329227
 20
46.5380453277394182
 30
0.0
 11
-49.9067840093353112
 21
47.080395693934797
 31
0.0
  0
LINE
  5
AA4F
  8
0
 10
-50.0607909497161927
 20
47.156248194137099
 30
0.0
 11
-50.1026223710925578
 21
46.6209197864209202
 31
0.0
  0
ARC
  5
AA50
  8
0
 10
-50.0271709398423567
 20
45.669296639905447
 30
0.0
 40
0.9613798687513316
 50
186.0468297205520969
 51
200.0425872757957961
  0
ARC
  5
AA51
  8
0
 10
-50.1995759151946075
 20
45.6121679701221723
 30
0.0
 40
0.7798558239690317
 50
200.4406144631190045
 51
219.3932438328571948
  0
ARC
  5
AA52
  8
0
 10
-49.8489720230501518
 20
45.900088024146001
 30
0.0
 40
1.2335308692337379
 50
219.3932438328571948
 51
233.0208633807203
  0
ARC
  5
AA53
  8
0
 10
-49.7615331102385525
 20
46.0550125090118101
 30
0.0
 40
1.4100828011668971
 50
233.9692727065254871
 51
248.0554563211765924
  0
ARC
  5
AA54
  8
0
 10
-49.62820943395797
 20
46.3859219661073325
 30
0.0
 40
1.7668408024117499
 50
248.0554563211761945
 51
260.1503346315038812
  0
ARC
  5
AA55
  8
0
 10
-49.6032501651560125
 20
46.5296776647540682
 30
0.0
 40
1.912747162768452
 50
260.1503346315038812
 51
270.0328276746135998
  0
ARC
  5
AA56
  8
0
 10
-49.412452301915323
 20
47.6185144774275599
 30
0.0
 40
1.2710078104622551
 50
161.1666126407507988
 51
179.1635920697434869
  0
LINE
  5
AA57
  8
0
 10
-52.4579561530472205
 20
52.1893902965185887
 30
0.0
 11
-50.1480339164162032
 21
52.1893902965371126
 31
0.0
  0
LINE
  5
AA58
  8
0
 10
-52.5798859289162124
 20
52.2686764900371088
 30
0.0
 11
-50.203678399866341
 21
52.2686764900371088
 31
0.0
  0
ENDSEC
  0
EOF
