  0
SECTION
  2
HEADER
  9
$ACADVER
  1
AC1009
  9
$INSBASE
 10
4507.8066108174425608
 20
148.6854492795239935
 30
0.0
  9
$EXTMIN
 10
4484.8313969990122132
 20
145.9043184364543038
 30
0.0
  9
$EXTMAX
 10
4515.1530438810323176
 20
159.5843713831908985
 30
0.0
  9
$LIMMIN
 10
0.0
 20
0.0
  9
$LIMMAX
 10
11.6929133858000007
 20
8.2677165353999982
  9
$ORTHOMODE
 70
     0
  9
$REGENMODE
 70
     1
  9
$FILLMODE
 70
     1
  9
$QTEXTMODE
 70
     0
  9
$MIRRTEXT
 70
     0
  9
$DRAGMODE
 70
     2
  9
$LTSCALE
 40
0.6431102362
  9
$OSMODE
 70
  2039
  9
$ATTMODE
 70
     1
  9
$TEXTSIZE
 40
0.2
  9
$TRACEWID
 40
0.05
  9
$TEXTSTYLE
  7
STANDARD
  9
$CLAYER
  8
0
  9
$CELTYPE
  6
BYLAYER
  9
$CECOLOR
 62
   256
  9
$DIMSCALE
 40
1.0
  9
$DIMASZ
 40
0.1875
  9
$DIMEXO
 40
0.0625
  9
$DIMDLI
 40
0.4443307087
  9
$DIMRND
 40
0.0
  9
$DIMDLE
 40
0.0
  9
$DIMEXE
 40
0.125
  9
$DIMTP
 40
0.01
  9
$DIMTM
 40
0.01
  9
$DIMTXT
 40
2.0
  9
$DIMCEN
 40
0.1052362205
  9
$DIMTSZ
 40
0.0
  9
$DIMTOL
 70
     1
  9
$DIMLIM
 70
     0
  9
$DIMTIH
 70
     1
  9
$DIMTOH
 70
     1
  9
$DIMSE1
 70
     0
  9
$DIMSE2
 70
     0
  9
$DIMTAD
 70
     0
  9
$DIMZIN
 70
     0
  9
$DIMBLK
  1

  9
$DIMASO
 70
     1
  9
$DIMSHO
 70
     1
  9
$DIMPOST
  1
\X
  9
$DIMAPOST
  1

  9
$DIMALT
 70
     1
  9
$DIMALTD
 70
     2
  9
$DIMALTF
 40
25.3999999999999986
  9
$DIMLFAC
 40
1.0
  9
$DIMTOFL
 70
     0
  9
$DIMTVP
 40
0.0
  9
$DIMTIX
 70
     0
  9
$DIMSOXD
 70
     0
  9
$DIMSAH
 70
     0
  9
$DIMBLK1
  1

  9
$DIMBLK2
  1

  9
$DIMSTYLE
  2
STANDARD
  9
$DIMCLRD
 70
     0
  9
$DIMCLRE
 70
     0
  9
$DIMCLRT
 70
     0
  9
$DIMTFAC
 40
1.0
  9
$DIMGAP
 40
0.09
  9
$LUNITS
 70
     2
  9
$LUPREC
 70
     4
  9
$SKETCHINC
 40
0.1
  9
$FILLETRAD
 40
0.0
  9
$AUNITS
 70
     0
  9
$AUPREC
 70
     0
  9
$MENU
  1
.
  9
$ELEVATION
 40
0.0
  9
$PELEVATION
 40
0.0
  9
$THICKNESS
 40
0.0
  9
$LIMCHECK
 70
     0
  9
$BLIPMODE
 70
     0
  9
$CHAMFERA
 40
0.0
  9
$CHAMFERB
 40
0.0
  9
$SKPOLY
 70
     0
  9
$TDCREATE
 40
2458060.468368056230247
  9
$TDUPDATE
 40
2459628.5350347221828997
  9
$TDINDWG
 40
0.4629584491
  9
$TDUSRTIMER
 40
0.4629584491
  9
$USRTIMER
 70
     1
  9
$ANGBASE
 50
0.0
  9
$ANGDIR
 70
     0
  9
$PDMODE
 70
     0
  9
$PDSIZE
 40
0.3125
  9
$PLINEWID
 40
0.0
  9
$COORDS
 70
     1
  9
$SPLFRAME
 70
     0
  9
$SPLINETYPE
 70
     6
  9
$SPLINESEGS
 70
     8
  9
$ATTDIA
 70
     1
  9
$ATTREQ
 70
     1
  9
$HANDLING
 70
     1
  9
$HANDSEED
  5
EE39
  9
$SURFTAB1
 70
     6
  9
$SURFTAB2
 70
     6
  9
$SURFTYPE
 70
     6
  9
$SURFU
 70
     6
  9
$SURFV
 70
     6
  9
$UCSNAME
  2

  9
$UCSORG
 10
0.0
 20
0.0
 30
0.0
  9
$UCSXDIR
 10
1.0
 20
0.0
 30
0.0
  9
$UCSYDIR
 10
0.0
 20
1.0
 30
0.0
  9
$PUCSNAME
  2

  9
$PUCSORG
 10
0.0
 20
0.0
 30
0.0
  9
$PUCSXDIR
 10
1.0
 20
0.0
 30
0.0
  9
$PUCSYDIR
 10
0.0
 20
1.0
 30
0.0
  9
$USERI1
 70
     0
  9
$USERI2
 70
     0
  9
$USERI3
 70
     0
  9
$USERI4
 70
     0
  9
$USERI5
 70
     0
  9
$USERR1
 40
0.0
  9
$USERR2
 40
0.0
  9
$USERR3
 40
0.0
  9
$USERR4
 40
0.0
  9
$USERR5
 40
0.0
  9
$WORLDVIEW
 70
     1
  9
$SHADEDGE
 70
     3
  9
$SHADEDIF
 70
    70
  9
$TILEMODE
 70
     1
  9
$MAXACTVP
 70
    64
  9
$PLIMCHECK
 70
     0
  9
$PEXTMIN
 10
1.0000000000000000E+20
 20
1.0000000000000000E+20
 30
1.0000000000000000E+20
  9
$PEXTMAX
 10
-1.0000000000000000E+20
 20
-1.0000000000000000E+20
 30
-1.0000000000000000E+20
  9
$PLIMMIN
 10
0.0
 20
0.0
  9
$PLIMMAX
 10
12.0
 20
9.0
  9
$UNITMODE
 70
     0
  9
$VISRETAIN
 70
     1
  9
$PLINEGEN
 70
     0
  9
$PSLTSCALE
 70
     1
  0
ENDSEC
  0
SECTION
  2
TABLES
  0
TABLE
  2
VPORT
 70
     1
  0
VPORT
  2
*ACTIVE
 70
     0
 10
0.0
 20
0.0
 11
1.0
 21
1.0
 12
721.6059876252209051
 22
24.4230735857171801
 13
0.0
 23
0.0
 14
1.0
 24
1.0
 15
0.0
 25
0.0
 16
0.0
 26
0.0
 36
17.1152628219792007
 17
3803.5440673828129547
 27
125.9952621967499056
 37
0.0
 40
50.4190110284624922
 41
2.0416666666666661
 42
50.0
 43
0.0
 44
0.0
 50
0.0
 51
0.0
 71
     0
 72
   100
 73
     1
 74
     1
 75
     0
 76
     0
 77
     0
 78
     0
  0
ENDTAB
  0
TABLE
  2
LTYPE
 70
     2
  0
LTYPE
  2
CONTINUOUS
 70
     0
  3
Solid line
 72
    65
 73
     0
 40
0.0
  0
LTYPE
  2
PHANTOM2
 70
     0
  3
___ _ _ ___ _ _ ___ _ _ ___ _ _
 72
    65
 73
     6
 40
1.25
 49
0.625
 49
-0.125
 49
0.125
 49
-0.125
 49
0.125
 49
-0.125
  0
ENDTAB
  0
TABLE
  2
LAYER
 70
     2
  0
LAYER
  2
0
 70
     0
 62
   255
  6
CONTINUOUS
  0
LAYER
  2
DEFPOINTS
 70
     0
 62
     7
  6
CONTINUOUS
  0
ENDTAB
  0
TABLE
  2
STYLE
 70
     1
  0
STYLE
  2
STANDARD
 70
     0
 40
0.0
 41
0.8
 50
0.0
 71
     0
 42
0.2
  3
txt
  4

  0
ENDTAB
  0
TABLE
  2
VIEW
 70
     0
  0
ENDTAB
  0
TABLE
  2
UCS
 70
     0
  0
ENDTAB
  0
TABLE
  2
APPID
 70
     9
  0
APPID
  2
ACAD
 70
     0
  0
APPID
  2
ACAD_MLEADERVER
 70
     0
  0
APPID
  2
ACAD_EXEMPT_FROM_CAD_STANDARDS
 70
     0
  0
APPID
  2
ACAD_NAV_VCDISPLAY
 70
     0
  0
APPID
  2
ACAECLAYERSTANDARD
 70
     0
  0
APPID
  2
ACCMTRANSPARENCY
 70
     0
  0
APPID
  2
ACAD_DSTYLE_DIMJAG
 70
     0
  0
APPID
  2
ACAD_DSTYLE_DIMTALN
 70
     0
  0
APPID
  2
ACDBATTR
 70
     0
  0
ENDTAB
  0
TABLE
  2
DIMSTYLE
 70
     1
  0
DIMSTYLE
  2
STANDARD
 70
     0
  3

  4

  5

  6

  7

 40
1.0
 41
0.1875
 42
0.0625
 43
0.38
 44
0.125
 45
0.0
 46
0.0
 47
0.01
 48
0.01
140
0.15625
141
0.09
142
0.0
143
25.3999999999999986
144
1.0
145
0.0
146
1.0
147
0.09
 71
     1
 72
     0
 73
     1
 74
     1
 75
     0
 76
     0
 77
     0
 78
     4
170
     0
171
     2
172
     0
173
     0
174
     0
175
     0
176
     0
177
     0
178
     0
  0
ENDTAB
  0
ENDSEC
  0
SECTION
  2
BLOCKS
  0
BLOCK
  8
0
  2
$MODEL_SPACE
 70
     0
 10
0.0
 20
0.0
 30
0.0
  3
$MODEL_SPACE
  1

  0
ENDBLK
  5
21
  8
0
  0
BLOCK
 67
     1
  8
0
  2
$PAPER_SPACE
 70
     0
 10
0.0
 20
0.0
 30
0.0
  3
$PAPER_SPACE
  1

  0
ENDBLK
  5
1D
 67
     1
  8
0
  0
BLOCK
  8
0
  2
_FILLED
 70
     0
 10
0.0
 20
0.0
 30
0.0
  3
_FILLED
  1

  0
SOLID
  5
DD24
  8
0
  6
BYBLOCK
 62
     0
 10
0.0
 20
0.0
 30
0.0
 11
-1.0
 21
0.1666666667
 31
0.0
 12
-1.0
 22
-0.1666666667
 32
0.0
 13
-1.0
 23
-0.1666666667
 33
0.0
  0
ENDBLK
  5
DD25
  8
0
  6
BYBLOCK
 62
     0
  0
ENDSEC
  0
SECTION
  2
ENTITIES
  0
ATTDEF
  5
AB47
  8
DEFPOINTS
 10
4507.8082482306335805
 20
148.689024941326096
 30
0.0
 40
0.001
  1
T29365-4
  3

  2
MODELNUMBER
 70
     0
1001
ACDBATTR
1070
     0
1070
     1
  0
ATTDEF
  5
AB48
  8
DEFPOINTS
 10
4507.8082482306335805
 20
148.6873582746594025
 30
0.0
 40
0.001
  1
MEDLEY
  3

  2
TRADENAME
 70
     0
1001
ACDBATTR
1070
     0
1070
     1
  0
ATTDEF
  5
AB49
  8
DEFPOINTS
 10
4507.8082482306335805
 20
148.6856916079927089
 30
0.0
 40
0.001
  1
BATHROOM SINK FAUCET
  3

  2
PRODUCT
 70
     0
1001
ACDBATTR
1070
     0
1070
     1
  0
ARC
  5
E954
  8
0
 10
4500.539105316250243
 20
153.0449479253898062
 30
0.0
 40
0.0810767499645993
 50
86.9443702816444954
 51
175.8107749607056007
  0
ARC
  5
E955
  8
0
 10
4500.5449505231727017
 20
152.7511167342522072
 30
0.0
 40
0.0787401648953106
 50
185.6059698911616067
 51
262.9131296229895725
  0
ARC
  5
E956
  8
0
 10
4502.632575392632134
 20
152.9560295890240127
 30
0.0
 40
2.1763976378001688
 50
177.5024265763007918
 51
185.6059655591024011
  0
ARC
  5
E957
  8
0
 10
4487.7236230271182649
 20
-8.9581561927787163
 30
0.0
 40
162.5902570832834044
 50
84.9453039902561073
 51
85.4776879357192456
  0
ARC
  5
E958
  8
0
 10
4495.6283381631819793
 20
112.3713965712452989
 30
0.0
 40
40.5992010074534306
 50
81.033762158268047
 51
83.0581502880155256
  0
ARC
  5
E959
  8
0
 10
4500.589044252765234
 20
135.2421837955398018
 30
0.0
 40
17.8175181115578383
 50
81.3682972219377518
 51
85.3002316048518026
  0
ARC
  5
E95A
  8
0
 10
4503.0421173768354492
 20
151.2192430650050028
 30
0.0
 40
1.653487283238561
 50
59.6644273847149833
 51
82.3182310386359717
  0
ARC
  5
E95B
  8
0
 10
4500.5097250180451738
 20
143.1898418076171993
 30
0.0
 40
9.3965888043086352
 50
77.1264317539258286
 51
81.1472269776927249
  0
ARC
  5
E95C
  8
0
 10
4493.0380511468665645
 20
152.9803494546993932
 30
0.0
 40
10.2874999323787506
 50
346.5905052800779913
 51
351.5946110501982957
  0
ARC
  5
E95D
  8
0
 10
4502.2683378940928378
 20
150.7466544835585864
 30
0.0
 40
1.6381924646958601
 50
62.4353231743030719
 51
78.2018896970063224
  0
ARC
  5
E95E
  8
0
 10
4501.6233312851500159
 20
151.7232427508203045
 30
0.0
 40
1.6107189489413001
 50
351.1905525412386737
 51
6.7192749071605684
  0
ARC
  5
E95F
  8
0
 10
4502.8401472027053387
 20
151.8605290351345047
 30
0.0
 40
0.3862448343392313
 50
7.6138114442207661
 51
61.1680475103111831
  0
ARC
  5
E960
  8
0
 10
4503.3624576945530862
 20
151.976813423972601
 30
0.0
 40
0.8445459828496069
 50
19.2592495344297596
 51
52.4444933971563216
  0
ARC
  5
E961
  8
0
 10
4962.8615986988243094
 20
250.6496701746210931
 30
0.0
 40
469.0766437200260839
 50
192.2432488516747071
 51
192.3159486425130069
  0
ARC
  5
E962
  8
0
 10
4498.1203996089989232
 20
150.0314604853124081
 30
0.0
 40
6.4357941900761277
 50
10.2447956679265708
 51
20.2156758580748104
  0
ARC
  5
E963
  8
0
 10
4503.0568041026081119
 20
150.5919594698058859
 30
0.0
 40
0.0120068733803935
 50
167.3712224556473132
 51
269.9595879012953787
  0
ARC
  5
E964
  8
0
 10
4504.5684428992535686
 20
150.5919594370147934
 30
0.0
 40
0.0120068897343236
 50
270.0401607885145268
 51
12.3239027482846595
  0
ARC
  5
E965
  8
0
 10
4503.0577954459176908
 20
150.5485146683062965
 30
0.0
 40
0.0200055147893335
 50
90.0122053467852652
 51
167.2783334904908088
  0
ARC
  5
E966
  8
0
 10
4504.5672757657021066
 20
150.5485144519956862
 30
0.0
 40
0.020005567391713
 50
12.3939643736249199
 51
89.9876667068098897
  0
LINE
  5
E967
  8
0
 10
4503.0567956338691147
 20
150.5799525994119961
 30
0.0
 11
4504.5684513153400985
 21
150.57995255022999
 31
0.0
  0
LINE
  5
E968
  8
0
 10
4504.5672800720312807
 20
150.5685200189240049
 30
0.0
 11
4503.0577911842738104
 21
150.5685201826416915
 31
0.0
  0
LINE
  5
E969
  8
0
 10
4503.1087254623316767
 20
150.579953124123989
 30
0.0
 11
4503.1087254623316767
 21
150.5685201771173922
 31
0.0
  0
LINE
  5
E96A
  8
0
 10
4504.5164382512311931
 20
150.5799525519221902
 30
0.0
 11
4504.5164382499915519
 21
150.5685200244381861
 31
0.0
  0
ARC
  5
E96B
  8
0
 10
4500.4480873178035836
 20
152.8023071078958992
 30
0.0
 40
0.3171909846924965
 50
36.6444778340834176
 51
47.0755999588188487
  0
ARC
  5
E96C
  8
0
 10
4500.3962535150967597
 20
152.8896662066395891
 30
0.0
 40
0.2783359997238681
 50
54.429293896999809
 51
58.0781198370127996
  0
ARC
  5
E96D
  8
0
 10
4499.9498346651271277
 20
152.2156267851840994
 30
0.0
 40
1.0866699777623701
 50
48.9055858386176823
 51
55.9573296711026771
  0
ARC
  5
E96E
  8
0
 10
4583.7947242490827193
 20
131.6229662606532997
 30
0.0
 40
82.9454415588041343
 50
166.8075986193497044
 51
168.112126315781012
  0
ARC
  5
E96F
  8
0
 10
4502.6478353053043975
 20
148.7054495594121875
 30
0.0
 40
0.0200004066980946
 50
168.3583416947899991
 51
269.998203891930018
  0
LINE
  5
E970
  8
0
 10
4502.6478346783305824
 20
148.6854491527238906
 30
0.0
 11
4504.9563910439183019
 21
148.6854491527238906
 31
0.0
  0
ARC
  5
E971
  8
0
 10
4384.4020134577185672
 20
128.4837003987751132
 30
0.0
 40
121.9347996514334938
 50
10.4474606922620392
 51
10.7896738260825096
  0
ARC
  5
E972
  8
0
 10
4493.5484420525217502
 20
149.4195287034089858
 30
0.0
 40
10.7995128380366392
 50
10.0839017187638706
 51
14.4103749226606492
  0
ARC
  5
E973
  8
0
 10
4503.399748390726927
 20
152.0009437445590095
 30
0.0
 40
0.617633824081919
 50
9.9018285801930794
 51
66.6459692070406362
  0
ARC
  5
E974
  8
0
 10
4502.8834609996229119
 20
150.3633596551779874
 30
0.0
 40
2.3323050091220709
 50
70.9532195245970456
 51
85.3301652054986732
  0
ARC
  5
E975
  8
0
 10
4497.3852225213031488
 20
37.6865548994275628
 30
0.0
 40
115.1684689685568941
 50
87.5839274492292219
 51
88.3503122432468473
  0
ARC
  5
E976
  8
0
 10
4501.6747180625543479
 20
140.079123692983103
 30
0.0
 40
12.6861323428703994
 50
83.6703699565434817
 51
87.4449525017995768
  0
ARC
  5
E977
  8
0
 10
4500.3856765157634072
 20
152.9026035997684119
 30
0.0
 40
0.3291754019223307
 50
343.1687220881310054
 51
15.6897439511521597
  0
ARC
  5
E978
  8
0
 10
4500.4780627336440375
 20
152.9531429722711096
 30
0.0
 40
0.2662013773466117
 50
307.5399468029581271
 51
326.7764704455233868
  0
ARC
  5
E979
  8
0
 10
4500.1292764798809003
 20
153.4045072513264927
 30
0.0
 40
0.8366229834688834
 50
299.0279323711137067
 51
307.645404740780009
  0
ARC
  5
E97A
  8
0
 10
4504.3762144770162195
 20
150.5913887657337114
 30
0.0
 40
0.0609699103833792
 50
176.9776641564023123
 51
190.8105425111506008
  0
ARC
  5
E97B
  8
0
 10
4460.5582268085390751
 20
140.2974247607463099
 30
0.0
 40
45.2071839257469392
 50
10.7208562557245308
 51
13.1118629008437306
  0
ARC
  5
E97C
  8
0
 10
4504.9563904169463058
 20
148.7054495594121875
 30
0.0
 40
0.0200004066980885
 50
270.001796108069982
 51
4.6150157641508089
  0
ARC
  5
E97D
  8
0
 10
4471.7157069933082312
 20
144.1508160104206979
 30
0.0
 40
33.2277955253004009
 50
7.8856279425752449
 51
11.1088628325297307
  0
LINE
  5
E97E
  8
0
 10
4504.6292974480311386
 20
148.7095393898239877
 30
0.0
 11
4504.6291770750312935
 21
148.6854491527238906
 31
0.0
  0
LINE
  5
E97F
  8
0
 10
4504.3209090565305814
 20
150.5529401803239864
 30
0.0
 11
4504.3209090565305814
 21
150.5685200189240049
 31
0.0
  0
ARC
  5
E980
  8
0
 10
4506.7476663412980997
 20
148.7335995355676914
 30
0.0
 40
0.0331500118876246
 50
174.9933686121069059
 51
211.5474594369009935
  0
ARC
  5
E981
  8
0
 10
4506.7476682145661471
 20
148.7336014080619009
 30
0.0
 40
0.0331525880029918
 50
211.548523431422808
 51
238.4209990044820984
  0
ARC
  5
E982
  8
0
 10
4506.7476663464722151
 20
148.7335995550938037
 30
0.0
 40
0.033150031159316
 50
238.4220725219354904
 51
270.108677366216682
  0
ARC
  5
E983
  8
0
 10
4506.7435743036312488
 20
148.7208237177239027
 30
0.0
 40
0.0203744657999776
 50
229.4126086235642958
 51
242.8724432245230958
  0
ARC
  5
E984
  8
0
 10
4506.7437038703374128
 20
148.7215052548177141
 30
0.0
 40
0.0210622831903678
 50
251.8656089817646091
 51
274.9044009015910888
  0
ARC
  5
E985
  8
0
 10
4506.7435743036312488
 20
148.720823717723988
 30
0.0
 40
0.0203744657999875
 50
242.8724432245192872
 51
251.6153412369297087
  0
LINE
  5
E986
  8
0
 10
4506.7477292246812794
 20
148.7004495835674902
 30
0.0
 11
4508.8655552950312995
 21
148.700449523923993
 31
0.0
  0
ARC
  5
E987
  8
0
 10
4246.9063839699429082
 20
171.5245022509589887
 30
0.0
 40
260.8057222274084097
 50
354.9873651843391258
 51
355.4441556396021156
  0
ARC
  5
E988
  8
0
 10
4327.9944229314623954
 20
165.4850226784191136
 30
0.0
 40
179.4946622467751922
 50
355.3099343934699732
 51
356.235706829681817
  0
ARC
  5
E989
  8
0
 10
4507.0866592681950351
 20
153.8723511001797135
 30
0.0
 40
0.1235104997888318
 50
207.9456119034119013
 51
216.8957018072385097
  0
ARC
  5
E98A
  8
0
 10
4595.0892325349159364
 20
149.7382771860069965
 30
0.0
 40
88.2095567038191604
 50
177.0127338457999997
 51
177.341249928787505
  0
ARC
  5
E98B
  8
0
 10
4540.0783340325097015
 20
152.7331993114831903
 30
0.0
 40
33.1175650090295193
 50
175.1926773393234953
 51
177.2272872233124872
  0
ARC
  5
E98C
  8
0
 10
4507.8095734174812605
 20
155.6384267746790897
 30
0.0
 40
0.9476161953999929
 50
90.1791281406428737
 51
108.9822232377045026
  0
ARC
  5
E98D
  8
0
 10
4507.7841956698239301
 20
155.6732297073909024
 30
0.0
 40
0.9065397648858518
 50
108.1809649905960953
 51
128.0451646622784097
  0
ARC
  5
E98E
  8
0
 10
4507.2921960376233983
 20
156.3147144994536859
 30
0.0
 40
0.0984589198558766
 50
132.6319775210752994
 51
159.482356538383101
  0
ARC
  5
E98F
  8
0
 10
4507.5115537976325868
 20
156.2260901791671017
 30
0.0
 40
0.3350198937943449
 50
158.4359170292590875
 51
164.7693835305722985
  0
ARC
  5
E990
  8
0
 10
4509.849466058055441
 20
155.6711734691469928
 30
0.0
 40
2.7385689858736391
 50
167.3170219825125002
 51
172.0845209445240869
  0
ARC
  5
E991
  8
0
 10
4508.0864952673509833
 20
156.063758676835306
 30
0.0
 40
0.932429286987158
 50
164.4258925868786037
 51
167.0672100162861966
  0
ARC
  5
E992
  8
0
 10
4513.4270752362890562
 20
155.1292579163250025
 30
0.0
 40
6.3568728860804171
 50
171.6872867141941015
 51
173.7885967209726061
  0
ARC
  5
E993
  8
0
 10
4520.4222064264340588
 20
154.3555196010215127
 30
0.0
 40
13.3946608235755402
 50
173.7358022553839021
 51
175.0614754908924908
  0
ARC
  5
E994
  8
0
 10
4506.836007091988904
 20
153.8247411025251097
 30
0.0
 40
0.1387264139791128
 50
1.4983692411890559
 51
2.20538619842951
  0
LINE
  5
E995
  8
0
 10
4506.9746860711929912
 20
153.828368589597801
 30
0.0
 11
4506.9747890908311092
 21
153.8248597351239937
 31
0.0
  0
LINE
  5
E996
  8
0
 10
4506.9747890908311092
 20
153.8248597351239937
 30
0.0
 11
4506.9757567099313746
 21
153.8195961755239978
 31
0.0
  0
LINE
  5
E997
  8
0
 10
4506.9757567099313746
 20
153.8195961755239978
 30
0.0
 11
4506.977550976830571
 21
153.8144699779240057
 31
0.0
  0
LINE
  5
E998
  8
0
 10
4506.9878842933076157
 20
153.7982002526225926
 30
0.0
 11
4506.9978577384317759
 21
153.7853116882239988
 31
0.0
  0
ARC
  5
E999
  8
0
 10
4508.2241004842544498
 20
153.7682830574090929
 30
0.0
 40
1.165266119681156
 50
178.408237048629104
 51
178.7672230411334908
  0
ARC
  5
E99A
  8
0
 10
4507.0491095765319187
 20
153.7936845894240037
 30
0.0
 40
0.0099999999999993
 50
282.3933369380112026
 51
358.0998328900059846
  0
ARC
  5
E99B
  8
0
 10
4507.0163038690097892
 20
153.8107744521103086
 30
0.0
 40
0.0340581927983881
 50
265.5233208252357144
 51
281.4388830552969125
  0
ARC
  5
E99C
  8
0
 10
4507.0152106189243568
 20
153.7996143918292944
 30
0.0
 40
0.0224875474833012
 50
219.4962504505419076
 51
237.1861414605338894
  0
ARC
  5
E99D
  8
0
 10
4507.017191539192936
 20
153.8029190739349872
 30
0.0
 40
0.0263387047308082
 50
237.4602558037641984
 51
262.2626753218482918
  0
LINE
  5
E99E
  8
0
 10
4507.023058376431436
 20
153.7773927636239932
 30
0.0
 11
4507.0512557939928229
 21
153.7839176169858888
 31
0.0
  0
ARC
  5
E99F
  8
0
 10
4507.8833105527182852
 20
149.2091984141383136
 30
0.0
 40
4.6756999691134906
 50
95.4381976634478235
 51
96.1545230535442954
  0
ARC
  5
E9A0
  8
0
 10
4507.7127305475796675
 20
150.850931373022803
 30
0.0
 40
3.0251482231773101
 50
96.2759982998280037
 51
97.819041867589462
  0
ARC
  5
E9A1
  8
0
 10
4507.6385077531613206
 20
151.3789822274349035
 30
0.0
 40
2.4919097738751188
 50
97.7800891880522727
 51
100.0627070968459975
  0
ARC
  5
E9A2
  8
0
 10
4507.5671804718849671
 20
151.7828088830522972
 30
0.0
 40
2.0818324404980291
 50
100.0717593087927071
 51
101.4569766462584965
  0
ARC
  5
E9A3
  8
0
 10
4507.4859568070532987
 20
152.1726510358369922
 30
0.0
 40
1.683626005559091
 50
101.383126735074697
 51
104.4877622823189967
  0
ARC
  5
E9A4
  8
0
 10
4507.4064889414412391
 20
152.4868660850112008
 30
0.0
 40
1.3595229414980761
 50
104.5580296297058993
 51
105.1112292324997952
  0
ARC
  5
E9A5
  8
0
 10
4507.0465331072264235
 20
153.7946380778319053
 30
0.0
 40
0.0019421223675301
 50
149.6907358775935961
 51
181.6263751425861983
  0
ARC
  5
E9A6
  8
0
 10
4507.0598414429214245
 20
153.7698956029304895
 30
0.0
 40
0.0304903101584372
 50
104.7669205772275944
 51
110.5582972176263041
  0
ARC
  5
E9A7
  8
0
 10
4507.0484355524022249
 20
153.7934193831871141
 30
0.0
 40
0.0042005730061248
 50
121.963100366956894
 51
148.4355600508349937
  0
ARC
  5
E9A8
  8
0
 10
4507.0541209124730813
 20
153.7848160006205944
 30
0.0
 40
0.0145117593280666
 50
110.0972567835165989
 51
123.0252341240897067
  0
ARC
  5
E9A9
  8
0
 10
4507.0502878722263631
 20
153.7888291163833117
 30
0.0
 40
0.0050059663282607
 50
256.3860819995850875
 51
281.1485633452729189
  0
LINE
  5
E9AA
  8
0
 10
4507.0445917672323048
 20
153.7945829569239891
 30
0.0
 11
4507.0447518456312537
 21
153.7939182108239891
 31
0.0
  0
LINE
  5
E9AB
  8
0
 10
4507.0447518456312537
 20
153.7939182108239891
 30
0.0
 11
4507.0491095768311425
 21
153.7839637984239971
 31
0.0
  0
LINE
  5
E9AC
  8
0
 10
4507.4401850749318328
 20
153.8638530750239966
 30
0.0
 11
4508.1729926394227732
 21
153.8638576589565901
 31
0.0
  0
ARC
  5
E9AD
  8
0
 10
4507.1314309130330003
 20
153.8898269233679059
 30
0.0
 40
0.1693319339328624
 50
219.1035692453488082
 51
224.7369824500406992
  0
ARC
  5
E9AE
  8
0
 10
4507.3296828544825985
 20
154.0906300445861916
 30
0.0
 40
0.4515058578477648
 50
225.1302796638894961
 51
239.6931661279934929
  0
ARC
  5
E9AF
  8
0
 10
4507.4894490727447192
 20
153.776860111820298
 30
0.0
 40
0.2175009603046051
 50
255.3136030446727887
 51
266.451986772883572
  0
ARC
  5
E9B0
  8
0
 10
4507.8076918380838833
 20
168.9592062155261942
 30
0.0
 40
15.4036255888752098
 50
269.8865606804380946
 51
269.9885397466089216
  0
ARC
  5
E9B1
  8
0
 10
4507.8069441370280401
 20
168.4488071660418029
 30
0.0
 40
14.8932260617178596
 50
269.5232424234666837
 51
269.8855495335798196
  0
ARC
  5
E9B2
  8
0
 10
4507.5028388900836944
 20
153.9140654041100049
 30
0.0
 40
0.3553053189088903
 50
265.6661184778481015
 51
268.8262281283900279
  0
ARC
  5
E9B3
  8
0
 10
4507.7073632980336697
 20
161.6415913165679115
 30
0.0
 40
8.0855312681712537
 50
268.498949358020127
 51
269.8274922583653961
  0
ARC
  5
E9B4
  8
0
 10
4507.4579311702909763
 20
154.2870181824135045
 30
0.0
 40
0.6858711109377652
 50
238.7225971772305115
 51
239.0456938220168865
  0
ARC
  5
E9B5
  8
0
 10
4507.5485660440563151
 20
154.443862676055204
 30
0.0
 40
0.8670009102819843
 50
239.2404592330738069
 51
245.5186049479735004
  0
ARC
  5
E9B6
  8
0
 10
4507.82725366349041
 20
155.0595866464892083
 30
0.0
 40
1.5428570303019959
 50
245.5751324060884997
 51
252.3408088103248019
  0
ARC
  5
E9B7
  8
0
 10
4508.0475338107762582
 20
155.7070467901151005
 30
0.0
 40
2.2266712472776891
 50
251.9936839630763927
 51
253.4583239931270953
  0
ARC
  5
E9B8
  8
0
 10
4508.0912151749707846
 20
155.850436255849786
 30
0.0
 40
2.376563108363881
 50
253.4330408166077859
 51
253.9538676534731962
  0
ARC
  5
E9B9
  8
0
 10
4507.8021604732757623
 20
151.9334362788825104
 30
0.0
 40
1.898337636105746
 50
89.9260434796098593
 51
93.4120769138822311
  0
ARC
  5
E9BA
  8
0
 10
4507.7701465090112833
 20
152.3007075124012033
 30
0.0
 40
1.529845424125849
 50
93.0338684246946883
 51
99.021711910889735
  0
ARC
  5
E9BB
  8
0
 10
4507.5289186588142911
 20
153.4338897372632005
 30
0.0
 40
0.3692982206225459
 50
105.9249246101663005
 51
114.8355289066832938
  0
ARC
  5
E9BC
  8
0
 10
4507.6207074326066504
 20
153.1308641610314965
 30
0.0
 40
0.685898204174336
 50
101.0502706415798002
 51
106.3528469003480978
  0
ARC
  5
E9BD
  8
0
 10
4507.660856953189068
 20
152.9904403588870991
 30
0.0
 40
0.8315077417580827
 50
99.0367747349220053
 51
101.910942185888004
  0
ARC
  5
E9BE
  8
0
 10
4507.4377040081781161
 20
153.6276859515081128
 30
0.0
 40
0.1551194614111409
 50
114.3252197288502998
 51
126.1030318780670996
  0
ARC
  5
E9BF
  8
0
 10
4507.804277877401546
 20
155.220308384966188
 30
0.0
 40
1.6130808481994841
 50
265.9082190489103255
 51
270.0118258718010793
  0
ARC
  5
E9C0
  8
0
 10
4507.4405678445709782
 20
153.6983395943711059
 30
0.0
 40
0.0239583472309246
 50
180.6489193417959029
 51
212.5575026002385925
  0
ARC
  5
E9C1
  8
0
 10
4507.4880854460234332
 20
153.7369818919023032
 30
0.0
 40
0.0850921058736672
 50
217.2750772666568082
 51
248.011009524024189
  0
ARC
  5
E9C2
  8
0
 10
4507.7907721910232794
 20
155.0048768314563858
 30
0.0
 40
1.3972360266766359
 50
264.4128010370158108
 51
265.8302771175310113
  0
ARC
  5
E9C3
  8
0
 10
4507.6898804945603842
 20
154.304769948791801
 30
0.0
 40
0.6896730920744361
 50
254.6082181466589986
 51
261.8611905745007107
  0
ARC
  5
E9C4
  8
0
 10
4507.8010277702169333
 20
152.3007553205831925
 30
0.0
 40
1.4881623071511629
 50
89.8620488442909391
 51
97.6458989367298642
  0
ARC
  5
E9C5
  8
0
 10
4507.7078285026500453
 20
153.011081771465598
 30
0.0
 40
0.7717539379974915
 50
97.8046678696872789
 51
105.6632554203596044
  0
ARC
  5
E9C6
  8
0
 10
4507.5664849983168097
 20
153.5123306558326135
 30
0.0
 40
0.2509597121526887
 50
105.4883615365244935
 51
120.4614473918850024
  0
ARC
  5
E9C7
  8
0
 10
4507.4675737949646646
 20
153.6800382317400988
 30
0.0
 40
0.0562573624171008
 50
120.2192997378698038
 51
147.5568925578045025
  0
ARC
  5
E9C8
  8
0
 10
4507.441377227578414
 20
153.6975378566750976
 30
0.0
 40
0.0247718725214808
 50
149.210665385391593
 51
178.7731324656573975
  0
ARC
  5
E9C9
  8
0
 10
4507.7662569218109638
 20
154.7672682549174112
 30
0.0
 40
1.1583701572973999
 50
261.3601078104343856
 51
264.4753760128533031
  0
ARC
  5
E9CA
  8
0
 10
4507.5900736255071024
 20
153.9499942158089993
 30
0.0
 40
0.3211380345201644
 50
245.3675230472844078
 51
254.9763508781570067
  0
ARC
  5
E9CB
  8
0
 10
4507.805839498882051
 20
152.2648683156245966
 30
0.0
 40
1.513853382972318
 50
90.0465026807461868
 51
92.0673632135709283
  0
ARC
  5
E9CC
  8
0
 10
4507.8022123577620732
 20
152.3888043857672869
 30
0.0
 40
1.3898673926322731
 50
92.1022447232682566
 51
94.0431023571550355
  0
ARC
  5
E9CD
  8
0
 10
4507.7965691591771247
 20
152.4969288575464077
 30
0.0
 40
1.2816156784380159
 50
94.1322623582647822
 51
96.4302682436036633
  0
ARC
  5
E9CE
  8
0
 10
4507.7615842201821579
 20
152.8167691449282017
 30
0.0
 40
0.959870020525455
 50
96.4932614203686683
 51
98.8041539524817836
  0
ARC
  5
E9CF
  8
0
 10
4507.7322090402758477
 20
153.0050949210726117
 30
0.0
 40
0.7692671689513066
 50
98.7889306786791508
 51
102.7564732109364058
  0
ARC
  5
E9D0
  8
0
 10
4507.6843886174174258
 20
153.2368629900757071
 30
0.0
 40
0.5327122286159885
 50
103.2443724963459033
 51
107.1785596170476964
  0
ARC
  5
E9D1
  8
0
 10
4507.5896014283198383
 20
153.5388380493457987
 30
0.0
 40
0.2162174854647386
 50
106.8154843456542977
 51
119.4670678179449936
  0
ARC
  5
E9D2
  8
0
 10
4507.5117023987786524
 20
153.6752156928390889
 30
0.0
 40
0.0591660656459619
 50
118.7556986109286044
 51
139.0597727064119908
  0
ARC
  5
E9D3
  8
0
 10
4507.4850820965730236
 20
153.6965664044427058
 30
0.0
 40
0.0251012366833876
 50
136.0560399449697968
 51
171.7507573528083071
  0
ARC
  5
E9D4
  8
0
 10
4507.4846771044021807
 20
153.6984690222072061
 30
0.0
 40
0.0244955139582837
 50
176.0230356915803043
 51
233.6211036172483091
  0
ARC
  5
E9D5
  8
0
 10
4507.556420266607347
 20
153.7837229662854099
 30
0.0
 40
0.1358776331516132
 50
230.5856360168282038
 51
253.0210298222968106
  0
ARC
  5
E9D6
  8
0
 10
4507.6853175934929823
 20
154.1525680536732068
 30
0.0
 40
0.5265164111916697
 50
251.3266047650604946
 51
262.1112792648120831
  0
ARC
  5
E9D7
  8
0
 10
4507.8016526723231436
 20
154.9293226964099972
 30
0.0
 40
1.3119155265127109
 50
261.734597367312972
 51
270.1291923136587911
  0
ARC
  5
E9D8
  8
0
 10
4507.3831327360685464
 20
153.7002577332667954
 30
0.0
 40
0.0643426615975053
 50
124.9193213446029063
 51
138.8073105967920071
  0
ARC
  5
E9D9
  8
0
 10
4507.3641905493195736
 20
153.7138567032407082
 30
0.0
 40
0.0411935496586357
 50
135.6874036494996005
 51
148.9335405980637859
  0
ARC
  5
E9DA
  8
0
 10
4507.3656515235543338
 20
153.7137444182831132
 30
0.0
 40
0.0425080068403483
 50
149.8201178850883935
 51
162.3399466590595068
  0
ARC
  5
E9DB
  8
0
 10
4507.3512834202501836
 20
153.7192082879801092
 30
0.0
 40
0.0271726794203922
 50
164.1273448978679141
 51
205.0158099221713996
  0
ARC
  5
E9DC
  8
0
 10
4507.3862253802572013
 20
153.7399424928017879
 30
0.0
 40
0.0677236312753763
 50
208.4131499749072987
 51
239.6628916555420972
  0
ARC
  5
E9DD
  8
0
 10
4507.4807967163569629
 20
153.888643430432893
 30
0.0
 40
0.2439164817243169
 50
238.1324157208156009
 51
251.9227521568145107
  0
ARC
  5
E9DE
  8
0
 10
4507.6100794486919767
 20
154.2584173443719067
 30
0.0
 40
0.6356066833782662
 50
251.1870936379474983
 51
258.9992622638105786
  0
ARC
  5
E9DF
  8
0
 10
4507.7878448926330748
 20
155.3317408044972865
 30
0.0
 40
1.7244949740511311
 50
263.1950535341537147
 51
266.7200178443104051
  0
ARC
  5
E9E0
  8
0
 10
4507.7239954647957347
 20
154.8055739815225991
 30
0.0
 40
1.1944698139769001
 50
258.6436554053373129
 51
263.2456248312585103
  0
ARC
  5
E9E1
  8
0
 10
4507.4892916842100021
 20
153.8339582999120125
 30
0.0
 40
0.1904428499086795
 50
232.6706350774028067
 51
250.8437355440601095
  0
ARC
  5
E9E2
  8
0
 10
4507.6054623825575618
 20
154.1467370606191878
 30
0.0
 40
0.5240711757214217
 50
250.0673726285398004
 51
257.1872178098442987
  0
ARC
  5
E9E3
  8
0
 10
4507.5443621156646259
 20
153.4817241332962965
 30
0.0
 40
0.3066570692801084
 50
100.3550680481366015
 51
123.7915088564047039
  0
ARC
  5
E9E4
  8
0
 10
4507.5712771593452999
 20
153.5284386500752021
 30
0.0
 40
0.2487521069875682
 50
99.492487895417824
 51
124.6540890189413062
  0
ARC
  5
E9E5
  8
0
 10
4507.803790335659869
 20
151.9657467605958061
 30
0.0
 40
1.848222691863048
 50
89.9745646598424855
 51
93.5553326791648772
  0
ARC
  5
E9E6
  8
0
 10
4507.8039207093843288
 20
152.1926981545803983
 30
0.0
 40
1.6076940227160459
 50
89.9754055760525233
 51
93.5565695950320446
  0
LINE
  5
E9E7
  8
0
 10
4507.6891775238318587
 20
153.8284087414239991
 30
0.0
 11
4507.6891775238318587
 21
153.8104123189239942
 31
0.0
  0
LINE
  5
E9E8
  8
0
 10
4507.6891775238318587
 20
153.8104123189239942
 30
0.0
 11
4507.704189028431756
 21
153.7972958183239882
 31
0.0
  0
LINE
  5
E9E9
  8
0
 10
4507.5302533868307364
 20
153.8116272030696052
 30
0.0
 11
4507.5302533868307364
 21
153.7737846523239966
 31
0.0
  0
LINE
  5
E9EA
  8
0
 10
4507.5302533868307364
 20
153.7737846523239966
 30
0.0
 11
4507.4892411935306882
 21
153.7833865971240073
 31
0.0
  0
LINE
  5
E9EB
  8
0
 10
4507.4892411935306882
 20
153.7833865971240073
 30
0.0
 11
4507.4892411935306882
 21
153.8040453955240139
 31
0.0
  0
LINE
  5
E9EC
  8
0
 10
4507.3738078994310854
 20
153.7690342256238978
 30
0.0
 11
4507.3738078994310854
 21
153.7365766739239916
 31
0.0
  0
LINE
  5
E9ED
  8
0
 10
4507.3738078994310854
 20
153.7365766739239916
 30
0.0
 11
4507.4298315973319404
 21
153.7330621182240122
 31
0.0
  0
LINE
  5
E9EE
  8
0
 10
4507.416610817932451
 20
153.7338915023478023
 30
0.0
 11
4507.4166110339310762
 21
153.6980682532528135
 31
0.0
  0
LINE
  5
E9EF
  8
0
 10
4507.416610817932451
 20
153.7231264636239985
 30
0.0
 11
4507.3738078994310854
 21
153.7204412920239918
 31
0.0
  0
LINE
  5
E9F0
  8
0
 10
4507.3738078994310854
 20
153.7204412920239918
 30
0.0
 11
4507.3738078994310854
 21
153.6825252304240053
 31
0.0
  0
LINE
  5
E9F1
  8
0
 10
4507.3738078994310854
 20
153.6825252304240053
 30
0.0
 11
4507.4203745088861979
 21
153.6854465111130992
 31
0.0
  0
ARC
  5
E9F2
  8
0
 10
4507.4169660361767455
 20
153.7792638127617977
 30
0.0
 40
0.0838437625531268
 50
218.5663684420771062
 51
239.0088430874982066
  0
ARC
  5
E9F3
  8
0
 10
4507.3709489420798491
 20
153.7449580112973138
 30
0.0
 40
0.0259311788780365
 50
161.8956919378456973
 51
191.7224949672691139
  0
ARC
  5
E9F4
  8
0
 10
4507.3782385819904448
 20
153.7470547864863022
 30
0.0
 40
0.0334996687321855
 50
192.7008463540140895
 51
216.7868073545155028
  0
ARC
  5
E9F5
  8
0
 10
4507.4124315573453714
 20
153.817677561343686
 30
0.0
 40
0.1174452009840014
 50
224.667981811203191
 51
250.7642266457704068
  0
LINE
  5
E9F6
  8
0
 10
4507.804610817930552
 20
153.6513269794239989
 30
0.0
 11
4507.7790202668311395
 21
153.6478678627240129
 31
0.0
  0
LINE
  5
E9F7
  8
0
 10
4507.7790202668311395
 20
153.6478678627240129
 30
0.0
 11
4507.7790202668311395
 21
153.6409496291240089
 31
0.0
  0
LINE
  5
E9F8
  8
0
 10
4507.7790202668311395
 20
153.6409496291240089
 30
0.0
 11
4507.7819351302314317
 21
153.6405556222240136
 31
0.0
  0
LINE
  5
E9F9
  8
0
 10
4507.7819351302314317
 20
153.6405556222240136
 30
0.0
 11
4507.7819351302314317
 21
153.6482618695239921
 31
0.0
  0
LINE
  5
E9FA
  8
0
 10
4507.7819351302132418
 20
153.6405556222117923
 30
0.0
 11
4507.7666366290313817
 21
153.640872227923893
 31
0.0
  0
LINE
  5
E9FB
  8
0
 10
4507.7666366290313817
 20
153.640872227923893
 30
0.0
 11
4507.7666366290313817
 21
153.6479452639096053
 31
0.0
  0
LINE
  5
E9FC
  8
0
 10
4507.7672038937016623
 20
153.6408604882618079
 30
0.0
 11
4507.7672092431312194
 21
153.6478678627240129
 31
0.0
  0
LINE
  5
E9FD
  8
0
 10
4507.7672092431312194
 20
153.6478678627240129
 30
0.0
 11
4507.7416186920318069
 21
153.6513269794239989
 31
0.0
  0
LINE
  5
E9FE
  8
0
 10
4507.7416186920318069
 20
153.6513269794239989
 30
0.0
 11
4507.7160281408323499
 21
153.6478678627240129
 31
0.0
  0
LINE
  5
E9FF
  8
0
 10
4507.7160281408323499
 20
153.6478678627240129
 30
0.0
 11
4507.7160281408323499
 21
153.6430927906239958
 31
0.0
  0
LINE
  5
EA00
  8
0
 10
4507.7160281408323499
 20
153.6430927906239958
 30
0.0
 11
4507.7042171172315648
 21
153.6438816422239881
 31
0.0
  0
LINE
  5
EA01
  8
0
 10
4507.7042171172315648
 20
153.6438816422239881
 30
0.0
 11
4507.7042171172315648
 21
153.6478678627240129
 31
0.0
  0
LINE
  5
EA02
  8
0
 10
4507.7042171172315648
 20
153.6478678627240129
 30
0.0
 11
4507.6786265660311983
 21
153.6513269794239989
 31
0.0
  0
LINE
  5
EA03
  8
0
 10
4507.6786265660311983
 20
153.6513269794239989
 30
0.0
 11
4507.6560124160314444
 21
153.6482701877239947
 31
0.0
  0
LINE
  5
EA04
  8
0
 10
4507.6560124160314444
 20
153.6482701877239947
 30
0.0
 11
4507.6097289282306519
 21
153.6545271344240007
 31
0.0
  0
LINE
  5
EA05
  8
0
 10
4507.6097289282306519
 20
153.6545271344240007
 30
0.0
 11
4507.6097289282306519
 21
153.6606399862239982
 31
0.0
  0
LINE
  5
EA06
  8
0
 10
4507.6097289282306519
 20
153.6606399862239982
 30
0.0
 11
4507.584138377031195
 21
153.6640991030240002
 31
0.0
  0
LINE
  5
EA07
  8
0
 10
4507.584138377031195
 20
153.6640991030240002
 30
0.0
 11
4507.5694001408928671
 21
153.6621069113963927
 31
0.0
  0
LINE
  5
EA08
  8
0
 10
4507.5694001408928671
 20
153.6621069113963927
 30
0.0
 11
4507.5605846319986085
 21
153.6641057426697046
 31
0.0
  0
LINE
  5
EA09
  8
0
 10
4507.5605846319986085
 20
153.6641057426697046
 30
0.0
 11
4507.5782328652312572
 21
153.6664912833240066
 31
0.0
  0
LINE
  5
EA0A
  8
0
 10
4507.5782328652312572
 20
153.6664912833240066
 30
0.0
 11
4507.5782328652312572
 21
153.6734095169240106
 31
0.0
  0
LINE
  5
EA0B
  8
0
 10
4507.5782328652312572
 20
153.6734095169240106
 30
0.0
 11
4507.5526423140308907
 21
153.6768686337240126
 31
0.0
  0
LINE
  5
EA0C
  8
0
 10
4507.5526423140308907
 20
153.6768686337240126
 30
0.0
 11
4507.5267313857775662
 21
153.6733648391580118
 31
0.0
  0
LINE
  5
EA0D
  8
0
 10
4507.5267313857775662
 20
153.6733648391580118
 30
0.0
 11
4507.5182722264307813
 21
153.6761927767240081
 31
0.0
  0
LINE
  5
EA0E
  8
0
 10
4507.5182722264307813
 20
153.6761927767240081
 30
0.0
 11
4507.5211462510324054
 21
153.67580429002399
 31
0.0
  0
LINE
  5
EA0F
  8
0
 10
4507.5211462510324054
 20
153.67580429002399
 30
0.0
 11
4507.5467368022318624
 21
153.679263406823992
 31
0.0
  0
LINE
  5
EA10
  8
0
 10
4507.5467368022318624
 20
153.679263406823992
 30
0.0
 11
4507.5467368022318624
 21
153.686181640423996
 31
0.0
  0
LINE
  5
EA11
  8
0
 10
4507.5467368022318624
 20
153.686181640423996
 30
0.0
 11
4507.5211462510324054
 21
153.689640757223998
 31
0.0
  0
LINE
  5
EA12
  8
0
 10
4507.5211462510324054
 20
153.689640757223998
 30
0.0
 11
4507.4955556998311295
 21
153.686181640423996
 31
0.0
  0
LINE
  5
EA13
  8
0
 10
4507.4955556998311295
 20
153.686181640423996
 30
0.0
 11
4507.4955556998311295
 21
153.6854060079240014
 31
0.0
  0
LINE
  5
EA14
  8
0
 10
4507.4955556998311295
 20
153.6854060079240014
 30
0.0
 11
4507.489119348031636
 21
153.6886455753239886
 31
0.0
  0
LINE
  5
EA15
  8
0
 10
4507.489119348031636
 20
153.6886455753239886
 30
0.0
 11
4507.4895751777849
 21
153.6885650097441953
 31
0.0
  0
LINE
  5
EA16
  8
0
 10
4507.4895751777849
 20
153.6885650097441953
 30
0.0
 11
4507.5152407392306486
 21
153.6920329375240044
 31
0.0
  0
LINE
  5
EA17
  8
0
 10
4507.5152407392306486
 20
153.6920329375240044
 30
0.0
 11
4507.5152407392306486
 21
153.6989511711238947
 31
0.0
  0
LINE
  5
EA18
  8
0
 10
4507.5152407392306486
 20
153.6989511711238947
 30
0.0
 11
4507.4896501880311916
 21
153.7024102879240104
 31
0.0
  0
LINE
  5
EA19
  8
0
 10
4507.4896501880311916
 20
153.7024102879240104
 30
0.0
 11
4507.4720133801311022
 21
153.700026291623999
 31
0.0
  0
LINE
  5
EA1A
  8
0
 10
4507.4720133801311022
 20
153.700026291623999
 30
0.0
 11
4507.4690261514306258
 21
153.7028155339239959
 31
0.0
  0
LINE
  5
EA1B
  8
0
 10
4507.4690261514306258
 20
153.7028155339239959
 30
0.0
 11
4507.4837446762312538
 21
153.7048050611240058
 31
0.0
  0
LINE
  5
EA1C
  8
0
 10
4507.4837446762312538
 20
153.7048050611240058
 30
0.0
 11
4507.4837446762312538
 21
153.7117232946239938
 31
0.0
  0
LINE
  5
EA1D
  8
0
 10
4507.4837446762312538
 20
153.7117232946239938
 30
0.0
 11
4507.4670087320318999
 21
153.713985519723991
 31
0.0
  0
LINE
  5
EA1E
  8
0
 10
4507.4690261514306258
 20
153.7137128218240036
 30
0.0
 11
4507.4690261514306258
 21
153.7028155339239959
 31
0.0
  0
LINE
  5
EA1F
  8
0
 10
4507.4896118012811712
 20
153.7024050991238084
 30
0.0
 11
4507.4895677235890616
 21
153.6885849676368139
 31
0.0
  0
LINE
  5
EA20
  8
0
 10
4507.4895677235890616
 20
153.6885849676368139
 30
0.0
 11
4507.489119348031636
 21
153.6886455753239886
 31
0.0
  0
LINE
  5
EA21
  8
0
 10
4507.489119348031636
 20
153.6886455753239886
 30
0.0
 11
4507.489119348031636
 21
153.7023385334090051
 31
0.0
  0
LINE
  5
EA22
  8
0
 10
4507.5182722264307813
 20
153.689252270602509
 30
0.0
 11
4507.5182722264307813
 21
153.6761927767240081
 31
0.0
  0
LINE
  5
EA23
  8
0
 10
4507.5211462510324054
 20
153.67580429002399
 30
0.0
 11
4507.5211462510324054
 21
153.689640757223998
 31
0.0
  0
LINE
  5
EA24
  8
0
 10
4507.5605846319313059
 20
153.6757950575239988
 30
0.0
 11
4507.5605846319313059
 21
153.66410574272399
 31
0.0
  0
LINE
  5
EA25
  8
0
 10
4507.6215399518323466
 20
153.6606399862239982
 30
0.0
 11
4507.6215399518323466
 21
153.6537217526239942
 31
0.0
  0
LINE
  5
EA26
  8
0
 10
4507.6215399518323466
 20
153.6537217526239942
 30
0.0
 11
4507.647130503030894
 21
153.6502626358239922
 31
0.0
  0
LINE
  5
EA27
  8
0
 10
4507.647130503030894
 20
153.6502626358239922
 30
0.0
 11
4507.6727210542312605
 21
153.6537217526239942
 31
0.0
  0
LINE
  5
EA28
  8
0
 10
4507.6727210542312605
 20
153.6537217526239942
 30
0.0
 11
4507.6727210542312605
 21
153.6606399862239982
 31
0.0
  0
LINE
  5
EA29
  8
0
 10
4507.6727210542312605
 20
153.6606399862239982
 30
0.0
 11
4507.647130503030894
 21
153.6640991030240002
 31
0.0
  0
LINE
  5
EA2A
  8
0
 10
4507.647130503030894
 20
153.6640991030240002
 30
0.0
 11
4507.6215399518323466
 21
153.6606399862239982
 31
0.0
  0
LINE
  5
EA2B
  8
0
 10
4507.647130503030894
 20
153.6640991030240002
 30
0.0
 11
4507.647130503030894
 21
153.6502626358239922
 31
0.0
  0
LINE
  5
EA2C
  8
0
 10
4507.6530360148317413
 20
153.6734095169240106
 30
0.0
 11
4507.6530360148317413
 21
153.6664912833240066
 31
0.0
  0
LINE
  5
EA2D
  8
0
 10
4507.6530360148317413
 20
153.6664912833240066
 30
0.0
 11
4507.6786265660311983
 21
153.663032166523891
 31
0.0
  0
LINE
  5
EA2E
  8
0
 10
4507.6786265660311983
 20
153.663032166523891
 30
0.0
 11
4507.7042171172315648
 21
153.6664912833240066
 31
0.0
  0
LINE
  5
EA2F
  8
0
 10
4507.7042171172315648
 20
153.6664912833240066
 30
0.0
 11
4507.7042171172315648
 21
153.6734095169240106
 31
0.0
  0
LINE
  5
EA30
  8
0
 10
4507.7042171172315648
 20
153.6734095169240106
 30
0.0
 11
4507.6786265660311983
 21
153.6768686337240126
 31
0.0
  0
LINE
  5
EA31
  8
0
 10
4507.6786265660311983
 20
153.6768686337240126
 30
0.0
 11
4507.6530360148317413
 21
153.6734095169240106
 31
0.0
  0
LINE
  5
EA32
  8
0
 10
4507.6786265660311983
 20
153.6768686337240126
 30
0.0
 11
4507.6786265660311983
 21
153.663032166523891
 31
0.0
  0
LINE
  5
EA33
  8
0
 10
4507.6845320778302266
 20
153.6606399862239982
 30
0.0
 11
4507.6845320778302266
 21
153.6537217526239942
 31
0.0
  0
LINE
  5
EA34
  8
0
 10
4507.6845320778302266
 20
153.6537217526239942
 30
0.0
 11
4507.7101226290305931
 21
153.6502626358239922
 31
0.0
  0
LINE
  5
EA35
  8
0
 10
4507.7101226290305931
 20
153.6502626358239922
 30
0.0
 11
4507.735713180231869
 21
153.6537217526239942
 31
0.0
  0
LINE
  5
EA36
  8
0
 10
4507.735713180231869
 20
153.6537217526239942
 30
0.0
 11
4507.735713180231869
 21
153.6606399862239982
 31
0.0
  0
LINE
  5
EA37
  8
0
 10
4507.735713180231869
 20
153.6606399862239982
 30
0.0
 11
4507.7101226290305931
 21
153.6640991030240002
 31
0.0
  0
LINE
  5
EA38
  8
0
 10
4507.7101226290305931
 20
153.6640991030240002
 30
0.0
 11
4507.6845320778302266
 21
153.6606399862239982
 31
0.0
  0
LINE
  5
EA39
  8
0
 10
4507.7101226290305931
 20
153.6640991030240002
 30
0.0
 11
4507.7101226290305931
 21
153.6502626358239922
 31
0.0
  0
LINE
  5
EA3A
  8
0
 10
4507.7475242038308352
 20
153.6606399862239982
 30
0.0
 11
4507.7475242038308352
 21
153.6537217526239942
 31
0.0
  0
LINE
  5
EA3B
  8
0
 10
4507.7475242038308352
 20
153.6537217526239942
 30
0.0
 11
4507.7731147550312016
 21
153.6502626358239922
 31
0.0
  0
LINE
  5
EA3C
  8
0
 10
4507.7731147550312016
 20
153.6502626358239922
 30
0.0
 11
4507.7987053062306586
 21
153.6537217526239942
 31
0.0
  0
LINE
  5
EA3D
  8
0
 10
4507.7987053062306586
 20
153.6537217526239942
 30
0.0
 11
4507.7987053062306586
 21
153.6606399862239982
 31
0.0
  0
LINE
  5
EA3E
  8
0
 10
4507.7987053062306586
 20
153.6606399862239982
 30
0.0
 11
4507.7731147550312016
 21
153.6640991030240002
 31
0.0
  0
LINE
  5
EA3F
  8
0
 10
4507.7731147550312016
 20
153.6640991030240002
 30
0.0
 11
4507.7475242038308352
 21
153.6606399862239982
 31
0.0
  0
LINE
  5
EA40
  8
0
 10
4507.7731147550312016
 20
153.6640991030240002
 30
0.0
 11
4507.7731147550312016
 21
153.6502626358239922
 31
0.0
  0
LINE
  5
EA41
  8
0
 10
4507.7160281408323499
 20
153.6734095169240106
 30
0.0
 11
4507.7160281408323499
 21
153.6664912833240066
 31
0.0
  0
LINE
  5
EA42
  8
0
 10
4507.7160281408323499
 20
153.6664912833240066
 30
0.0
 11
4507.7416186920318069
 21
153.663032166523891
 31
0.0
  0
LINE
  5
EA43
  8
0
 10
4507.7416186920318069
 20
153.663032166523891
 30
0.0
 11
4507.7672092432312638
 21
153.6664912833240066
 31
0.0
  0
LINE
  5
EA44
  8
0
 10
4507.7672092432312638
 20
153.6664912833240066
 30
0.0
 11
4507.7672092432312638
 21
153.6734095169240106
 31
0.0
  0
LINE
  5
EA45
  8
0
 10
4507.7672092432312638
 20
153.6734095169240106
 30
0.0
 11
4507.7416186920318069
 21
153.6768686337240126
 31
0.0
  0
LINE
  5
EA46
  8
0
 10
4507.7416186920318069
 20
153.6768686337240126
 30
0.0
 11
4507.7160281408323499
 21
153.6734095169240106
 31
0.0
  0
LINE
  5
EA47
  8
0
 10
4507.7416186920318069
 20
153.6768686337240126
 30
0.0
 11
4507.7416186920318069
 21
153.663032166523891
 31
0.0
  0
LINE
  5
EA48
  8
0
 10
4507.7475242038308352
 20
153.686181640423996
 30
0.0
 11
4507.7475242038308352
 21
153.679263406823992
 31
0.0
  0
LINE
  5
EA49
  8
0
 10
4507.7475242038308352
 20
153.679263406823992
 30
0.0
 11
4507.7731147550312016
 21
153.67580429002399
 31
0.0
  0
LINE
  5
EA4A
  8
0
 10
4507.7731147550312016
 20
153.67580429002399
 30
0.0
 11
4507.7987053062306586
 21
153.679263406823992
 31
0.0
  0
LINE
  5
EA4B
  8
0
 10
4507.7987053062306586
 20
153.679263406823992
 30
0.0
 11
4507.7987053062306586
 21
153.686181640423996
 31
0.0
  0
LINE
  5
EA4C
  8
0
 10
4507.7987053062306586
 20
153.686181640423996
 30
0.0
 11
4507.7731147550312016
 21
153.689640757223998
 31
0.0
  0
LINE
  5
EA4D
  8
0
 10
4507.7731147550312016
 20
153.689640757223998
 30
0.0
 11
4507.7475242038308352
 21
153.686181640423996
 31
0.0
  0
LINE
  5
EA4E
  8
0
 10
4507.7731147550312016
 20
153.689640757223998
 30
0.0
 11
4507.7731147550312016
 21
153.67580429002399
 31
0.0
  0
LINE
  5
EA4F
  8
0
 10
4507.7475242038308352
 20
153.7117232946739875
 30
0.0
 11
4507.7475242038308352
 21
153.704805061074012
 31
0.0
  0
LINE
  5
EA50
  8
0
 10
4507.7475242038308352
 20
153.704805061074012
 30
0.0
 11
4507.7731147550312016
 21
153.7013459442738963
 31
0.0
  0
LINE
  5
EA51
  8
0
 10
4507.7731147550312016
 20
153.7013459442738963
 30
0.0
 11
4507.7987053062306586
 21
153.704805061074012
 31
0.0
  0
LINE
  5
EA52
  8
0
 10
4507.7987053062306586
 20
153.704805061074012
 30
0.0
 11
4507.7987053062306586
 21
153.7117232946739875
 31
0.0
  0
LINE
  5
EA53
  8
0
 10
4507.7987053062306586
 20
153.7117232946739875
 30
0.0
 11
4507.7731147550312016
 21
153.7151824114739895
 31
0.0
  0
LINE
  5
EA54
  8
0
 10
4507.7731147550312016
 20
153.7151824114739895
 30
0.0
 11
4507.7475242038308352
 21
153.7117232946739875
 31
0.0
  0
LINE
  5
EA55
  8
0
 10
4507.7731147550312016
 20
153.7151824114739895
 30
0.0
 11
4507.7731147550312016
 21
153.7013459442738963
 31
0.0
  0
LINE
  5
EA56
  8
0
 10
4507.7160281408323499
 20
153.6989511711238947
 30
0.0
 11
4507.7160281408323499
 21
153.6920329375240044
 31
0.0
  0
LINE
  5
EA57
  8
0
 10
4507.7160281408323499
 20
153.6920329375240044
 30
0.0
 11
4507.7416186920318069
 21
153.6885738207240024
 31
0.0
  0
LINE
  5
EA58
  8
0
 10
4507.7416186920318069
 20
153.6885738207240024
 30
0.0
 11
4507.7672092432312638
 21
153.6920329375240044
 31
0.0
  0
LINE
  5
EA59
  8
0
 10
4507.7672092432312638
 20
153.6920329375240044
 30
0.0
 11
4507.7672092432312638
 21
153.6989511711238947
 31
0.0
  0
LINE
  5
EA5A
  8
0
 10
4507.7672092432312638
 20
153.6989511711238947
 30
0.0
 11
4507.7416186920318069
 21
153.7024102879240104
 31
0.0
  0
LINE
  5
EA5B
  8
0
 10
4507.7416186920318069
 20
153.7024102879240104
 30
0.0
 11
4507.7160281408323499
 21
153.6989511711238947
 31
0.0
  0
LINE
  5
EA5C
  8
0
 10
4507.7416186920318069
 20
153.7024102879240104
 30
0.0
 11
4507.7416186920318069
 21
153.6885738207240024
 31
0.0
  0
LINE
  5
EA5D
  8
0
 10
4507.6845320778302266
 20
153.7117232946739875
 30
0.0
 11
4507.6845320778302266
 21
153.704805061074012
 31
0.0
  0
LINE
  5
EA5E
  8
0
 10
4507.6845320778302266
 20
153.704805061074012
 30
0.0
 11
4507.7101226290305931
 21
153.7013459442738963
 31
0.0
  0
LINE
  5
EA5F
  8
0
 10
4507.7101226290305931
 20
153.7013459442738963
 30
0.0
 11
4507.735713180231869
 21
153.704805061074012
 31
0.0
  0
LINE
  5
EA60
  8
0
 10
4507.735713180231869
 20
153.704805061074012
 30
0.0
 11
4507.735713180231869
 21
153.7117232946739875
 31
0.0
  0
LINE
  5
EA61
  8
0
 10
4507.735713180231869
 20
153.7117232946739875
 30
0.0
 11
4507.7101226290305931
 21
153.7151824114739895
 31
0.0
  0
LINE
  5
EA62
  8
0
 10
4507.7101226290305931
 20
153.7151824114739895
 30
0.0
 11
4507.6845320778302266
 21
153.7117232946739875
 31
0.0
  0
LINE
  5
EA63
  8
0
 10
4507.7101226290305931
 20
153.7151824114739895
 30
0.0
 11
4507.7101226290305931
 21
153.7013459442738963
 31
0.0
  0
LINE
  5
EA64
  8
0
 10
4507.6530360148317413
 20
153.6989511711238947
 30
0.0
 11
4507.6530360148317413
 21
153.6920329375240044
 31
0.0
  0
LINE
  5
EA65
  8
0
 10
4507.6530360148317413
 20
153.6920329375240044
 30
0.0
 11
4507.6786265660311983
 21
153.6885738207240024
 31
0.0
  0
LINE
  5
EA66
  8
0
 10
4507.6786265660311983
 20
153.6885738207240024
 30
0.0
 11
4507.7042171172315648
 21
153.6920329375240044
 31
0.0
  0
LINE
  5
EA67
  8
0
 10
4507.7042171172315648
 20
153.6920329375240044
 30
0.0
 11
4507.7042171172315648
 21
153.6989511711238947
 31
0.0
  0
LINE
  5
EA68
  8
0
 10
4507.7042171172315648
 20
153.6989511711238947
 30
0.0
 11
4507.6786265660311983
 21
153.7024102879240104
 31
0.0
  0
LINE
  5
EA69
  8
0
 10
4507.6786265660311983
 20
153.7024102879240104
 30
0.0
 11
4507.6530360148317413
 21
153.6989511711238947
 31
0.0
  0
LINE
  5
EA6A
  8
0
 10
4507.6786265660311983
 20
153.7024102879240104
 30
0.0
 11
4507.6786265660311983
 21
153.6885738207240024
 31
0.0
  0
LINE
  5
EA6B
  8
0
 10
4507.6845320778302266
 20
153.686181640423996
 30
0.0
 11
4507.6845320778302266
 21
153.679263406823992
 31
0.0
  0
LINE
  5
EA6C
  8
0
 10
4507.6845320778302266
 20
153.679263406823992
 30
0.0
 11
4507.7101226290305931
 21
153.67580429002399
 31
0.0
  0
LINE
  5
EA6D
  8
0
 10
4507.7101226290305931
 20
153.67580429002399
 30
0.0
 11
4507.735713180231869
 21
153.679263406823992
 31
0.0
  0
LINE
  5
EA6E
  8
0
 10
4507.735713180231869
 20
153.679263406823992
 30
0.0
 11
4507.735713180231869
 21
153.686181640423996
 31
0.0
  0
LINE
  5
EA6F
  8
0
 10
4507.735713180231869
 20
153.686181640423996
 30
0.0
 11
4507.7101226290305931
 21
153.689640757223998
 31
0.0
  0
LINE
  5
EA70
  8
0
 10
4507.7101226290305931
 20
153.689640757223998
 30
0.0
 11
4507.6845320778302266
 21
153.686181640423996
 31
0.0
  0
LINE
  5
EA71
  8
0
 10
4507.7101226290305931
 20
153.689640757223998
 30
0.0
 11
4507.7101226290305931
 21
153.67580429002399
 31
0.0
  0
LINE
  5
EA72
  8
0
 10
4507.6215399518323466
 20
153.686181640423996
 30
0.0
 11
4507.6215399518323466
 21
153.679263406823992
 31
0.0
  0
LINE
  5
EA73
  8
0
 10
4507.6215399518323466
 20
153.679263406823992
 30
0.0
 11
4507.647130503030894
 21
153.67580429002399
 31
0.0
  0
LINE
  5
EA74
  8
0
 10
4507.647130503030894
 20
153.67580429002399
 30
0.0
 11
4507.6727210542312605
 21
153.679263406823992
 31
0.0
  0
LINE
  5
EA75
  8
0
 10
4507.6727210542312605
 20
153.679263406823992
 30
0.0
 11
4507.6727210542312605
 21
153.686181640423996
 31
0.0
  0
LINE
  5
EA76
  8
0
 10
4507.6727210542312605
 20
153.686181640423996
 30
0.0
 11
4507.647130503030894
 21
153.689640757223998
 31
0.0
  0
LINE
  5
EA77
  8
0
 10
4507.647130503030894
 20
153.689640757223998
 30
0.0
 11
4507.6215399518323466
 21
153.686181640423996
 31
0.0
  0
LINE
  5
EA78
  8
0
 10
4507.647130503030894
 20
153.689640757223998
 30
0.0
 11
4507.647130503030894
 21
153.67580429002399
 31
0.0
  0
LINE
  5
EA79
  8
0
 10
4507.6215399518323466
 20
153.7117232946739875
 30
0.0
 11
4507.6215399518323466
 21
153.704805061074012
 31
0.0
  0
LINE
  5
EA7A
  8
0
 10
4507.6215399518323466
 20
153.704805061074012
 30
0.0
 11
4507.647130503030894
 21
153.7013459442738963
 31
0.0
  0
LINE
  5
EA7B
  8
0
 10
4507.647130503030894
 20
153.7013459442738963
 30
0.0
 11
4507.6727210542312605
 21
153.704805061074012
 31
0.0
  0
LINE
  5
EA7C
  8
0
 10
4507.6727210542312605
 20
153.704805061074012
 30
0.0
 11
4507.6727210542312605
 21
153.7117232946739875
 31
0.0
  0
LINE
  5
EA7D
  8
0
 10
4507.6727210542312605
 20
153.7117232946739875
 30
0.0
 11
4507.647130503030894
 21
153.7151824114739895
 31
0.0
  0
LINE
  5
EA7E
  8
0
 10
4507.647130503030894
 20
153.7151824114739895
 30
0.0
 11
4507.6215399518323466
 21
153.7117232946739875
 31
0.0
  0
LINE
  5
EA7F
  8
0
 10
4507.647130503030894
 20
153.7151824114739895
 30
0.0
 11
4507.647130503030894
 21
153.7013459442738963
 31
0.0
  0
LINE
  5
EA80
  8
0
 10
4507.6530360148317413
 20
153.7244928253739999
 30
0.0
 11
4507.6530360148317413
 21
153.717574591773996
 31
0.0
  0
LINE
  5
EA81
  8
0
 10
4507.6530360148317413
 20
153.717574591773996
 30
0.0
 11
4507.6786265660311983
 21
153.714115474973994
 31
0.0
  0
LINE
  5
EA82
  8
0
 10
4507.6786265660311983
 20
153.714115474973994
 30
0.0
 11
4507.7042171172315648
 21
153.717574591773996
 31
0.0
  0
LINE
  5
EA83
  8
0
 10
4507.7042171172315648
 20
153.717574591773996
 30
0.0
 11
4507.7042171172315648
 21
153.7244928253739999
 31
0.0
  0
LINE
  5
EA84
  8
0
 10
4507.7042171172315648
 20
153.7244928253739999
 30
0.0
 11
4507.6786265660311983
 21
153.7279519421740019
 31
0.0
  0
LINE
  5
EA85
  8
0
 10
4507.6786265660311983
 20
153.7279519421740019
 30
0.0
 11
4507.6530360148317413
 21
153.7244928253739999
 31
0.0
  0
LINE
  5
EA86
  8
0
 10
4507.6786265660311983
 20
153.7279519421740019
 30
0.0
 11
4507.6786265660311983
 21
153.714115474973994
 31
0.0
  0
LINE
  5
EA87
  8
0
 10
4507.7160281408323499
 20
153.7244928253739999
 30
0.0
 11
4507.7160281408323499
 21
153.717574591773996
 31
0.0
  0
LINE
  5
EA88
  8
0
 10
4507.7160281408323499
 20
153.717574591773996
 30
0.0
 11
4507.7416186920318069
 21
153.714115474973994
 31
0.0
  0
LINE
  5
EA89
  8
0
 10
4507.7416186920318069
 20
153.714115474973994
 30
0.0
 11
4507.7672092432312638
 21
153.717574591773996
 31
0.0
  0
LINE
  5
EA8A
  8
0
 10
4507.7672092432312638
 20
153.717574591773996
 30
0.0
 11
4507.7672092432312638
 21
153.7244928253739999
 31
0.0
  0
LINE
  5
EA8B
  8
0
 10
4507.7672092432312638
 20
153.7244928253739999
 30
0.0
 11
4507.7416186920318069
 21
153.7279519421740019
 31
0.0
  0
LINE
  5
EA8C
  8
0
 10
4507.7416186920318069
 20
153.7279519421740019
 30
0.0
 11
4507.7160281408323499
 21
153.7244928253739999
 31
0.0
  0
LINE
  5
EA8D
  8
0
 10
4507.7416186920318069
 20
153.7279519421740019
 30
0.0
 11
4507.7416186920318069
 21
153.714115474973994
 31
0.0
  0
LINE
  5
EA8E
  8
0
 10
4507.5900438888311328
 20
153.6989511711238947
 30
0.0
 11
4507.5900438888311328
 21
153.6920329375240044
 31
0.0
  0
LINE
  5
EA8F
  8
0
 10
4507.5900438888311328
 20
153.6920329375240044
 30
0.0
 11
4507.6156344400305898
 21
153.6885738207240024
 31
0.0
  0
LINE
  5
EA90
  8
0
 10
4507.6156344400305898
 20
153.6885738207240024
 30
0.0
 11
4507.6412249912309562
 21
153.6920329375240044
 31
0.0
  0
LINE
  5
EA91
  8
0
 10
4507.6412249912309562
 20
153.6920329375240044
 30
0.0
 11
4507.6412249912309562
 21
153.6989511711238947
 31
0.0
  0
LINE
  5
EA92
  8
0
 10
4507.6412249912309562
 20
153.6989511711238947
 30
0.0
 11
4507.6156344400305898
 21
153.7024102879240104
 31
0.0
  0
LINE
  5
EA93
  8
0
 10
4507.6156344400305898
 20
153.7024102879240104
 30
0.0
 11
4507.5900438888311328
 21
153.6989511711238947
 31
0.0
  0
LINE
  5
EA94
  8
0
 10
4507.6156344400305898
 20
153.7024102879240104
 30
0.0
 11
4507.6156344400305898
 21
153.6885738207240024
 31
0.0
  0
LINE
  5
EA95
  8
0
 10
4507.558547825831738
 20
153.686181640423996
 30
0.0
 11
4507.558547825831738
 21
153.679263406823992
 31
0.0
  0
LINE
  5
EA96
  8
0
 10
4507.558547825831738
 20
153.679263406823992
 30
0.0
 11
4507.584138377031195
 21
153.67580429002399
 31
0.0
  0
LINE
  5
EA97
  8
0
 10
4507.584138377031195
 20
153.67580429002399
 30
0.0
 11
4507.6097289282306519
 21
153.679263406823992
 31
0.0
  0
LINE
  5
EA98
  8
0
 10
4507.6097289282306519
 20
153.679263406823992
 30
0.0
 11
4507.6097289282306519
 21
153.686181640423996
 31
0.0
  0
LINE
  5
EA99
  8
0
 10
4507.6097289282306519
 20
153.686181640423996
 30
0.0
 11
4507.584138377031195
 21
153.689640757223998
 31
0.0
  0
LINE
  5
EA9A
  8
0
 10
4507.584138377031195
 20
153.689640757223998
 30
0.0
 11
4507.558547825831738
 21
153.686181640423996
 31
0.0
  0
LINE
  5
EA9B
  8
0
 10
4507.584138377031195
 20
153.689640757223998
 30
0.0
 11
4507.584138377031195
 21
153.67580429002399
 31
0.0
  0
LINE
  5
EA9C
  8
0
 10
4507.5900438888311328
 20
153.6734095169240106
 30
0.0
 11
4507.5900438888311328
 21
153.6664912833240066
 31
0.0
  0
LINE
  5
EA9D
  8
0
 10
4507.5900438888311328
 20
153.6664912833240066
 30
0.0
 11
4507.6156344400305898
 21
153.663032166523891
 31
0.0
  0
LINE
  5
EA9E
  8
0
 10
4507.6156344400305898
 20
153.663032166523891
 30
0.0
 11
4507.6412249912309562
 21
153.6664912833240066
 31
0.0
  0
LINE
  5
EA9F
  8
0
 10
4507.6412249912309562
 20
153.6664912833240066
 30
0.0
 11
4507.6412249912309562
 21
153.6734095169240106
 31
0.0
  0
LINE
  5
EAA0
  8
0
 10
4507.6412249912309562
 20
153.6734095169240106
 30
0.0
 11
4507.6156344400305898
 21
153.6768686337240126
 31
0.0
  0
LINE
  5
EAA1
  8
0
 10
4507.6156344400305898
 20
153.6768686337240126
 30
0.0
 11
4507.5900438888311328
 21
153.6734095169240106
 31
0.0
  0
LINE
  5
EAA2
  8
0
 10
4507.6156344400305898
 20
153.6768686337240126
 30
0.0
 11
4507.6156344400305898
 21
153.663032166523891
 31
0.0
  0
LINE
  5
EAA3
  8
0
 10
4507.5270517628314337
 20
153.6989511711238947
 30
0.0
 11
4507.5270517628314337
 21
153.6920329375240044
 31
0.0
  0
LINE
  5
EAA4
  8
0
 10
4507.5270517628314337
 20
153.6920329375240044
 30
0.0
 11
4507.5526423140308907
 21
153.6885738207240024
 31
0.0
  0
LINE
  5
EAA5
  8
0
 10
4507.5526423140308907
 20
153.6885738207240024
 30
0.0
 11
4507.5782328652312572
 21
153.6920329375240044
 31
0.0
  0
LINE
  5
EAA6
  8
0
 10
4507.5782328652312572
 20
153.6920329375240044
 30
0.0
 11
4507.5782328652312572
 21
153.6989511711238947
 31
0.0
  0
LINE
  5
EAA7
  8
0
 10
4507.5782328652312572
 20
153.6989511711238947
 30
0.0
 11
4507.5526423140308907
 21
153.7024102879240104
 31
0.0
  0
LINE
  5
EAA8
  8
0
 10
4507.5526423140308907
 20
153.7024102879240104
 30
0.0
 11
4507.5270517628314337
 21
153.6989511711238947
 31
0.0
  0
LINE
  5
EAA9
  8
0
 10
4507.5526423140308907
 20
153.7024102879240104
 30
0.0
 11
4507.5526423140308907
 21
153.6885738207240024
 31
0.0
  0
LINE
  5
EAAA
  8
0
 10
4507.558547825831738
 20
153.7117232946739875
 30
0.0
 11
4507.558547825831738
 21
153.704805061074012
 31
0.0
  0
LINE
  5
EAAB
  8
0
 10
4507.558547825831738
 20
153.704805061074012
 30
0.0
 11
4507.584138377031195
 21
153.7013459442738963
 31
0.0
  0
LINE
  5
EAAC
  8
0
 10
4507.584138377031195
 20
153.7013459442738963
 30
0.0
 11
4507.6097289282306519
 21
153.704805061074012
 31
0.0
  0
LINE
  5
EAAD
  8
0
 10
4507.6097289282306519
 20
153.704805061074012
 30
0.0
 11
4507.6097289282306519
 21
153.7117232946739875
 31
0.0
  0
LINE
  5
EAAE
  8
0
 10
4507.6097289282306519
 20
153.7117232946739875
 30
0.0
 11
4507.584138377031195
 21
153.7151824114739895
 31
0.0
  0
LINE
  5
EAAF
  8
0
 10
4507.584138377031195
 20
153.7151824114739895
 30
0.0
 11
4507.558547825831738
 21
153.7117232946739875
 31
0.0
  0
LINE
  5
EAB0
  8
0
 10
4507.584138377031195
 20
153.7151824114739895
 30
0.0
 11
4507.584138377031195
 21
153.7013459442738963
 31
0.0
  0
LINE
  5
EAB1
  8
0
 10
4507.5900438888311328
 20
153.7244928253739999
 30
0.0
 11
4507.5900438888311328
 21
153.717574591773996
 31
0.0
  0
LINE
  5
EAB2
  8
0
 10
4507.5900438888311328
 20
153.717574591773996
 30
0.0
 11
4507.6156344400305898
 21
153.714115474973994
 31
0.0
  0
LINE
  5
EAB3
  8
0
 10
4507.6156344400305898
 20
153.714115474973994
 30
0.0
 11
4507.6412249912309562
 21
153.717574591773996
 31
0.0
  0
LINE
  5
EAB4
  8
0
 10
4507.6412249912309562
 20
153.717574591773996
 30
0.0
 11
4507.6412249912309562
 21
153.7244928253739999
 31
0.0
  0
LINE
  5
EAB5
  8
0
 10
4507.6412249912309562
 20
153.7244928253739999
 30
0.0
 11
4507.6156344400305898
 21
153.7279519421740019
 31
0.0
  0
LINE
  5
EAB6
  8
0
 10
4507.6156344400305898
 20
153.7279519421740019
 30
0.0
 11
4507.5900438888311328
 21
153.7244928253739999
 31
0.0
  0
LINE
  5
EAB7
  8
0
 10
4507.6156344400305898
 20
153.7279519421740019
 30
0.0
 11
4507.6156344400305898
 21
153.714115474973994
 31
0.0
  0
LINE
  5
EAB8
  8
0
 10
4507.4955556998311295
 20
153.7117232946739875
 30
0.0
 11
4507.4955556998311295
 21
153.704805061074012
 31
0.0
  0
LINE
  5
EAB9
  8
0
 10
4507.4955556998311295
 20
153.704805061074012
 30
0.0
 11
4507.5211462510324054
 21
153.7013459442738963
 31
0.0
  0
LINE
  5
EABA
  8
0
 10
4507.5211462510324054
 20
153.7013459442738963
 30
0.0
 11
4507.5467368022318624
 21
153.704805061074012
 31
0.0
  0
LINE
  5
EABB
  8
0
 10
4507.5467368022318624
 20
153.704805061074012
 30
0.0
 11
4507.5467368022318624
 21
153.7117232946739875
 31
0.0
  0
LINE
  5
EABC
  8
0
 10
4507.5467368022318624
 20
153.7117232946739875
 30
0.0
 11
4507.5211462510324054
 21
153.7151824114739895
 31
0.0
  0
LINE
  5
EABD
  8
0
 10
4507.5211462510324054
 20
153.7151824114739895
 30
0.0
 11
4507.4955556998311295
 21
153.7117232946739875
 31
0.0
  0
LINE
  5
EABE
  8
0
 10
4507.5211462510324054
 20
153.7151824114739895
 30
0.0
 11
4507.5211462510324054
 21
153.7013459442738963
 31
0.0
  0
LINE
  5
EABF
  8
0
 10
4507.4696354302359396
 20
153.7168209026293937
 30
0.0
 11
4507.4896501880311916
 21
153.714115474973994
 31
0.0
  0
LINE
  5
EAC0
  8
0
 10
4507.4896501880311916
 20
153.714115474973994
 30
0.0
 11
4507.5152407392306486
 21
153.717574591773996
 31
0.0
  0
LINE
  5
EAC1
  8
0
 10
4507.5152407392306486
 20
153.717574591773996
 30
0.0
 11
4507.5152407392306486
 21
153.7244928253739999
 31
0.0
  0
LINE
  5
EAC2
  8
0
 10
4507.5152407392306486
 20
153.7244928253739999
 30
0.0
 11
4507.4896501880311916
 21
153.7279519421740019
 31
0.0
  0
LINE
  5
EAC3
  8
0
 10
4507.4896501880311916
 20
153.7279519421740019
 30
0.0
 11
4507.4832390267310984
 21
153.7270853349801882
 31
0.0
  0
LINE
  5
EAC4
  8
0
 10
4507.4896501880311916
 20
153.7279519421740019
 30
0.0
 11
4507.4896501880311916
 21
153.714115474973994
 31
0.0
  0
LINE
  5
EAC5
  8
0
 10
4507.4955556998311295
 20
153.733531146227989
 30
0.0
 11
4507.4955556998311295
 21
153.7303467152740097
 31
0.0
  0
LINE
  5
EAC6
  8
0
 10
4507.4955556998311295
 20
153.7303467152740097
 30
0.0
 11
4507.5211462510324054
 21
153.7268875984740077
 31
0.0
  0
LINE
  5
EAC7
  8
0
 10
4507.5211462510324054
 20
153.7268875984740077
 30
0.0
 11
4507.5467368022318624
 21
153.7303467152740097
 31
0.0
  0
LINE
  5
EAC8
  8
0
 10
4507.5467368022318624
 20
153.7303467152740097
 30
0.0
 11
4507.5467368022318624
 21
153.7372649488740137
 31
0.0
  0
LINE
  5
EAC9
  8
0
 10
4507.5467368022318624
 20
153.7372649488740137
 30
0.0
 11
4507.5211462510324054
 21
153.7407240656739873
 31
0.0
  0
LINE
  5
EACA
  8
0
 10
4507.5211462510324054
 20
153.7407240656739873
 30
0.0
 11
4507.5075655783102775
 21
153.7388883438561891
 31
0.0
  0
LINE
  5
EACB
  8
0
 10
4507.5211462510324054
 20
153.7407240656739873
 30
0.0
 11
4507.5211462510324054
 21
153.7268875984740077
 31
0.0
  0
LINE
  5
EACC
  8
0
 10
4507.5270517628314337
 20
153.74581036722401
 30
0.0
 11
4507.5270517628314337
 21
153.7428838687239931
 31
0.0
  0
LINE
  5
EACD
  8
0
 10
4507.5270517628314337
 20
153.7428838687239931
 30
0.0
 11
4507.5526423140308907
 21
153.7394247519239912
 31
0.0
  0
LINE
  5
EACE
  8
0
 10
4507.5526423140308907
 20
153.7394247519239912
 30
0.0
 11
4507.5782328652312572
 21
153.7428838687239931
 31
0.0
  0
LINE
  5
EACF
  8
0
 10
4507.5782328652312572
 20
153.7428838687239931
 30
0.0
 11
4507.5782328652312572
 21
153.7498021023239971
 31
0.0
  0
LINE
  5
EAD0
  8
0
 10
4507.5782328652312572
 20
153.7498021023239971
 30
0.0
 11
4507.5526423140308907
 21
153.7532612191239991
 31
0.0
  0
LINE
  5
EAD1
  8
0
 10
4507.5526423140308907
 20
153.7532612191239991
 30
0.0
 11
4507.5526423140308907
 21
153.7394247519239912
 31
0.0
  0
LINE
  5
EAD2
  8
0
 10
4507.5270517628314337
 20
153.7244928253739999
 30
0.0
 11
4507.5270517628314337
 21
153.717574591773996
 31
0.0
  0
LINE
  5
EAD3
  8
0
 10
4507.5270517628314337
 20
153.717574591773996
 30
0.0
 11
4507.5526423140308907
 21
153.714115474973994
 31
0.0
  0
LINE
  5
EAD4
  8
0
 10
4507.5526423140308907
 20
153.714115474973994
 30
0.0
 11
4507.5782328652312572
 21
153.717574591773996
 31
0.0
  0
LINE
  5
EAD5
  8
0
 10
4507.5782328652312572
 20
153.717574591773996
 30
0.0
 11
4507.5782328652312572
 21
153.7244928253739999
 31
0.0
  0
LINE
  5
EAD6
  8
0
 10
4507.5782328652312572
 20
153.7244928253739999
 30
0.0
 11
4507.5526423140308907
 21
153.7279519421740019
 31
0.0
  0
LINE
  5
EAD7
  8
0
 10
4507.5526423140308907
 20
153.7279519421740019
 30
0.0
 11
4507.5270517628314337
 21
153.7244928253739999
 31
0.0
  0
LINE
  5
EAD8
  8
0
 10
4507.5526423140308907
 20
153.7279519421740019
 30
0.0
 11
4507.5526423140308907
 21
153.714115474973994
 31
0.0
  0
LINE
  5
EAD9
  8
0
 10
4507.558547825831738
 20
153.7372649488740137
 30
0.0
 11
4507.558547825831738
 21
153.7303467152740097
 31
0.0
  0
LINE
  5
EADA
  8
0
 10
4507.558547825831738
 20
153.7303467152740097
 30
0.0
 11
4507.584138377031195
 21
153.7268875984740077
 31
0.0
  0
LINE
  5
EADB
  8
0
 10
4507.584138377031195
 20
153.7268875984740077
 30
0.0
 11
4507.6097289282306519
 21
153.7303467152740097
 31
0.0
  0
LINE
  5
EADC
  8
0
 10
4507.6097289282306519
 20
153.7303467152740097
 30
0.0
 11
4507.6097289282306519
 21
153.7372649488740137
 31
0.0
  0
LINE
  5
EADD
  8
0
 10
4507.6097289282306519
 20
153.7372649488740137
 30
0.0
 11
4507.584138377031195
 21
153.7407240656739873
 31
0.0
  0
LINE
  5
EADE
  8
0
 10
4507.584138377031195
 20
153.7407240656739873
 30
0.0
 11
4507.558547825831738
 21
153.7372649488740137
 31
0.0
  0
LINE
  5
EADF
  8
0
 10
4507.584138377031195
 20
153.7407240656739873
 30
0.0
 11
4507.584138377031195
 21
153.7268875984740077
 31
0.0
  0
LINE
  5
EAE0
  8
0
 10
4507.5900438888311328
 20
153.7500344795739977
 30
0.0
 11
4507.5900438888311328
 21
153.7431162459739937
 31
0.0
  0
LINE
  5
EAE1
  8
0
 10
4507.5900438888311328
 20
153.7431162459739937
 30
0.0
 11
4507.6156344400305898
 21
153.7396571291739917
 31
0.0
  0
LINE
  5
EAE2
  8
0
 10
4507.6156344400305898
 20
153.7396571291739917
 30
0.0
 11
4507.6412249912309562
 21
153.7431162459739937
 31
0.0
  0
LINE
  5
EAE3
  8
0
 10
4507.6412249912309562
 20
153.7431162459739937
 30
0.0
 11
4507.6412249912309562
 21
153.7500344795739977
 31
0.0
  0
LINE
  5
EAE4
  8
0
 10
4507.6412249912309562
 20
153.7500344795739977
 30
0.0
 11
4507.6156344400305898
 21
153.7534935963739997
 31
0.0
  0
LINE
  5
EAE5
  8
0
 10
4507.6156344400305898
 20
153.7534935963739997
 30
0.0
 11
4507.5900438888311328
 21
153.7500344795739977
 31
0.0
  0
LINE
  5
EAE6
  8
0
 10
4507.6156344400305898
 20
153.7534935963739997
 30
0.0
 11
4507.6156344400305898
 21
153.7396571291739917
 31
0.0
  0
LINE
  5
EAE7
  8
0
 10
4507.6215399518323466
 20
153.7372649488740137
 30
0.0
 11
4507.6215399518323466
 21
153.7303467152740097
 31
0.0
  0
LINE
  5
EAE8
  8
0
 10
4507.6215399518323466
 20
153.7303467152740097
 30
0.0
 11
4507.647130503030894
 21
153.7268875984740077
 31
0.0
  0
LINE
  5
EAE9
  8
0
 10
4507.647130503030894
 20
153.7268875984740077
 30
0.0
 11
4507.6727210542312605
 21
153.7303467152740097
 31
0.0
  0
LINE
  5
EAEA
  8
0
 10
4507.6727210542312605
 20
153.7303467152740097
 30
0.0
 11
4507.6727210542312605
 21
153.7372649488740137
 31
0.0
  0
LINE
  5
EAEB
  8
0
 10
4507.6727210542312605
 20
153.7372649488740137
 30
0.0
 11
4507.647130503030894
 21
153.7407240656739873
 31
0.0
  0
LINE
  5
EAEC
  8
0
 10
4507.647130503030894
 20
153.7407240656739873
 30
0.0
 11
4507.6215399518323466
 21
153.7372649488740137
 31
0.0
  0
LINE
  5
EAED
  8
0
 10
4507.647130503030894
 20
153.7407240656739873
 30
0.0
 11
4507.647130503030894
 21
153.7268875984740077
 31
0.0
  0
LINE
  5
EAEE
  8
0
 10
4507.6530360148317413
 20
153.7500344795739977
 30
0.0
 11
4507.6530360148317413
 21
153.7431162459739937
 31
0.0
  0
LINE
  5
EAEF
  8
0
 10
4507.6530360148317413
 20
153.7431162459739937
 30
0.0
 11
4507.6786265660311983
 21
153.7396571291739917
 31
0.0
  0
LINE
  5
EAF0
  8
0
 10
4507.6786265660311983
 20
153.7396571291739917
 30
0.0
 11
4507.7042171172315648
 21
153.7431162459739937
 31
0.0
  0
LINE
  5
EAF1
  8
0
 10
4507.7042171172315648
 20
153.7431162459739937
 30
0.0
 11
4507.7042171172315648
 21
153.7500344795739977
 31
0.0
  0
LINE
  5
EAF2
  8
0
 10
4507.7042171172315648
 20
153.7500344795739977
 30
0.0
 11
4507.6786265660311983
 21
153.7534935963739997
 31
0.0
  0
LINE
  5
EAF3
  8
0
 10
4507.6786265660311983
 20
153.7534935963739997
 30
0.0
 11
4507.6530360148317413
 21
153.7500344795739977
 31
0.0
  0
LINE
  5
EAF4
  8
0
 10
4507.6786265660311983
 20
153.7534935963739997
 30
0.0
 11
4507.6786265660311983
 21
153.7396571291739917
 31
0.0
  0
LINE
  5
EAF5
  8
0
 10
4507.6845320778302266
 20
153.7628066031238916
 30
0.0
 11
4507.6845320778302266
 21
153.7558883695240013
 31
0.0
  0
LINE
  5
EAF6
  8
0
 10
4507.6845320778302266
 20
153.7558883695240013
 30
0.0
 11
4507.7101226290305931
 21
153.7524292527239993
 31
0.0
  0
LINE
  5
EAF7
  8
0
 10
4507.7101226290305931
 20
153.7524292527239993
 30
0.0
 11
4507.735713180231869
 21
153.7558883695240013
 31
0.0
  0
LINE
  5
EAF8
  8
0
 10
4507.735713180231869
 20
153.7558883695240013
 30
0.0
 11
4507.735713180231869
 21
153.7628066031238916
 31
0.0
  0
LINE
  5
EAF9
  8
0
 10
4507.735713180231869
 20
153.7628066031238916
 30
0.0
 11
4507.7101226290305931
 21
153.7662657199240073
 31
0.0
  0
LINE
  5
EAFA
  8
0
 10
4507.7101226290305931
 20
153.7662657199240073
 30
0.0
 11
4507.6845320778302266
 21
153.7628066031238916
 31
0.0
  0
LINE
  5
EAFB
  8
0
 10
4507.7101226290305931
 20
153.7662657199240073
 30
0.0
 11
4507.7101226290305931
 21
153.7524292527239993
 31
0.0
  0
LINE
  5
EAFC
  8
0
 10
4507.7160281408323499
 20
153.7500344795739977
 30
0.0
 11
4507.7160281408323499
 21
153.7431162459739937
 31
0.0
  0
LINE
  5
EAFD
  8
0
 10
4507.7160281408323499
 20
153.7431162459739937
 30
0.0
 11
4507.7416186920318069
 21
153.7396571291739917
 31
0.0
  0
LINE
  5
EAFE
  8
0
 10
4507.7416186920318069
 20
153.7396571291739917
 30
0.0
 11
4507.7672092432312638
 21
153.7431162459739937
 31
0.0
  0
LINE
  5
EAFF
  8
0
 10
4507.7672092432312638
 20
153.7431162459739937
 30
0.0
 11
4507.7672092432312638
 21
153.7500344795739977
 31
0.0
  0
LINE
  5
EB00
  8
0
 10
4507.7672092432312638
 20
153.7500344795739977
 30
0.0
 11
4507.7416186920318069
 21
153.7534935963739997
 31
0.0
  0
LINE
  5
EB01
  8
0
 10
4507.7416186920318069
 20
153.7534935963739997
 30
0.0
 11
4507.7160281408323499
 21
153.7500344795739977
 31
0.0
  0
LINE
  5
EB02
  8
0
 10
4507.7416186920318069
 20
153.7534935963739997
 30
0.0
 11
4507.7416186920318069
 21
153.7396571291739917
 31
0.0
  0
LINE
  5
EB03
  8
0
 10
4507.6845320778302266
 20
153.7372649488740137
 30
0.0
 11
4507.6845320778302266
 21
153.7303467152740097
 31
0.0
  0
LINE
  5
EB04
  8
0
 10
4507.6845320778302266
 20
153.7303467152740097
 30
0.0
 11
4507.7101226290305931
 21
153.7268875984740077
 31
0.0
  0
LINE
  5
EB05
  8
0
 10
4507.7101226290305931
 20
153.7268875984740077
 30
0.0
 11
4507.735713180231869
 21
153.7303467152740097
 31
0.0
  0
LINE
  5
EB06
  8
0
 10
4507.735713180231869
 20
153.7303467152740097
 30
0.0
 11
4507.735713180231869
 21
153.7372649488740137
 31
0.0
  0
LINE
  5
EB07
  8
0
 10
4507.735713180231869
 20
153.7372649488740137
 30
0.0
 11
4507.7101226290305931
 21
153.7407240656739873
 31
0.0
  0
LINE
  5
EB08
  8
0
 10
4507.7101226290305931
 20
153.7407240656739873
 30
0.0
 11
4507.6845320778302266
 21
153.7372649488740137
 31
0.0
  0
LINE
  5
EB09
  8
0
 10
4507.7101226290305931
 20
153.7407240656739873
 30
0.0
 11
4507.7101226290305931
 21
153.7268875984740077
 31
0.0
  0
LINE
  5
EB0A
  8
0
 10
4507.7475242038308352
 20
153.7372649488740137
 30
0.0
 11
4507.7475242038308352
 21
153.7303467152740097
 31
0.0
  0
LINE
  5
EB0B
  8
0
 10
4507.7475242038308352
 20
153.7303467152740097
 30
0.0
 11
4507.7731147550312016
 21
153.7268875984740077
 31
0.0
  0
LINE
  5
EB0C
  8
0
 10
4507.7731147550312016
 20
153.7268875984740077
 30
0.0
 11
4507.7987053062306586
 21
153.7303467152740097
 31
0.0
  0
LINE
  5
EB0D
  8
0
 10
4507.7987053062306586
 20
153.7303467152740097
 30
0.0
 11
4507.7987053062306586
 21
153.7372649488740137
 31
0.0
  0
LINE
  5
EB0E
  8
0
 10
4507.7987053062306586
 20
153.7372649488740137
 30
0.0
 11
4507.7731147550312016
 21
153.7407240656739873
 31
0.0
  0
LINE
  5
EB0F
  8
0
 10
4507.7731147550312016
 20
153.7407240656739873
 30
0.0
 11
4507.7475242038308352
 21
153.7372649488740137
 31
0.0
  0
LINE
  5
EB10
  8
0
 10
4507.7731147550312016
 20
153.7407240656739873
 30
0.0
 11
4507.7731147550312016
 21
153.7268875984740077
 31
0.0
  0
LINE
  5
EB11
  8
0
 10
4507.7475242038308352
 20
153.7628066031238916
 30
0.0
 11
4507.7475242038308352
 21
153.7558883695240013
 31
0.0
  0
LINE
  5
EB12
  8
0
 10
4507.7475242038308352
 20
153.7558883695240013
 30
0.0
 11
4507.7731147550312016
 21
153.7524292527239993
 31
0.0
  0
LINE
  5
EB13
  8
0
 10
4507.7731147550312016
 20
153.7524292527239993
 30
0.0
 11
4507.7987053062306586
 21
153.7558883695240013
 31
0.0
  0
LINE
  5
EB14
  8
0
 10
4507.7987053062306586
 20
153.7558883695240013
 30
0.0
 11
4507.7987053062306586
 21
153.7628066031238916
 31
0.0
  0
LINE
  5
EB15
  8
0
 10
4507.7987053062306586
 20
153.7628066031238916
 30
0.0
 11
4507.7731147550312016
 21
153.7662657199240073
 31
0.0
  0
LINE
  5
EB16
  8
0
 10
4507.7731147550312016
 20
153.7662657199240073
 30
0.0
 11
4507.7475242038308352
 21
153.7628066031238916
 31
0.0
  0
LINE
  5
EB17
  8
0
 10
4507.7731147550312016
 20
153.7662657199240073
 30
0.0
 11
4507.7731147550312016
 21
153.7524292527239993
 31
0.0
  0
LINE
  5
EB18
  8
0
 10
4507.7160281408323499
 20
153.7755761338239893
 30
0.0
 11
4507.7160281408323499
 21
153.7686579002239
 31
0.0
  0
LINE
  5
EB19
  8
0
 10
4507.7160281408323499
 20
153.7686579002239
 30
0.0
 11
4507.7416186920318069
 21
153.7651987834240117
 31
0.0
  0
LINE
  5
EB1A
  8
0
 10
4507.7416186920318069
 20
153.7651987834240117
 30
0.0
 11
4507.7672092432312638
 21
153.7686579002239
 31
0.0
  0
LINE
  5
EB1B
  8
0
 10
4507.7672092432312638
 20
153.7686579002239
 30
0.0
 11
4507.7672092432312638
 21
153.7755761338239893
 31
0.0
  0
LINE
  5
EB1C
  8
0
 10
4507.7672092432312638
 20
153.7755761338239893
 30
0.0
 11
4507.7512280464334253
 21
153.7777363384203966
 31
0.0
  0
LINE
  5
EB1D
  8
0
 10
4507.7216357786601293
 20
153.7763341274313973
 30
0.0
 11
4507.7160281408323499
 21
153.7755761338239893
 31
0.0
  0
LINE
  5
EB1E
  8
0
 10
4507.7416186920318069
 20
153.7773503075054009
 30
0.0
 11
4507.7416186920318069
 21
153.7651987834240117
 31
0.0
  0
LINE
  5
EB1F
  8
0
 10
4507.6530360148317413
 20
153.7704817554239867
 30
0.0
 11
4507.6530360148317413
 21
153.7686579002239
 31
0.0
  0
LINE
  5
EB20
  8
0
 10
4507.6530360148317413
 20
153.7686579002239
 30
0.0
 11
4507.6786265660311983
 21
153.7651987834240117
 31
0.0
  0
LINE
  5
EB21
  8
0
 10
4507.6786265660311983
 20
153.7651987834240117
 30
0.0
 11
4507.7042171172315648
 21
153.7686579002239
 31
0.0
  0
LINE
  5
EB22
  8
0
 10
4507.7042171172315648
 20
153.7686579002239
 30
0.0
 11
4507.7042171172315648
 21
153.7752128039240063
 31
0.0
  0
LINE
  5
EB23
  8
0
 10
4507.6786265660311983
 20
153.773106075624014
 30
0.0
 11
4507.6786265660311983
 21
153.7651987834240117
 31
0.0
  0
LINE
  5
EB24
  8
0
 10
4507.5622594879823737
 20
153.7553866580603028
 30
0.0
 11
4507.584138377031195
 21
153.7524292527239993
 31
0.0
  0
LINE
  5
EB25
  8
0
 10
4507.584138377031195
 20
153.7524292527239993
 30
0.0
 11
4507.6097289282306519
 21
153.7558883695240013
 31
0.0
  0
LINE
  5
EB26
  8
0
 10
4507.6097289282306519
 20
153.7558883695240013
 30
0.0
 11
4507.6097289282306519
 21
153.7628066031238916
 31
0.0
  0
LINE
  5
EB27
  8
0
 10
4507.584138377031195
 20
153.759977068107986
 30
0.0
 11
4507.584138377031195
 21
153.7524292527239993
 31
0.0
  0
LINE
  5
EB28
  8
0
 10
4507.6097289282306519
 20
153.7628066031238916
 30
0.0
 11
4507.6039278511307202
 21
153.7635907442239898
 31
0.0
  0
LINE
  5
EB29
  8
0
 10
4507.6146689312299713
 20
153.7653292928237931
 30
0.0
 11
4507.6156344400305898
 21
153.7651987834240117
 31
0.0
  0
LINE
  5
EB2A
  8
0
 10
4507.6156344400305898
 20
153.7651987834240117
 30
0.0
 11
4507.6412249912309562
 21
153.7686579002239
 31
0.0
  0
LINE
  5
EB2B
  8
0
 10
4507.6412249912309562
 20
153.7686579002239
 30
0.0
 11
4507.6412249912309562
 21
153.769063276124001
 31
0.0
  0
LINE
  5
EB2C
  8
0
 10
4507.6156344400305898
 20
153.7651987834240117
 30
0.0
 11
4507.6156344400305898
 21
153.7654753127239928
 31
0.0
  0
LINE
  5
EB2D
  8
0
 10
4507.6891775238318587
 20
153.6113392331687066
 30
0.0
 11
4507.6891775238318587
 21
153.6086895854240026
 31
0.0
  0
LINE
  5
EB2E
  8
0
 10
4507.6891775238318587
 20
153.6086895854240026
 30
0.0
 11
4507.6919791378513764
 21
153.611137532712803
 31
0.0
  0
ARC
  5
EB2F
  8
0
 10
4507.8037744825123809
 20
155.4522941497322108
 30
0.0
 40
1.8471627574410761
 50
266.4431172700229808
 51
270.0259416725348274
  0
LINE
  5
EB30
  8
0
 10
4507.4892411935306882
 20
153.6357153072239896
 30
0.0
 11
4507.5068289562377686
 21
153.6398330282983125
 31
0.0
  0
ARC
  5
EB31
  8
0
 10
3885.7685238362778364
 20
178.3020637810203084
 30
0.0
 40
622.0817543449252298
 50
357.2761745041310064
 51
357.7232861261799144
  0
ARC
  5
EB32
  8
0
 10
4507.1788970617653831
 20
148.73247078481279
 30
0.0
 40
0.0322464346270005
 50
167.2132639809146042
 51
263.2242924813966738
  0
ARC
  5
EB33
  8
0
 10
4508.8615552945639138
 20
148.7335995355676914
 30
0.0
 40
0.0331500118876246
 50
328.4525405630989781
 51
5.0066313878930311
  0
ARC
  5
EB34
  8
0
 10
4508.8615534212958664
 20
148.7336014080619009
 30
0.0
 40
0.0331525880029918
 50
301.5790009955179016
 51
328.4514765685772204
  0
ARC
  5
EB35
  8
0
 10
4508.861554971969781
 20
148.7336002796988907
 30
0.0
 40
0.0331508146908717
 50
269.891874461445525
 51
301.5777390447750008
  0
ARC
  5
EB36
  8
0
 10
4508.8655694811450303
 20
148.7209559221307984
 30
0.0
 40
0.0205276268460418
 50
297.1526920391219164
 51
310.5493943736854021
  0
ARC
  5
EB37
  8
0
 10
4508.8655949089279602
 20
148.7211536460727075
 30
0.0
 40
0.0207041600460329
 50
269.8903741792228743
 51
288.2343632277364236
  0
ARC
  5
EB38
  8
0
 10
4508.8656473322307647
 20
148.720823717723988
 30
0.0
 40
0.0203744657999875
 50
288.3846587630703198
 51
297.1275567754806275
  0
ARC
  5
EB39
  8
0
 10
4768.7028376659191053
 20
171.5245022509589887
 30
0.0
 40
260.8057222274084097
 50
184.5558443603979129
 51
185.0126348156607889
  0
ARC
  5
EB3A
  8
0
 10
4687.6147987044014371
 20
165.4850226784191136
 30
0.0
 40
179.4946622467751922
 50
183.7642931703180977
 51
184.6900656065299984
  0
ARC
  5
EB3B
  8
0
 10
4508.5225623676669784
 20
153.8723511001797135
 30
0.0
 40
0.1235104997888318
 50
323.1042981927615187
 51
332.0543880965880135
  0
ARC
  5
EB3C
  8
0
 10
4421.1330790792053449
 20
149.7693900958045958
 30
0.0
 40
87.5956784138749498
 50
2.6570235263907969
 51
2.9878417217886271
  0
ARC
  5
EB3D
  8
0
 10
4475.5308876033532215
 20
152.7331993114831903
 30
0.0
 40
33.1175650090295193
 50
2.772712776687507
 51
4.8073226606764443
  0
ARC
  5
EB3E
  8
0
 10
4507.7993741381624204
 20
155.6372095026443958
 30
0.0
 40
0.9488564328640448
 50
71.0260356244399134
 51
89.5630158432558261
  0
ARC
  5
EB3F
  8
0
 10
4507.8250259660389929
 20
155.6732297073909876
 30
0.0
 40
0.9065397648858183
 50
51.9595234102098402
 51
71.8190350094038763
  0
ARC
  5
EB40
  8
0
 10
4508.3171219478526837
 20
156.3147641033928039
 30
0.0
 40
0.0983512970931539
 50
20.5102524071765302
 51
47.4328194880755305
  0
ARC
  5
EB41
  8
0
 10
4508.0976678382294267
 20
156.2260901791671017
 30
0.0
 40
0.3350198937943449
 50
15.2306164694276198
 51
21.564082970740909
  0
ARC
  5
EB42
  8
0
 10
4505.7597555778083915
 20
155.6711734691469928
 30
0.0
 40
2.7385689858736391
 50
7.9154790554758492
 51
12.6829780174875193
  0
ARC
  5
EB43
  8
0
 10
4507.5227263685119397
 20
156.063758676835306
 30
0.0
 40
0.932429286987158
 50
12.9327899837138194
 51
15.5741074131213697
  0
ARC
  5
EB44
  8
0
 10
4502.1821463995738668
 20
155.1292579163250025
 30
0.0
 40
6.3568728860804171
 50
6.211403279027377
 51
8.3127132858059252
  0
ARC
  5
EB45
  8
0
 10
4495.1870152094297737
 20
154.3555196010215127
 30
0.0
 40
13.3946608235755402
 50
4.9385245091075021
 51
6.2641977446161272
  0
ARC
  5
EB46
  8
0
 10
4508.6144379199649848
 20
153.8298148657960098
 30
0.0
 40
0.0201496163109242
 50
355.8839493974406878
 51
0.7526193875246113
  0
LINE
  5
EB47
  8
0
 10
4508.6345355646690223
 20
153.828368589597801
 30
0.0
 11
4508.6344325450318138
 21
153.8248597351239937
 31
0.0
  0
LINE
  5
EB48
  8
0
 10
4508.6344325450318138
 20
153.8248597351239937
 30
0.0
 11
4508.6334649259306389
 21
153.8195961755239978
 31
0.0
  0
LINE
  5
EB49
  8
0
 10
4508.6334649259306389
 20
153.8195961755239978
 30
0.0
 11
4508.6316706590314425
 21
153.8144699779240057
 31
0.0
  0
LINE
  5
EB4A
  8
0
 10
4508.6213373425553073
 20
153.7982002526225926
 30
0.0
 11
4508.6113638974311471
 21
153.7853116882239988
 31
0.0
  0
ARC
  5
EB4B
  8
0
 10
4507.3851211516075637
 20
153.7682830574090929
 30
0.0
 40
1.165266119681156
 50
1.2327769588664921
 51
1.591762951370886
  0
ARC
  5
EB4C
  8
0
 10
4508.5601120593310043
 20
153.7936845894240037
 30
0.0
 40
0.0099999999999993
 50
181.900167109993987
 51
257.6066630619886837
  0
ARC
  5
EB4D
  8
0
 10
4508.5929177668522243
 20
153.8107744521103086
 30
0.0
 40
0.0340581927983881
 50
258.5611169447032012
 51
274.4766791747642856
  0
ARC
  5
EB4E
  8
0
 10
4508.5940110169376567
 20
153.7996143918292944
 30
0.0
 40
0.0224875474833012
 50
302.8138585394660822
 51
320.5037495494581208
  0
ARC
  5
EB4F
  8
0
 10
4508.5920300966690775
 20
153.8029190739349872
 30
0.0
 40
0.0263387047308082
 50
277.7373246781515945
 51
302.5397441962358016
  0
LINE
  5
EB50
  8
0
 10
4508.5861632594305775
 20
153.7773927636239932
 30
0.0
 11
4508.5579658418701001
 21
153.7839176169858888
 31
0.0
  0
ARC
  5
EB51
  8
0
 10
4507.7259110831446378
 20
149.2091984141383136
 30
0.0
 40
4.6756999691134906
 50
83.8454769464557188
 51
84.5618023365521907
  0
ARC
  5
EB52
  8
0
 10
4507.896491088282346
 20
150.850931373022803
 30
0.0
 40
3.0251482231773101
 50
82.180958132410538
 51
83.7240017001720105
  0
ARC
  5
EB53
  8
0
 10
4507.9707138827006929
 20
151.3789822274349035
 30
0.0
 40
2.4919097738751188
 50
79.9372929031540167
 51
82.2199108119477131
  0
ARC
  5
EB54
  8
0
 10
4508.0420411639770464
 20
151.7828088830522972
 30
0.0
 40
2.0818324404980291
 50
78.5430233537414324
 51
79.9282406912072361
  0
ARC
  5
EB55
  8
0
 10
4508.1232648288087148
 20
152.1726510358369922
 30
0.0
 40
1.683626005559091
 50
75.5122377176809891
 51
78.616873264925303
  0
ARC
  5
EB56
  8
0
 10
4508.2027326944216838
 20
152.4868660850112008
 30
0.0
 40
1.3595229414980761
 50
74.8887707675002048
 51
75.4419703702941007
  0
ARC
  5
EB57
  8
0
 10
4508.562688528637409
 20
153.7946380778319053
 30
0.0
 40
0.0019421223675301
 50
358.3736248574138017
 51
30.3092641224063399
  0
ARC
  5
EB58
  8
0
 10
4508.549380192940589
 20
153.7698956029304895
 30
0.0
 40
0.0304903101584372
 50
69.4417027823737101
 51
75.2330794227723771
  0
ARC
  5
EB59
  8
0
 10
4508.5607860834597886
 20
153.7934193831871141
 30
0.0
 40
0.0042005730061248
 50
31.5644399491649708
 51
58.0368996330430704
  0
ARC
  5
EB5A
  8
0
 10
4508.5551007233889322
 20
153.7848160006205944
 30
0.0
 40
0.0145117593280666
 50
56.9747658759102933
 51
69.9027432164834153
  0
ARC
  5
EB5B
  8
0
 10
4508.5589337636365599
 20
153.7888291163833117
 30
0.0
 40
0.0050059663282607
 50
258.8514366547270242
 51
283.6139180004149125
  0
LINE
  5
EB5C
  8
0
 10
4508.5646298686306181
 20
153.7945829569239891
 30
0.0
 11
4508.5644697902316693
 21
153.7939182108239891
 31
0.0
  0
LINE
  5
EB5D
  8
0
 10
4508.5644697902316693
 20
153.7939182108239891
 30
0.0
 11
4508.5601120590317805
 21
153.7839637984239971
 31
0.0
  0
ARC
  5
EB5E
  8
0
 10
4508.4777907228299227
 20
153.8898269233679059
 30
0.0
 40
0.1693319339328624
 50
315.2630175499592724
 51
320.8964307546511918
  0
ARC
  5
EB5F
  8
0
 10
4508.279538781379415
 20
154.0906300445861916
 30
0.0
 40
0.4515058578477648
 50
300.3068338720065071
 51
314.8697203361093102
  0
ARC
  5
EB60
  8
0
 10
4508.1197725631172943
 20
153.776860111820298
 30
0.0
 40
0.2175009603046051
 50
273.548013227116428
 51
284.6863969553272113
  0
ARC
  5
EB61
  8
0
 10
4507.8015297977790397
 20
168.9592062155261942
 30
0.0
 40
15.4036255888752098
 50
270.0114602533910784
 51
270.1134393195620191
  0
ARC
  5
EB62
  8
0
 10
4507.8022774988348829
 20
168.4488071660418029
 30
0.0
 40
14.8932260617178596
 50
270.1144504664201804
 51
270.4767575765333163
  0
ARC
  5
EB63
  8
0
 10
4508.1063827457783191
 20
153.9140654041100049
 30
0.0
 40
0.3553053189088903
 50
271.1737718716099721
 51
274.3338815221520122
  0
ARC
  5
EB64
  8
0
 10
4507.9018583378283438
 20
161.6415913165679115
 30
0.0
 40
8.0855312681712537
 50
270.1725077416344902
 51
271.501050641979873
  0
ARC
  5
EB65
  8
0
 10
4508.1512904655719467
 20
154.2870181824135045
 30
0.0
 40
0.6858711109377652
 50
300.954306177983085
 51
301.2774028227696022
  0
ARC
  5
EB66
  8
0
 10
4508.0606555918056984
 20
154.443862676055204
 30
0.0
 40
0.8670009102819843
 50
294.481395052026528
 51
300.7595407669261931
  0
ARC
  5
EB67
  8
0
 10
4507.7819679723734225
 20
155.0595866464892083
 30
0.0
 40
1.5428570303019959
 50
287.6591911896753118
 51
294.4248675939114719
  0
ARC
  5
EB68
  8
0
 10
4507.5616878250866648
 20
155.7070467901151005
 30
0.0
 40
2.2266712472776891
 50
286.5416760068728763
 51
288.0063160369235788
  0
ARC
  5
EB69
  8
0
 10
4507.5180064608912289
 20
155.850436255849786
 30
0.0
 40
2.376563108363881
 50
286.0461323465266901
 51
286.5669591833922141
  0
ARC
  5
EB6A
  8
0
 10
4507.8070611625880701
 20
151.9334362788825104
 30
0.0
 40
1.898337636105746
 50
86.5879230861177689
 51
90.0739565203901549
  0
ARC
  5
EB6B
  8
0
 10
4507.8390751268516397
 20
152.3007075124012033
 30
0.0
 40
1.529845424125849
 50
80.9782880891102792
 51
86.9661315753052975
  0
ARC
  5
EB6C
  8
0
 10
4508.0803029770477224
 20
153.4338897372632005
 30
0.0
 40
0.3692982206225459
 50
65.164471093316692
 51
74.0750753898336995
  0
ARC
  5
EB6D
  8
0
 10
4507.9885142032553631
 20
153.1308641610314965
 30
0.0
 40
0.685898204174336
 50
73.6471530996518737
 51
78.9497293584201429
  0
ARC
  5
EB6E
  8
0
 10
4507.9483646826747645
 20
152.9904403588870991
 30
0.0
 40
0.8315077417580827
 50
78.0890578141119818
 51
80.9632252650779947
  0
ARC
  5
EB6F
  8
0
 10
4508.1715176276848069
 20
153.6276859515081128
 30
0.0
 40
0.1551194614111409
 50
53.8969681219328365
 51
65.6747802711497002
  0
ARC
  5
EB70
  8
0
 10
4507.804943758461377
 20
155.220308384966188
 30
0.0
 40
1.6130808481994841
 50
269.9881741281989207
 51
274.0917809510896177
  0
ARC
  5
EB71
  8
0
 10
4508.1686537912919448
 20
153.6983395943711059
 30
0.0
 40
0.0239583472309246
 50
327.4424973997615211
 51
359.3510806582041255
  0
ARC
  5
EB72
  8
0
 10
4508.1211361898385803
 20
153.7369818919023032
 30
0.0
 40
0.0850921058736672
 50
291.9889904759759247
 51
322.7249227333431918
  0
ARC
  5
EB73
  8
0
 10
4507.8184494448387341
 20
155.0048768314563858
 30
0.0
 40
1.3972360266766359
 50
274.1697228824691024
 51
275.5871989629841892
  0
ARC
  5
EB74
  8
0
 10
4507.9193411413016292
 20
154.304769948791801
 30
0.0
 40
0.6896730920744361
 50
278.1388094254992893
 51
285.3917818533410014
  0
ARC
  5
EB75
  8
0
 10
4507.8081938656450802
 20
152.3007553205831925
 30
0.0
 40
1.4881623071511629
 50
82.3541010632701358
 51
90.1379511557090751
  0
ARC
  5
EB76
  8
0
 10
4507.9013931332119682
 20
153.011081771465598
 30
0.0
 40
0.7717539379974915
 50
74.3367445796404098
 51
82.1953321303127211
  0
ARC
  5
EB77
  8
0
 10
4508.0427366375461133
 20
153.5123306558326135
 30
0.0
 40
0.2509597121526887
 50
59.5385526081150189
 51
74.5116384634754638
  0
ARC
  5
EB78
  8
0
 10
4508.1416478408973489
 20
153.6800382317400988
 30
0.0
 40
0.0562573624171008
 50
32.443107442195533
 51
59.780700262130182
  0
ARC
  5
EB79
  8
0
 10
4508.1678444082854185
 20
153.6975378566750976
 30
0.0
 40
0.0247718725214808
 50
1.226867534342595
 51
30.7893346146084284
  0
ARC
  5
EB7A
  8
0
 10
4507.8429647140510497
 20
154.7672682549174112
 30
0.0
 40
1.1583701572973999
 50
275.5246239871465832
 51
278.6398921895655008
  0
ARC
  5
EB7B
  8
0
 10
4508.0191480103549111
 20
153.9499942158089993
 30
0.0
 40
0.3211380345201644
 50
285.0236491218428796
 51
294.6324769527155922
  0
ARC
  5
EB7C
  8
0
 10
4507.8033821369799625
 20
152.2648683156245966
 30
0.0
 40
1.513853382972318
 50
87.9326367864290859
 51
89.9534973192537848
  0
ARC
  5
EB7D
  8
0
 10
4507.8070092781008498
 20
152.3888043857672869
 30
0.0
 40
1.3898673926322731
 50
85.9568976428449503
 51
87.8977552767317292
  0
ARC
  5
EB7E
  8
0
 10
4507.8126524766857983
 20
152.4969288575464077
 30
0.0
 40
1.2816156784380159
 50
83.5697317563963367
 51
85.8677376417352036
  0
ARC
  5
EB7F
  8
0
 10
4507.8476374156807651
 20
152.8167691449282017
 30
0.0
 40
0.959870020525455
 50
81.1958460475182306
 51
83.5067385796313459
  0
ARC
  5
EB80
  8
0
 10
4507.8770125955870753
 20
153.0050949210726117
 30
0.0
 40
0.7692671689513066
 50
77.2435267890635657
 51
81.211069321320835
  0
ARC
  5
EB81
  8
0
 10
4507.9248330184445877
 20
153.2368629900757071
 30
0.0
 40
0.5327122286159885
 50
72.8214403829522325
 51
76.7556275036541393
  0
ARC
  5
EB82
  8
0
 10
4508.0196202075421752
 20
153.5388380493457987
 30
0.0
 40
0.2162174854647386
 50
60.5329321820549922
 51
73.1845156543457165
  0
ARC
  5
EB83
  8
0
 10
4508.0975192370842706
 20
153.6752156928390889
 30
0.0
 40
0.0591660656459619
 50
40.9402272935879381
 51
61.2443013890713601
  0
ARC
  5
EB84
  8
0
 10
4508.1241395392889899
 20
153.6965664044427058
 30
0.0
 40
0.0251012366833876
 50
8.2492426471916431
 51
43.9439600550302103
  0
ARC
  5
EB85
  8
0
 10
4508.1245445314607423
 20
153.6984690222072061
 30
0.0
 40
0.0244955139582837
 50
306.3788963827516909
 51
3.9769643084196939
  0
ARC
  5
EB86
  8
0
 10
4508.0528013692546665
 20
153.7837229662854099
 30
0.0
 40
0.1358776331516132
 50
286.9789701777032178
 51
309.4143639831718247
  0
ARC
  5
EB87
  8
0
 10
4507.9239040423699407
 20
154.1525680536732068
 30
0.0
 40
0.5265164111916697
 50
277.8887207351879169
 51
288.6733952349395054
  0
ARC
  5
EB88
  8
0
 10
4507.8075689635397794
 20
154.9293226964099972
 30
0.0
 40
1.3119155265127109
 50
269.8708076863412089
 51
278.265402632687028
  0
ARC
  5
EB89
  8
0
 10
4508.2260888997943766
 20
153.7002577332667954
 30
0.0
 40
0.0643426615975053
 50
41.192689403208
 51
55.0806786553970724
  0
ARC
  5
EB8A
  8
0
 10
4508.2450310865433494
 20
153.7138567032407082
 30
0.0
 40
0.0411935496586357
 50
31.0664594019361715
 51
44.3125963505004066
  0
ARC
  5
EB8B
  8
0
 10
4508.2435701123076797
 20
153.7137444182831132
 30
0.0
 40
0.0425080068403483
 50
17.6600533409405287
 51
30.1798821149116492
  0
ARC
  5
EB8C
  8
0
 10
4508.2579382156136489
 20
153.7192082879801092
 30
0.0
 40
0.0271726794203922
 50
334.984190077828714
 51
15.8726551021320503
  0
ARC
  5
EB8D
  8
0
 10
4508.2229962556057217
 20
153.7399424928017879
 30
0.0
 40
0.0677236312753763
 50
300.3371083444578744
 51
331.5868500250925877
  0
ARC
  5
EB8E
  8
0
 10
4508.1284249195050506
 20
153.888643430432893
 30
0.0
 40
0.2439164817243169
 50
288.0772478431854893
 51
301.8675842791844275
  0
ARC
  5
EB8F
  8
0
 10
4507.9991421871709463
 20
154.2584173443719067
 30
0.0
 40
0.6356066833782662
 50
281.0007377361894214
 51
288.8129063620525017
  0
ARC
  5
EB90
  8
0
 10
4507.8213767432298482
 20
155.3317408044972865
 30
0.0
 40
1.7244949740511311
 50
273.2799821556895949
 51
276.8049464658462853
  0
ARC
  5
EB91
  8
0
 10
4507.8852261710671883
 20
154.8055739815225991
 30
0.0
 40
1.1944698139769001
 50
276.7543751687414897
 51
281.3563445946626871
  0
ARC
  5
EB92
  8
0
 10
4508.1199299516529209
 20
153.8339582999120125
 30
0.0
 40
0.1904428499086795
 50
289.1562644559398905
 51
307.3293649225972217
  0
ARC
  5
EB93
  8
0
 10
4508.0037592533053612
 20
154.1467370606191878
 30
0.0
 40
0.5240711757214217
 50
282.8127821901557013
 51
289.9326273714601143
  0
ARC
  5
EB94
  8
0
 10
4508.0648595201992066
 20
153.4817241332962965
 30
0.0
 40
0.3066570692801084
 50
56.2084911435952677
 51
79.6449319518633985
  0
ARC
  5
EB95
  8
0
 10
4508.0379444765176231
 20
153.5284386500752021
 30
0.0
 40
0.2487521069875682
 50
55.345910981058708
 51
80.5075121045821902
  0
ARC
  5
EB96
  8
0
 10
4507.8054313002021445
 20
151.9657467605958061
 30
0.0
 40
1.848222691863048
 50
86.4446673208351086
 51
90.0254353401575145
  0
ARC
  5
EB97
  8
0
 10
4507.8053009264776847
 20
152.1926981545803983
 30
0.0
 40
1.6076940227160459
 50
86.4434304049679838
 51
90.0245944239474767
  0
LINE
  5
EB98
  8
0
 10
4507.9200441120319738
 20
153.8284087414239991
 30
0.0
 11
4507.9200441120310643
 21
153.8104123189239942
 31
0.0
  0
LINE
  5
EB99
  8
0
 10
4507.9200441120310643
 20
153.8104123189239942
 30
0.0
 11
4507.905032607431167
 21
153.7972958183239882
 31
0.0
  0
LINE
  5
EB9A
  8
0
 10
4508.0789682490312771
 20
153.8116272030696052
 30
0.0
 11
4508.0789682490312771
 21
153.7737846523239966
 31
0.0
  0
LINE
  5
EB9B
  8
0
 10
4508.0789682490312771
 20
153.7737846523239966
 30
0.0
 11
4508.1199804423313253
 21
153.7833865971240073
 31
0.0
  0
LINE
  5
EB9C
  8
0
 10
4508.1199804423313253
 20
153.7833865971240073
 30
0.0
 11
4508.1199804423313253
 21
153.8040453955240139
 31
0.0
  0
LINE
  5
EB9D
  8
0
 10
4508.2354137364309281
 20
153.7690342256238978
 30
0.0
 11
4508.2354137364309281
 21
153.7365766739239916
 31
0.0
  0
LINE
  5
EB9E
  8
0
 10
4508.2354137364309281
 20
153.7365766739239916
 30
0.0
 11
4508.1793900385318921
 21
153.7330621182240122
 31
0.0
  0
LINE
  5
EB9F
  8
0
 10
4508.1926108179313815
 20
153.7338915023478023
 30
0.0
 11
4508.1926106019309373
 21
153.6980682532528135
 31
0.0
  0
LINE
  5
EBA0
  8
0
 10
4508.1926108179313815
 20
153.7231264636239985
 30
0.0
 11
4508.2354137364309281
 21
153.7204412920239918
 31
0.0
  0
LINE
  5
EBA1
  8
0
 10
4508.2354137364309281
 20
153.7204412920239918
 30
0.0
 11
4508.2354137364309281
 21
153.6825252304240053
 31
0.0
  0
LINE
  5
EBA2
  8
0
 10
4508.2354137364309281
 20
153.6825252304240053
 30
0.0
 11
4508.1888471269767251
 21
153.6854465111130992
 31
0.0
  0
ARC
  5
EBA3
  8
0
 10
4508.1922555996861774
 20
153.7792638127617977
 30
0.0
 40
0.0838437625531268
 50
300.9911569125018218
 51
321.4336315579228085
  0
ARC
  5
EBA4
  8
0
 10
4508.2382726937830739
 20
153.7449580112973138
 30
0.0
 40
0.0259311788780365
 50
348.2775050327309145
 51
18.1043080621542707
  0
ARC
  5
EBA5
  8
0
 10
4508.2309830538733877
 20
153.7470547864863022
 30
0.0
 40
0.0334996687321855
 50
323.2131926454845257
 51
347.2991536459858253
  0
ARC
  5
EBA6
  8
0
 10
4508.1967900785166421
 20
153.817677561343686
 30
0.0
 40
0.1174452009840014
 50
289.2357733542295932
 51
315.3320181887967806
  0
LINE
  5
EBA7
  8
0
 10
4507.804610817930552
 20
153.6513269794239989
 30
0.0
 11
4507.830201369030874
 21
153.6478678627240129
 31
0.0
  0
LINE
  5
EBA8
  8
0
 10
4507.830201369030874
 20
153.6478678627240129
 30
0.0
 11
4507.830201369030874
 21
153.6409496291240089
 31
0.0
  0
LINE
  5
EBA9
  8
0
 10
4507.830201369030874
 20
153.6409496291240089
 30
0.0
 11
4507.8272865056305818
 21
153.6405556222240136
 31
0.0
  0
LINE
  5
EBAA
  8
0
 10
4507.8272865056305818
 20
153.6405556222240136
 30
0.0
 11
4507.8272865056305818
 21
153.6482618695239921
 31
0.0
  0
LINE
  5
EBAB
  8
0
 10
4507.8272865056496812
 20
153.6405556222117923
 30
0.0
 11
4507.8425850068306318
 21
153.640872227923893
 31
0.0
  0
LINE
  5
EBAC
  8
0
 10
4507.8425850068306318
 20
153.640872227923893
 30
0.0
 11
4507.8425850068306318
 21
153.6479452639096053
 31
0.0
  0
LINE
  5
EBAD
  8
0
 10
4507.8420177421612607
 20
153.6408604882618079
 30
0.0
 11
4507.8420123927307941
 21
153.6478678627240129
 31
0.0
  0
LINE
  5
EBAE
  8
0
 10
4507.8420123927307941
 20
153.6478678627240129
 30
0.0
 11
4507.8676029438311161
 21
153.6513269794239989
 31
0.0
  0
LINE
  5
EBAF
  8
0
 10
4507.8676029438311161
 20
153.6513269794239989
 30
0.0
 11
4507.8931934950305731
 21
153.6478678627240129
 31
0.0
  0
LINE
  5
EBB0
  8
0
 10
4507.8931934950305731
 20
153.6478678627240129
 30
0.0
 11
4507.8931934950305731
 21
153.6430927906239958
 31
0.0
  0
LINE
  5
EBB1
  8
0
 10
4507.8931934950305731
 20
153.6430927906239958
 30
0.0
 11
4507.9050045186313582
 21
153.6438816422239881
 31
0.0
  0
LINE
  5
EBB2
  8
0
 10
4507.9050045186313582
 20
153.6438816422239881
 30
0.0
 11
4507.9050045186313582
 21
153.6478678627240129
 31
0.0
  0
LINE
  5
EBB3
  8
0
 10
4507.9050045186313582
 20
153.6478678627240129
 30
0.0
 11
4507.9305950698317247
 21
153.6513269794239989
 31
0.0
  0
LINE
  5
EBB4
  8
0
 10
4507.9305950698317247
 20
153.6513269794239989
 30
0.0
 11
4507.9532092198305691
 21
153.6482701877239947
 31
0.0
  0
LINE
  5
EBB5
  8
0
 10
4507.9532092198305691
 20
153.6482701877239947
 30
0.0
 11
4507.9994927076313616
 21
153.6545271344240007
 31
0.0
  0
LINE
  5
EBB6
  8
0
 10
4507.9994927076313616
 20
153.6545271344240007
 30
0.0
 11
4507.9994927076313616
 21
153.6606399862239982
 31
0.0
  0
LINE
  5
EBB7
  8
0
 10
4507.9994927076313616
 20
153.6606399862239982
 30
0.0
 11
4508.0250832588308185
 21
153.6640991030240002
 31
0.0
  0
LINE
  5
EBB8
  8
0
 10
4508.0250832588308185
 20
153.6640991030240002
 30
0.0
 11
4508.0398214949691464
 21
153.6621069113963927
 31
0.0
  0
LINE
  5
EBB9
  8
0
 10
4508.0398214949691464
 20
153.6621069113963927
 30
0.0
 11
4508.048637003863405
 21
153.6641057426697046
 31
0.0
  0
LINE
  5
EBBA
  8
0
 10
4508.048637003863405
 20
153.6641057426697046
 30
0.0
 11
4508.0309887706316658
 21
153.6664912833240066
 31
0.0
  0
LINE
  5
EBBB
  8
0
 10
4508.0309887706316658
 20
153.6664912833240066
 30
0.0
 11
4508.0309887706316658
 21
153.6734095169240106
 31
0.0
  0
LINE
  5
EBBC
  8
0
 10
4508.0309887706316658
 20
153.6734095169240106
 30
0.0
 11
4508.0565793218311228
 21
153.6768686337240126
 31
0.0
  0
LINE
  5
EBBD
  8
0
 10
4508.0565793218311228
 20
153.6768686337240126
 30
0.0
 11
4508.0824902500853568
 21
153.6733648391580118
 31
0.0
  0
LINE
  5
EBBE
  8
0
 10
4508.0824902500853568
 20
153.6733648391580118
 30
0.0
 11
4508.0909494094312322
 21
153.6761927767240081
 31
0.0
  0
LINE
  5
EBBF
  8
0
 10
4508.0909494094312322
 20
153.6761927767240081
 30
0.0
 11
4508.0880753848314271
 21
153.67580429002399
 31
0.0
  0
LINE
  5
EBC0
  8
0
 10
4508.0880753848314271
 20
153.67580429002399
 30
0.0
 11
4508.0624848336310606
 21
153.679263406823992
 31
0.0
  0
LINE
  5
EBC1
  8
0
 10
4508.0624848336310606
 20
153.679263406823992
 30
0.0
 11
4508.0624848336310606
 21
153.686181640423996
 31
0.0
  0
LINE
  5
EBC2
  8
0
 10
4508.0624848336310606
 20
153.686181640423996
 30
0.0
 11
4508.0880753848314271
 21
153.689640757223998
 31
0.0
  0
LINE
  5
EBC3
  8
0
 10
4508.0880753848314271
 20
153.689640757223998
 30
0.0
 11
4508.1136659360317935
 21
153.686181640423996
 31
0.0
  0
LINE
  5
EBC4
  8
0
 10
4508.1136659360317935
 20
153.686181640423996
 30
0.0
 11
4508.1136659360317935
 21
153.6854060079240014
 31
0.0
  0
LINE
  5
EBC5
  8
0
 10
4508.1136659360317935
 20
153.6854060079240014
 30
0.0
 11
4508.120102287831287
 21
153.6886455753239886
 31
0.0
  0
LINE
  5
EBC6
  8
0
 10
4508.120102287831287
 20
153.6886455753239886
 30
0.0
 11
4508.1196464580771135
 21
153.6885650097441953
 31
0.0
  0
LINE
  5
EBC7
  8
0
 10
4508.1196464580771135
 20
153.6885650097441953
 30
0.0
 11
4508.0939808966313649
 21
153.6920329375240044
 31
0.0
  0
LINE
  5
EBC8
  8
0
 10
4508.0939808966313649
 20
153.6920329375240044
 30
0.0
 11
4508.0939808966313649
 21
153.6989511711238947
 31
0.0
  0
LINE
  5
EBC9
  8
0
 10
4508.0939808966313649
 20
153.6989511711238947
 30
0.0
 11
4508.1195714478308219
 21
153.7024102879240104
 31
0.0
  0
LINE
  5
EBCA
  8
0
 10
4508.1195714478308219
 20
153.7024102879240104
 30
0.0
 11
4508.1372082557309113
 21
153.700026291623999
 31
0.0
  0
LINE
  5
EBCB
  8
0
 10
4508.1372082557309113
 20
153.700026291623999
 30
0.0
 11
4508.1401954844322972
 21
153.7028155339239959
 31
0.0
  0
LINE
  5
EBCC
  8
0
 10
4508.1401954844322972
 20
153.7028155339239959
 30
0.0
 11
4508.1254769596316692
 21
153.7048050611240058
 31
0.0
  0
LINE
  5
EBCD
  8
0
 10
4508.1254769596316692
 20
153.7048050611240058
 30
0.0
 11
4508.1254769596316692
 21
153.7117232946239938
 31
0.0
  0
LINE
  5
EBCE
  8
0
 10
4508.1254769596316692
 20
153.7117232946239938
 30
0.0
 11
4508.1422129038319326
 21
153.713985519723991
 31
0.0
  0
LINE
  5
EBCF
  8
0
 10
4508.1401954844322972
 20
153.7137128218240036
 30
0.0
 11
4508.1401954844322972
 21
153.7028155339239959
 31
0.0
  0
LINE
  5
EBD0
  8
0
 10
4508.1196098345817518
 20
153.7024050991238084
 30
0.0
 11
4508.1196539122729519
 21
153.6885849676368139
 31
0.0
  0
LINE
  5
EBD1
  8
0
 10
4508.1196539122729519
 20
153.6885849676368139
 30
0.0
 11
4508.120102287831287
 21
153.6886455753239886
 31
0.0
  0
LINE
  5
EBD2
  8
0
 10
4508.120102287831287
 20
153.6886455753239886
 30
0.0
 11
4508.120102287831287
 21
153.7023385334090051
 31
0.0
  0
LINE
  5
EBD3
  8
0
 10
4508.0909494094312322
 20
153.689252270602509
 30
0.0
 11
4508.0909494094312322
 21
153.6761927767240081
 31
0.0
  0
LINE
  5
EBD4
  8
0
 10
4508.0880753848314271
 20
153.67580429002399
 30
0.0
 11
4508.0880753848314271
 21
153.689640757223998
 31
0.0
  0
LINE
  5
EBD5
  8
0
 10
4508.0486370039307076
 20
153.6757950575239988
 30
0.0
 11
4508.0486370039307076
 21
153.66410574272399
 31
0.0
  0
LINE
  5
EBD6
  8
0
 10
4507.9876816840305764
 20
153.6606399862239982
 30
0.0
 11
4507.9876816840305764
 21
153.6537217526239942
 31
0.0
  0
LINE
  5
EBD7
  8
0
 10
4507.9876816840305764
 20
153.6537217526239942
 30
0.0
 11
4507.9620911328311195
 21
153.6502626358239922
 31
0.0
  0
LINE
  5
EBD8
  8
0
 10
4507.9620911328311195
 20
153.6502626358239922
 30
0.0
 11
4507.9365005816316625
 21
153.6537217526239942
 31
0.0
  0
LINE
  5
EBD9
  8
0
 10
4507.9365005816316625
 20
153.6537217526239942
 30
0.0
 11
4507.9365005816316625
 21
153.6606399862239982
 31
0.0
  0
LINE
  5
EBDA
  8
0
 10
4507.9365005816316625
 20
153.6606399862239982
 30
0.0
 11
4507.9620911328311195
 21
153.6640991030240002
 31
0.0
  0
LINE
  5
EBDB
  8
0
 10
4507.9620911328311195
 20
153.6640991030240002
 30
0.0
 11
4507.9876816840305764
 21
153.6606399862239982
 31
0.0
  0
LINE
  5
EBDC
  8
0
 10
4507.9620911328311195
 20
153.6640991030240002
 30
0.0
 11
4507.9620911328311195
 21
153.6502626358239922
 31
0.0
  0
LINE
  5
EBDD
  8
0
 10
4507.9561856210311817
 20
153.6734095169240106
 30
0.0
 11
4507.9561856210311817
 21
153.6664912833240066
 31
0.0
  0
LINE
  5
EBDE
  8
0
 10
4507.9561856210311817
 20
153.6664912833240066
 30
0.0
 11
4507.9305950698317247
 21
153.663032166523891
 31
0.0
  0
LINE
  5
EBDF
  8
0
 10
4507.9305950698317247
 20
153.663032166523891
 30
0.0
 11
4507.9050045186313582
 21
153.6664912833240066
 31
0.0
  0
LINE
  5
EBE0
  8
0
 10
4507.9050045186313582
 20
153.6664912833240066
 30
0.0
 11
4507.9050045186313582
 21
153.6734095169240106
 31
0.0
  0
LINE
  5
EBE1
  8
0
 10
4507.9050045186313582
 20
153.6734095169240106
 30
0.0
 11
4507.9305950698317247
 21
153.6768686337240126
 31
0.0
  0
LINE
  5
EBE2
  8
0
 10
4507.9305950698317247
 20
153.6768686337240126
 30
0.0
 11
4507.9561856210311817
 21
153.6734095169240106
 31
0.0
  0
LINE
  5
EBE3
  8
0
 10
4507.9305950698317247
 20
153.6768686337240126
 30
0.0
 11
4507.9305950698317247
 21
153.663032166523891
 31
0.0
  0
LINE
  5
EBE4
  8
0
 10
4507.9246895580317869
 20
153.6606399862239982
 30
0.0
 11
4507.9246895580317869
 21
153.6537217526239942
 31
0.0
  0
LINE
  5
EBE5
  8
0
 10
4507.9246895580317869
 20
153.6537217526239942
 30
0.0
 11
4507.8990990068314204
 21
153.6502626358239922
 31
0.0
  0
LINE
  5
EBE6
  8
0
 10
4507.8990990068314204
 20
153.6502626358239922
 30
0.0
 11
4507.8735084556319634
 21
153.6537217526239942
 31
0.0
  0
LINE
  5
EBE7
  8
0
 10
4507.8735084556319634
 20
153.6537217526239942
 30
0.0
 11
4507.8735084556319634
 21
153.6606399862239982
 31
0.0
  0
LINE
  5
EBE8
  8
0
 10
4507.8735084556319634
 20
153.6606399862239982
 30
0.0
 11
4507.8990990068314204
 21
153.6640991030240002
 31
0.0
  0
LINE
  5
EBE9
  8
0
 10
4507.8990990068314204
 20
153.6640991030240002
 30
0.0
 11
4507.9246895580317869
 21
153.6606399862239982
 31
0.0
  0
LINE
  5
EBEA
  8
0
 10
4507.8990990068314204
 20
153.6640991030240002
 30
0.0
 11
4507.8990990068314204
 21
153.6502626358239922
 31
0.0
  0
LINE
  5
EBEB
  8
0
 10
4507.8616974320311783
 20
153.6606399862239982
 30
0.0
 11
4507.8616974320311783
 21
153.6537217526239942
 31
0.0
  0
LINE
  5
EBEC
  8
0
 10
4507.8616974320311783
 20
153.6537217526239942
 30
0.0
 11
4507.8361068808317214
 21
153.6502626358239922
 31
0.0
  0
LINE
  5
EBED
  8
0
 10
4507.8361068808317214
 20
153.6502626358239922
 30
0.0
 11
4507.8105163296313549
 21
153.6537217526239942
 31
0.0
  0
LINE
  5
EBEE
  8
0
 10
4507.8105163296313549
 20
153.6537217526239942
 30
0.0
 11
4507.8105163296313549
 21
153.6606399862239982
 31
0.0
  0
LINE
  5
EBEF
  8
0
 10
4507.8105163296313549
 20
153.6606399862239982
 30
0.0
 11
4507.8361068808317214
 21
153.6640991030240002
 31
0.0
  0
LINE
  5
EBF0
  8
0
 10
4507.8361068808317214
 20
153.6640991030240002
 30
0.0
 11
4507.8616974320311783
 21
153.6606399862239982
 31
0.0
  0
LINE
  5
EBF1
  8
0
 10
4507.8361068808317214
 20
153.6640991030240002
 30
0.0
 11
4507.8361068808317214
 21
153.6502626358239922
 31
0.0
  0
LINE
  5
EBF2
  8
0
 10
4507.8931934950305731
 20
153.6734095169240106
 30
0.0
 11
4507.8931934950305731
 21
153.6664912833240066
 31
0.0
  0
LINE
  5
EBF3
  8
0
 10
4507.8931934950305731
 20
153.6664912833240066
 30
0.0
 11
4507.8676029438311161
 21
153.663032166523891
 31
0.0
  0
LINE
  5
EBF4
  8
0
 10
4507.8676029438311161
 20
153.663032166523891
 30
0.0
 11
4507.8420123926307497
 21
153.6664912833240066
 31
0.0
  0
LINE
  5
EBF5
  8
0
 10
4507.8420123926307497
 20
153.6664912833240066
 30
0.0
 11
4507.8420123926307497
 21
153.6734095169240106
 31
0.0
  0
LINE
  5
EBF6
  8
0
 10
4507.8420123926307497
 20
153.6734095169240106
 30
0.0
 11
4507.8676029438311161
 21
153.6768686337240126
 31
0.0
  0
LINE
  5
EBF7
  8
0
 10
4507.8676029438311161
 20
153.6768686337240126
 30
0.0
 11
4507.8931934950305731
 21
153.6734095169240106
 31
0.0
  0
LINE
  5
EBF8
  8
0
 10
4507.8676029438311161
 20
153.6768686337240126
 30
0.0
 11
4507.8676029438311161
 21
153.663032166523891
 31
0.0
  0
LINE
  5
EBF9
  8
0
 10
4507.8616974320311783
 20
153.686181640423996
 30
0.0
 11
4507.8616974320311783
 21
153.679263406823992
 31
0.0
  0
LINE
  5
EBFA
  8
0
 10
4507.8616974320311783
 20
153.679263406823992
 30
0.0
 11
4507.8361068808317214
 21
153.67580429002399
 31
0.0
  0
LINE
  5
EBFB
  8
0
 10
4507.8361068808317214
 20
153.67580429002399
 30
0.0
 11
4507.8105163296313549
 21
153.679263406823992
 31
0.0
  0
LINE
  5
EBFC
  8
0
 10
4507.8105163296313549
 20
153.679263406823992
 30
0.0
 11
4507.8105163296313549
 21
153.686181640423996
 31
0.0
  0
LINE
  5
EBFD
  8
0
 10
4507.8105163296313549
 20
153.686181640423996
 30
0.0
 11
4507.8361068808317214
 21
153.689640757223998
 31
0.0
  0
LINE
  5
EBFE
  8
0
 10
4507.8361068808317214
 20
153.689640757223998
 30
0.0
 11
4507.8616974320311783
 21
153.686181640423996
 31
0.0
  0
LINE
  5
EBFF
  8
0
 10
4507.8361068808317214
 20
153.689640757223998
 30
0.0
 11
4507.8361068808317214
 21
153.67580429002399
 31
0.0
  0
LINE
  5
EC00
  8
0
 10
4507.8616974320311783
 20
153.7117232946739875
 30
0.0
 11
4507.8616974320311783
 21
153.704805061074012
 31
0.0
  0
LINE
  5
EC01
  8
0
 10
4507.8616974320311783
 20
153.704805061074012
 30
0.0
 11
4507.8361068808317214
 21
153.7013459442738963
 31
0.0
  0
LINE
  5
EC02
  8
0
 10
4507.8361068808317214
 20
153.7013459442738963
 30
0.0
 11
4507.8105163296313549
 21
153.704805061074012
 31
0.0
  0
LINE
  5
EC03
  8
0
 10
4507.8105163296313549
 20
153.704805061074012
 30
0.0
 11
4507.8105163296313549
 21
153.7117232946739875
 31
0.0
  0
LINE
  5
EC04
  8
0
 10
4507.8105163296313549
 20
153.7117232946739875
 30
0.0
 11
4507.8361068808317214
 21
153.7151824114739895
 31
0.0
  0
LINE
  5
EC05
  8
0
 10
4507.8361068808317214
 20
153.7151824114739895
 30
0.0
 11
4507.8616974320311783
 21
153.7117232946739875
 31
0.0
  0
LINE
  5
EC06
  8
0
 10
4507.8361068808317214
 20
153.7151824114739895
 30
0.0
 11
4507.8361068808317214
 21
153.7013459442738963
 31
0.0
  0
LINE
  5
EC07
  8
0
 10
4507.8931934950305731
 20
153.6989511711238947
 30
0.0
 11
4507.8931934950305731
 21
153.6920329375240044
 31
0.0
  0
LINE
  5
EC08
  8
0
 10
4507.8931934950305731
 20
153.6920329375240044
 30
0.0
 11
4507.8676029438311161
 21
153.6885738207240024
 31
0.0
  0
LINE
  5
EC09
  8
0
 10
4507.8676029438311161
 20
153.6885738207240024
 30
0.0
 11
4507.8420123926307497
 21
153.6920329375240044
 31
0.0
  0
LINE
  5
EC0A
  8
0
 10
4507.8420123926307497
 20
153.6920329375240044
 30
0.0
 11
4507.8420123926307497
 21
153.6989511711238947
 31
0.0
  0
LINE
  5
EC0B
  8
0
 10
4507.8420123926307497
 20
153.6989511711238947
 30
0.0
 11
4507.8676029438311161
 21
153.7024102879240104
 31
0.0
  0
LINE
  5
EC0C
  8
0
 10
4507.8676029438311161
 20
153.7024102879240104
 30
0.0
 11
4507.8931934950305731
 21
153.6989511711238947
 31
0.0
  0
LINE
  5
EC0D
  8
0
 10
4507.8676029438311161
 20
153.7024102879240104
 30
0.0
 11
4507.8676029438311161
 21
153.6885738207240024
 31
0.0
  0
LINE
  5
EC0E
  8
0
 10
4507.9246895580317869
 20
153.7117232946739875
 30
0.0
 11
4507.9246895580317869
 21
153.704805061074012
 31
0.0
  0
LINE
  5
EC0F
  8
0
 10
4507.9246895580317869
 20
153.704805061074012
 30
0.0
 11
4507.8990990068314204
 21
153.7013459442738963
 31
0.0
  0
LINE
  5
EC10
  8
0
 10
4507.8990990068314204
 20
153.7013459442738963
 30
0.0
 11
4507.8735084556319634
 21
153.704805061074012
 31
0.0
  0
LINE
  5
EC11
  8
0
 10
4507.8735084556319634
 20
153.704805061074012
 30
0.0
 11
4507.8735084556319634
 21
153.7117232946739875
 31
0.0
  0
LINE
  5
EC12
  8
0
 10
4507.8735084556319634
 20
153.7117232946739875
 30
0.0
 11
4507.8990990068314204
 21
153.7151824114739895
 31
0.0
  0
LINE
  5
EC13
  8
0
 10
4507.8990990068314204
 20
153.7151824114739895
 30
0.0
 11
4507.9246895580317869
 21
153.7117232946739875
 31
0.0
  0
LINE
  5
EC14
  8
0
 10
4507.8990990068314204
 20
153.7151824114739895
 30
0.0
 11
4507.8990990068314204
 21
153.7013459442738963
 31
0.0
  0
LINE
  5
EC15
  8
0
 10
4507.9561856210311817
 20
153.6989511711238947
 30
0.0
 11
4507.9561856210311817
 21
153.6920329375240044
 31
0.0
  0
LINE
  5
EC16
  8
0
 10
4507.9561856210311817
 20
153.6920329375240044
 30
0.0
 11
4507.9305950698317247
 21
153.6885738207240024
 31
0.0
  0
LINE
  5
EC17
  8
0
 10
4507.9305950698317247
 20
153.6885738207240024
 30
0.0
 11
4507.9050045186313582
 21
153.6920329375240044
 31
0.0
  0
LINE
  5
EC18
  8
0
 10
4507.9050045186313582
 20
153.6920329375240044
 30
0.0
 11
4507.9050045186313582
 21
153.6989511711238947
 31
0.0
  0
LINE
  5
EC19
  8
0
 10
4507.9050045186313582
 20
153.6989511711238947
 30
0.0
 11
4507.9305950698317247
 21
153.7024102879240104
 31
0.0
  0
LINE
  5
EC1A
  8
0
 10
4507.9305950698317247
 20
153.7024102879240104
 30
0.0
 11
4507.9561856210311817
 21
153.6989511711238947
 31
0.0
  0
LINE
  5
EC1B
  8
0
 10
4507.9305950698317247
 20
153.7024102879240104
 30
0.0
 11
4507.9305950698317247
 21
153.6885738207240024
 31
0.0
  0
LINE
  5
EC1C
  8
0
 10
4507.9246895580317869
 20
153.686181640423996
 30
0.0
 11
4507.9246895580317869
 21
153.679263406823992
 31
0.0
  0
LINE
  5
EC1D
  8
0
 10
4507.9246895580317869
 20
153.679263406823992
 30
0.0
 11
4507.8990990068314204
 21
153.67580429002399
 31
0.0
  0
LINE
  5
EC1E
  8
0
 10
4507.8990990068314204
 20
153.67580429002399
 30
0.0
 11
4507.8735084556319634
 21
153.679263406823992
 31
0.0
  0
LINE
  5
EC1F
  8
0
 10
4507.8735084556319634
 20
153.679263406823992
 30
0.0
 11
4507.8735084556319634
 21
153.686181640423996
 31
0.0
  0
LINE
  5
EC20
  8
0
 10
4507.8735084556319634
 20
153.686181640423996
 30
0.0
 11
4507.8990990068314204
 21
153.689640757223998
 31
0.0
  0
LINE
  5
EC21
  8
0
 10
4507.8990990068314204
 20
153.689640757223998
 30
0.0
 11
4507.9246895580317869
 21
153.686181640423996
 31
0.0
  0
LINE
  5
EC22
  8
0
 10
4507.8990990068314204
 20
153.689640757223998
 30
0.0
 11
4507.8990990068314204
 21
153.67580429002399
 31
0.0
  0
LINE
  5
EC23
  8
0
 10
4507.9876816840305764
 20
153.686181640423996
 30
0.0
 11
4507.9876816840305764
 21
153.679263406823992
 31
0.0
  0
LINE
  5
EC24
  8
0
 10
4507.9876816840305764
 20
153.679263406823992
 30
0.0
 11
4507.9620911328311195
 21
153.67580429002399
 31
0.0
  0
LINE
  5
EC25
  8
0
 10
4507.9620911328311195
 20
153.67580429002399
 30
0.0
 11
4507.9365005816316625
 21
153.679263406823992
 31
0.0
  0
LINE
  5
EC26
  8
0
 10
4507.9365005816316625
 20
153.679263406823992
 30
0.0
 11
4507.9365005816316625
 21
153.686181640423996
 31
0.0
  0
LINE
  5
EC27
  8
0
 10
4507.9365005816316625
 20
153.686181640423996
 30
0.0
 11
4507.9620911328311195
 21
153.689640757223998
 31
0.0
  0
LINE
  5
EC28
  8
0
 10
4507.9620911328311195
 20
153.689640757223998
 30
0.0
 11
4507.9876816840305764
 21
153.686181640423996
 31
0.0
  0
LINE
  5
EC29
  8
0
 10
4507.9620911328311195
 20
153.689640757223998
 30
0.0
 11
4507.9620911328311195
 21
153.67580429002399
 31
0.0
  0
LINE
  5
EC2A
  8
0
 10
4507.9876816840305764
 20
153.7117232946739875
 30
0.0
 11
4507.9876816840305764
 21
153.704805061074012
 31
0.0
  0
LINE
  5
EC2B
  8
0
 10
4507.9876816840305764
 20
153.704805061074012
 30
0.0
 11
4507.9620911328311195
 21
153.7013459442738963
 31
0.0
  0
LINE
  5
EC2C
  8
0
 10
4507.9620911328311195
 20
153.7013459442738963
 30
0.0
 11
4507.9365005816316625
 21
153.704805061074012
 31
0.0
  0
LINE
  5
EC2D
  8
0
 10
4507.9365005816316625
 20
153.704805061074012
 30
0.0
 11
4507.9365005816316625
 21
153.7117232946739875
 31
0.0
  0
LINE
  5
EC2E
  8
0
 10
4507.9365005816316625
 20
153.7117232946739875
 30
0.0
 11
4507.9620911328311195
 21
153.7151824114739895
 31
0.0
  0
LINE
  5
EC2F
  8
0
 10
4507.9620911328311195
 20
153.7151824114739895
 30
0.0
 11
4507.9876816840305764
 21
153.7117232946739875
 31
0.0
  0
LINE
  5
EC30
  8
0
 10
4507.9620911328311195
 20
153.7151824114739895
 30
0.0
 11
4507.9620911328311195
 21
153.7013459442738963
 31
0.0
  0
LINE
  5
EC31
  8
0
 10
4507.9561856210311817
 20
153.7244928253739999
 30
0.0
 11
4507.9561856210311817
 21
153.717574591773996
 31
0.0
  0
LINE
  5
EC32
  8
0
 10
4507.9561856210311817
 20
153.717574591773996
 30
0.0
 11
4507.9305950698317247
 21
153.714115474973994
 31
0.0
  0
LINE
  5
EC33
  8
0
 10
4507.9305950698317247
 20
153.714115474973994
 30
0.0
 11
4507.9050045186313582
 21
153.717574591773996
 31
0.0
  0
LINE
  5
EC34
  8
0
 10
4507.9050045186313582
 20
153.717574591773996
 30
0.0
 11
4507.9050045186313582
 21
153.7244928253739999
 31
0.0
  0
LINE
  5
EC35
  8
0
 10
4507.9050045186313582
 20
153.7244928253739999
 30
0.0
 11
4507.9305950698317247
 21
153.7279519421740019
 31
0.0
  0
LINE
  5
EC36
  8
0
 10
4507.9305950698317247
 20
153.7279519421740019
 30
0.0
 11
4507.9561856210311817
 21
153.7244928253739999
 31
0.0
  0
LINE
  5
EC37
  8
0
 10
4507.9305950698317247
 20
153.7279519421740019
 30
0.0
 11
4507.9305950698317247
 21
153.714115474973994
 31
0.0
  0
LINE
  5
EC38
  8
0
 10
4507.8931934950305731
 20
153.7244928253739999
 30
0.0
 11
4507.8931934950305731
 21
153.717574591773996
 31
0.0
  0
LINE
  5
EC39
  8
0
 10
4507.8931934950305731
 20
153.717574591773996
 30
0.0
 11
4507.8676029438311161
 21
153.714115474973994
 31
0.0
  0
LINE
  5
EC3A
  8
0
 10
4507.8676029438311161
 20
153.714115474973994
 30
0.0
 11
4507.8420123926307497
 21
153.717574591773996
 31
0.0
  0
LINE
  5
EC3B
  8
0
 10
4507.8420123926307497
 20
153.717574591773996
 30
0.0
 11
4507.8420123926307497
 21
153.7244928253739999
 31
0.0
  0
LINE
  5
EC3C
  8
0
 10
4507.8420123926307497
 20
153.7244928253739999
 30
0.0
 11
4507.8676029438311161
 21
153.7279519421740019
 31
0.0
  0
LINE
  5
EC3D
  8
0
 10
4507.8676029438311161
 20
153.7279519421740019
 30
0.0
 11
4507.8931934950305731
 21
153.7244928253739999
 31
0.0
  0
LINE
  5
EC3E
  8
0
 10
4507.8676029438311161
 20
153.7279519421740019
 30
0.0
 11
4507.8676029438311161
 21
153.714115474973994
 31
0.0
  0
LINE
  5
EC3F
  8
0
 10
4508.0191777470317902
 20
153.6989511711238947
 30
0.0
 11
4508.0191777470317902
 21
153.6920329375240044
 31
0.0
  0
LINE
  5
EC40
  8
0
 10
4508.0191777470317902
 20
153.6920329375240044
 30
0.0
 11
4507.9935871958314237
 21
153.6885738207240024
 31
0.0
  0
LINE
  5
EC41
  8
0
 10
4507.9935871958314237
 20
153.6885738207240024
 30
0.0
 11
4507.9679966446319668
 21
153.6920329375240044
 31
0.0
  0
LINE
  5
EC42
  8
0
 10
4507.9679966446319668
 20
153.6920329375240044
 30
0.0
 11
4507.9679966446319668
 21
153.6989511711238947
 31
0.0
  0
LINE
  5
EC43
  8
0
 10
4507.9679966446319668
 20
153.6989511711238947
 30
0.0
 11
4507.9935871958314237
 21
153.7024102879240104
 31
0.0
  0
LINE
  5
EC44
  8
0
 10
4507.9935871958314237
 20
153.7024102879240104
 30
0.0
 11
4508.0191777470317902
 21
153.6989511711238947
 31
0.0
  0
LINE
  5
EC45
  8
0
 10
4507.9935871958314237
 20
153.7024102879240104
 30
0.0
 11
4507.9935871958314237
 21
153.6885738207240024
 31
0.0
  0
LINE
  5
EC46
  8
0
 10
4508.050673810031185
 20
153.686181640423996
 30
0.0
 11
4508.050673810031185
 21
153.679263406823992
 31
0.0
  0
LINE
  5
EC47
  8
0
 10
4508.050673810031185
 20
153.679263406823992
 30
0.0
 11
4508.0250832588308185
 21
153.67580429002399
 31
0.0
  0
LINE
  5
EC48
  8
0
 10
4508.0250832588308185
 20
153.67580429002399
 30
0.0
 11
4507.9994927076313616
 21
153.679263406823992
 31
0.0
  0
LINE
  5
EC49
  8
0
 10
4507.9994927076313616
 20
153.679263406823992
 30
0.0
 11
4507.9994927076313616
 21
153.686181640423996
 31
0.0
  0
LINE
  5
EC4A
  8
0
 10
4507.9994927076313616
 20
153.686181640423996
 30
0.0
 11
4508.0250832588308185
 21
153.689640757223998
 31
0.0
  0
LINE
  5
EC4B
  8
0
 10
4508.0250832588308185
 20
153.689640757223998
 30
0.0
 11
4508.050673810031185
 21
153.686181640423996
 31
0.0
  0
LINE
  5
EC4C
  8
0
 10
4508.0250832588308185
 20
153.689640757223998
 30
0.0
 11
4508.0250832588308185
 21
153.67580429002399
 31
0.0
  0
LINE
  5
EC4D
  8
0
 10
4508.0191777470317902
 20
153.6734095169240106
 30
0.0
 11
4508.0191777470317902
 21
153.6664912833240066
 31
0.0
  0
LINE
  5
EC4E
  8
0
 10
4508.0191777470317902
 20
153.6664912833240066
 30
0.0
 11
4507.9935871958314237
 21
153.663032166523891
 31
0.0
  0
LINE
  5
EC4F
  8
0
 10
4507.9935871958314237
 20
153.663032166523891
 30
0.0
 11
4507.9679966446319668
 21
153.6664912833240066
 31
0.0
  0
LINE
  5
EC50
  8
0
 10
4507.9679966446319668
 20
153.6664912833240066
 30
0.0
 11
4507.9679966446319668
 21
153.6734095169240106
 31
0.0
  0
LINE
  5
EC51
  8
0
 10
4507.9679966446319668
 20
153.6734095169240106
 30
0.0
 11
4507.9935871958314237
 21
153.6768686337240126
 31
0.0
  0
LINE
  5
EC52
  8
0
 10
4507.9935871958314237
 20
153.6768686337240126
 30
0.0
 11
4508.0191777470317902
 21
153.6734095169240106
 31
0.0
  0
LINE
  5
EC53
  8
0
 10
4507.9935871958314237
 20
153.6768686337240126
 30
0.0
 11
4507.9935871958314237
 21
153.663032166523891
 31
0.0
  0
LINE
  5
EC54
  8
0
 10
4508.0821698730323988
 20
153.6989511711238947
 30
0.0
 11
4508.0821698730323988
 21
153.6920329375240044
 31
0.0
  0
LINE
  5
EC55
  8
0
 10
4508.0821698730323988
 20
153.6920329375240044
 30
0.0
 11
4508.0565793218311228
 21
153.6885738207240024
 31
0.0
  0
LINE
  5
EC56
  8
0
 10
4508.0565793218311228
 20
153.6885738207240024
 30
0.0
 11
4508.0309887706316658
 21
153.6920329375240044
 31
0.0
  0
LINE
  5
EC57
  8
0
 10
4508.0309887706316658
 20
153.6920329375240044
 30
0.0
 11
4508.0309887706316658
 21
153.6989511711238947
 31
0.0
  0
LINE
  5
EC58
  8
0
 10
4508.0309887706316658
 20
153.6989511711238947
 30
0.0
 11
4508.0565793218311228
 21
153.7024102879240104
 31
0.0
  0
LINE
  5
EC59
  8
0
 10
4508.0565793218311228
 20
153.7024102879240104
 30
0.0
 11
4508.0821698730323988
 21
153.6989511711238947
 31
0.0
  0
LINE
  5
EC5A
  8
0
 10
4508.0565793218311228
 20
153.7024102879240104
 30
0.0
 11
4508.0565793218311228
 21
153.6885738207240024
 31
0.0
  0
LINE
  5
EC5B
  8
0
 10
4508.050673810031185
 20
153.7117232946739875
 30
0.0
 11
4508.050673810031185
 21
153.704805061074012
 31
0.0
  0
LINE
  5
EC5C
  8
0
 10
4508.050673810031185
 20
153.704805061074012
 30
0.0
 11
4508.0250832588308185
 21
153.7013459442738963
 31
0.0
  0
LINE
  5
EC5D
  8
0
 10
4508.0250832588308185
 20
153.7013459442738963
 30
0.0
 11
4507.9994927076313616
 21
153.704805061074012
 31
0.0
  0
LINE
  5
EC5E
  8
0
 10
4507.9994927076313616
 20
153.704805061074012
 30
0.0
 11
4507.9994927076313616
 21
153.7117232946739875
 31
0.0
  0
LINE
  5
EC5F
  8
0
 10
4507.9994927076313616
 20
153.7117232946739875
 30
0.0
 11
4508.0250832588308185
 21
153.7151824114739895
 31
0.0
  0
LINE
  5
EC60
  8
0
 10
4508.0250832588308185
 20
153.7151824114739895
 30
0.0
 11
4508.050673810031185
 21
153.7117232946739875
 31
0.0
  0
LINE
  5
EC61
  8
0
 10
4508.0250832588308185
 20
153.7151824114739895
 30
0.0
 11
4508.0250832588308185
 21
153.7013459442738963
 31
0.0
  0
LINE
  5
EC62
  8
0
 10
4508.0191777470317902
 20
153.7244928253739999
 30
0.0
 11
4508.0191777470317902
 21
153.717574591773996
 31
0.0
  0
LINE
  5
EC63
  8
0
 10
4508.0191777470317902
 20
153.717574591773996
 30
0.0
 11
4507.9935871958314237
 21
153.714115474973994
 31
0.0
  0
LINE
  5
EC64
  8
0
 10
4507.9935871958314237
 20
153.714115474973994
 30
0.0
 11
4507.9679966446319668
 21
153.717574591773996
 31
0.0
  0
LINE
  5
EC65
  8
0
 10
4507.9679966446319668
 20
153.717574591773996
 30
0.0
 11
4507.9679966446319668
 21
153.7244928253739999
 31
0.0
  0
LINE
  5
EC66
  8
0
 10
4507.9679966446319668
 20
153.7244928253739999
 30
0.0
 11
4507.9935871958314237
 21
153.7279519421740019
 31
0.0
  0
LINE
  5
EC67
  8
0
 10
4507.9935871958314237
 20
153.7279519421740019
 30
0.0
 11
4508.0191777470317902
 21
153.7244928253739999
 31
0.0
  0
LINE
  5
EC68
  8
0
 10
4507.9935871958314237
 20
153.7279519421740019
 30
0.0
 11
4507.9935871958314237
 21
153.714115474973994
 31
0.0
  0
LINE
  5
EC69
  8
0
 10
4508.1136659360317935
 20
153.7117232946739875
 30
0.0
 11
4508.1136659360317935
 21
153.704805061074012
 31
0.0
  0
LINE
  5
EC6A
  8
0
 10
4508.1136659360317935
 20
153.704805061074012
 30
0.0
 11
4508.0880753848314271
 21
153.7013459442738963
 31
0.0
  0
LINE
  5
EC6B
  8
0
 10
4508.0880753848314271
 20
153.7013459442738963
 30
0.0
 11
4508.0624848336310606
 21
153.704805061074012
 31
0.0
  0
LINE
  5
EC6C
  8
0
 10
4508.0624848336310606
 20
153.704805061074012
 30
0.0
 11
4508.0624848336310606
 21
153.7117232946739875
 31
0.0
  0
LINE
  5
EC6D
  8
0
 10
4508.0624848336310606
 20
153.7117232946739875
 30
0.0
 11
4508.0880753848314271
 21
153.7151824114739895
 31
0.0
  0
LINE
  5
EC6E
  8
0
 10
4508.0880753848314271
 20
153.7151824114739895
 30
0.0
 11
4508.1136659360317935
 21
153.7117232946739875
 31
0.0
  0
LINE
  5
EC6F
  8
0
 10
4508.0880753848314271
 20
153.7151824114739895
 30
0.0
 11
4508.0880753848314271
 21
153.7013459442738963
 31
0.0
  0
LINE
  5
EC70
  8
0
 10
4508.1395862056260739
 20
153.7168209026293937
 30
0.0
 11
4508.1195714478308219
 21
153.714115474973994
 31
0.0
  0
LINE
  5
EC71
  8
0
 10
4508.1195714478308219
 20
153.714115474973994
 30
0.0
 11
4508.0939808966313649
 21
153.717574591773996
 31
0.0
  0
LINE
  5
EC72
  8
0
 10
4508.0939808966313649
 20
153.717574591773996
 30
0.0
 11
4508.0939808966313649
 21
153.7244928253739999
 31
0.0
  0
LINE
  5
EC73
  8
0
 10
4508.0939808966313649
 20
153.7244928253739999
 30
0.0
 11
4508.1195714478308219
 21
153.7279519421740019
 31
0.0
  0
LINE
  5
EC74
  8
0
 10
4508.1195714478308219
 20
153.7279519421740019
 30
0.0
 11
4508.1259826091318246
 21
153.7270853349801882
 31
0.0
  0
LINE
  5
EC75
  8
0
 10
4508.1195714478308219
 20
153.7279519421740019
 30
0.0
 11
4508.1195714478308219
 21
153.714115474973994
 31
0.0
  0
LINE
  5
EC76
  8
0
 10
4508.1136659360317935
 20
153.733531146227989
 30
0.0
 11
4508.1136659360317935
 21
153.7303467152740097
 31
0.0
  0
LINE
  5
EC77
  8
0
 10
4508.1136659360317935
 20
153.7303467152740097
 30
0.0
 11
4508.0880753848314271
 21
153.7268875984740077
 31
0.0
  0
LINE
  5
EC78
  8
0
 10
4508.0880753848314271
 20
153.7268875984740077
 30
0.0
 11
4508.0624848336310606
 21
153.7303467152740097
 31
0.0
  0
LINE
  5
EC79
  8
0
 10
4508.0624848336310606
 20
153.7303467152740097
 30
0.0
 11
4508.0624848336310606
 21
153.7372649488740137
 31
0.0
  0
LINE
  5
EC7A
  8
0
 10
4508.0624848336310606
 20
153.7372649488740137
 30
0.0
 11
4508.0880753848314271
 21
153.7407240656739873
 31
0.0
  0
LINE
  5
EC7B
  8
0
 10
4508.0880753848314271
 20
153.7407240656739873
 30
0.0
 11
4508.1016560575526455
 21
153.7388883438561891
 31
0.0
  0
LINE
  5
EC7C
  8
0
 10
4508.0880753848314271
 20
153.7407240656739873
 30
0.0
 11
4508.0880753848314271
 21
153.7268875984740077
 31
0.0
  0
LINE
  5
EC7D
  8
0
 10
4508.0821698730323988
 20
153.74581036722401
 30
0.0
 11
4508.0821698730323988
 21
153.7428838687239931
 31
0.0
  0
LINE
  5
EC7E
  8
0
 10
4508.0821698730323988
 20
153.7428838687239931
 30
0.0
 11
4508.0565793218311228
 21
153.7394247519239912
 31
0.0
  0
LINE
  5
EC7F
  8
0
 10
4508.0565793218311228
 20
153.7394247519239912
 30
0.0
 11
4508.0309887706316658
 21
153.7428838687239931
 31
0.0
  0
LINE
  5
EC80
  8
0
 10
4508.0309887706316658
 20
153.7428838687239931
 30
0.0
 11
4508.0309887706316658
 21
153.7498021023239971
 31
0.0
  0
LINE
  5
EC81
  8
0
 10
4508.0309887706316658
 20
153.7498021023239971
 30
0.0
 11
4508.0565793218311228
 21
153.7532612191239991
 31
0.0
  0
LINE
  5
EC82
  8
0
 10
4508.0565793218311228
 20
153.7532612191239991
 30
0.0
 11
4508.0565793218311228
 21
153.7394247519239912
 31
0.0
  0
LINE
  5
EC83
  8
0
 10
4508.0821698730323988
 20
153.7244928253739999
 30
0.0
 11
4508.0821698730323988
 21
153.717574591773996
 31
0.0
  0
LINE
  5
EC84
  8
0
 10
4508.0821698730323988
 20
153.717574591773996
 30
0.0
 11
4508.0565793218311228
 21
153.714115474973994
 31
0.0
  0
LINE
  5
EC85
  8
0
 10
4508.0565793218311228
 20
153.714115474973994
 30
0.0
 11
4508.0309887706316658
 21
153.717574591773996
 31
0.0
  0
LINE
  5
EC86
  8
0
 10
4508.0309887706316658
 20
153.717574591773996
 30
0.0
 11
4508.0309887706316658
 21
153.7244928253739999
 31
0.0
  0
LINE
  5
EC87
  8
0
 10
4508.0309887706316658
 20
153.7244928253739999
 30
0.0
 11
4508.0565793218311228
 21
153.7279519421740019
 31
0.0
  0
LINE
  5
EC88
  8
0
 10
4508.0565793218311228
 20
153.7279519421740019
 30
0.0
 11
4508.0821698730323988
 21
153.7244928253739999
 31
0.0
  0
LINE
  5
EC89
  8
0
 10
4508.0565793218311228
 20
153.7279519421740019
 30
0.0
 11
4508.0565793218311228
 21
153.714115474973994
 31
0.0
  0
LINE
  5
EC8A
  8
0
 10
4508.050673810031185
 20
153.7372649488740137
 30
0.0
 11
4508.050673810031185
 21
153.7303467152740097
 31
0.0
  0
LINE
  5
EC8B
  8
0
 10
4508.050673810031185
 20
153.7303467152740097
 30
0.0
 11
4508.0250832588308185
 21
153.7268875984740077
 31
0.0
  0
LINE
  5
EC8C
  8
0
 10
4508.0250832588308185
 20
153.7268875984740077
 30
0.0
 11
4507.9994927076313616
 21
153.7303467152740097
 31
0.0
  0
LINE
  5
EC8D
  8
0
 10
4507.9994927076313616
 20
153.7303467152740097
 30
0.0
 11
4507.9994927076313616
 21
153.7372649488740137
 31
0.0
  0
LINE
  5
EC8E
  8
0
 10
4507.9994927076313616
 20
153.7372649488740137
 30
0.0
 11
4508.0250832588308185
 21
153.7407240656739873
 31
0.0
  0
LINE
  5
EC8F
  8
0
 10
4508.0250832588308185
 20
153.7407240656739873
 30
0.0
 11
4508.050673810031185
 21
153.7372649488740137
 31
0.0
  0
LINE
  5
EC90
  8
0
 10
4508.0250832588308185
 20
153.7407240656739873
 30
0.0
 11
4508.0250832588308185
 21
153.7268875984740077
 31
0.0
  0
LINE
  5
EC91
  8
0
 10
4508.0191777470317902
 20
153.7500344795739977
 30
0.0
 11
4508.0191777470317902
 21
153.7431162459739937
 31
0.0
  0
LINE
  5
EC92
  8
0
 10
4508.0191777470317902
 20
153.7431162459739937
 30
0.0
 11
4507.9935871958314237
 21
153.7396571291739917
 31
0.0
  0
LINE
  5
EC93
  8
0
 10
4507.9935871958314237
 20
153.7396571291739917
 30
0.0
 11
4507.9679966446319668
 21
153.7431162459739937
 31
0.0
  0
LINE
  5
EC94
  8
0
 10
4507.9679966446319668
 20
153.7431162459739937
 30
0.0
 11
4507.9679966446319668
 21
153.7500344795739977
 31
0.0
  0
LINE
  5
EC95
  8
0
 10
4507.9679966446319668
 20
153.7500344795739977
 30
0.0
 11
4507.9935871958314237
 21
153.7534935963739997
 31
0.0
  0
LINE
  5
EC96
  8
0
 10
4507.9935871958314237
 20
153.7534935963739997
 30
0.0
 11
4508.0191777470317902
 21
153.7500344795739977
 31
0.0
  0
LINE
  5
EC97
  8
0
 10
4507.9935871958314237
 20
153.7534935963739997
 30
0.0
 11
4507.9935871958314237
 21
153.7396571291739917
 31
0.0
  0
LINE
  5
EC98
  8
0
 10
4507.9876816840305764
 20
153.7372649488740137
 30
0.0
 11
4507.9876816840305764
 21
153.7303467152740097
 31
0.0
  0
LINE
  5
EC99
  8
0
 10
4507.9876816840305764
 20
153.7303467152740097
 30
0.0
 11
4507.9620911328311195
 21
153.7268875984740077
 31
0.0
  0
LINE
  5
EC9A
  8
0
 10
4507.9620911328311195
 20
153.7268875984740077
 30
0.0
 11
4507.9365005816316625
 21
153.7303467152740097
 31
0.0
  0
LINE
  5
EC9B
  8
0
 10
4507.9365005816316625
 20
153.7303467152740097
 30
0.0
 11
4507.9365005816316625
 21
153.7372649488740137
 31
0.0
  0
LINE
  5
EC9C
  8
0
 10
4507.9365005816316625
 20
153.7372649488740137
 30
0.0
 11
4507.9620911328311195
 21
153.7407240656739873
 31
0.0
  0
LINE
  5
EC9D
  8
0
 10
4507.9620911328311195
 20
153.7407240656739873
 30
0.0
 11
4507.9876816840305764
 21
153.7372649488740137
 31
0.0
  0
LINE
  5
EC9E
  8
0
 10
4507.9620911328311195
 20
153.7407240656739873
 30
0.0
 11
4507.9620911328311195
 21
153.7268875984740077
 31
0.0
  0
LINE
  5
EC9F
  8
0
 10
4507.9561856210311817
 20
153.7500344795739977
 30
0.0
 11
4507.9561856210311817
 21
153.7431162459739937
 31
0.0
  0
LINE
  5
ECA0
  8
0
 10
4507.9561856210311817
 20
153.7431162459739937
 30
0.0
 11
4507.9305950698317247
 21
153.7396571291739917
 31
0.0
  0
LINE
  5
ECA1
  8
0
 10
4507.9305950698317247
 20
153.7396571291739917
 30
0.0
 11
4507.9050045186313582
 21
153.7431162459739937
 31
0.0
  0
LINE
  5
ECA2
  8
0
 10
4507.9050045186313582
 20
153.7431162459739937
 30
0.0
 11
4507.9050045186313582
 21
153.7500344795739977
 31
0.0
  0
LINE
  5
ECA3
  8
0
 10
4507.9050045186313582
 20
153.7500344795739977
 30
0.0
 11
4507.9305950698317247
 21
153.7534935963739997
 31
0.0
  0
LINE
  5
ECA4
  8
0
 10
4507.9305950698317247
 20
153.7534935963739997
 30
0.0
 11
4507.9561856210311817
 21
153.7500344795739977
 31
0.0
  0
LINE
  5
ECA5
  8
0
 10
4507.9305950698317247
 20
153.7534935963739997
 30
0.0
 11
4507.9305950698317247
 21
153.7396571291739917
 31
0.0
  0
LINE
  5
ECA6
  8
0
 10
4507.9246895580317869
 20
153.7628066031238916
 30
0.0
 11
4507.9246895580317869
 21
153.7558883695240013
 31
0.0
  0
LINE
  5
ECA7
  8
0
 10
4507.9246895580317869
 20
153.7558883695240013
 30
0.0
 11
4507.8990990068314204
 21
153.7524292527239993
 31
0.0
  0
LINE
  5
ECA8
  8
0
 10
4507.8990990068314204
 20
153.7524292527239993
 30
0.0
 11
4507.8735084556319634
 21
153.7558883695240013
 31
0.0
  0
LINE
  5
ECA9
  8
0
 10
4507.8735084556319634
 20
153.7558883695240013
 30
0.0
 11
4507.8735084556319634
 21
153.7628066031238916
 31
0.0
  0
LINE
  5
ECAA
  8
0
 10
4507.8735084556319634
 20
153.7628066031238916
 30
0.0
 11
4507.8990990068314204
 21
153.7662657199240073
 31
0.0
  0
LINE
  5
ECAB
  8
0
 10
4507.8990990068314204
 20
153.7662657199240073
 30
0.0
 11
4507.9246895580317869
 21
153.7628066031238916
 31
0.0
  0
LINE
  5
ECAC
  8
0
 10
4507.8990990068314204
 20
153.7662657199240073
 30
0.0
 11
4507.8990990068314204
 21
153.7524292527239993
 31
0.0
  0
LINE
  5
ECAD
  8
0
 10
4507.8931934950305731
 20
153.7500344795739977
 30
0.0
 11
4507.8931934950305731
 21
153.7431162459739937
 31
0.0
  0
LINE
  5
ECAE
  8
0
 10
4507.8931934950305731
 20
153.7431162459739937
 30
0.0
 11
4507.8676029438311161
 21
153.7396571291739917
 31
0.0
  0
LINE
  5
ECAF
  8
0
 10
4507.8676029438311161
 20
153.7396571291739917
 30
0.0
 11
4507.8420123926307497
 21
153.7431162459739937
 31
0.0
  0
LINE
  5
ECB0
  8
0
 10
4507.8420123926307497
 20
153.7431162459739937
 30
0.0
 11
4507.8420123926307497
 21
153.7500344795739977
 31
0.0
  0
LINE
  5
ECB1
  8
0
 10
4507.8420123926307497
 20
153.7500344795739977
 30
0.0
 11
4507.8676029438311161
 21
153.7534935963739997
 31
0.0
  0
LINE
  5
ECB2
  8
0
 10
4507.8676029438311161
 20
153.7534935963739997
 30
0.0
 11
4507.8931934950305731
 21
153.7500344795739977
 31
0.0
  0
LINE
  5
ECB3
  8
0
 10
4507.8676029438311161
 20
153.7534935963739997
 30
0.0
 11
4507.8676029438311161
 21
153.7396571291739917
 31
0.0
  0
LINE
  5
ECB4
  8
0
 10
4507.9246895580317869
 20
153.7372649488740137
 30
0.0
 11
4507.9246895580317869
 21
153.7303467152740097
 31
0.0
  0
LINE
  5
ECB5
  8
0
 10
4507.9246895580317869
 20
153.7303467152740097
 30
0.0
 11
4507.8990990068314204
 21
153.7268875984740077
 31
0.0
  0
LINE
  5
ECB6
  8
0
 10
4507.8990990068314204
 20
153.7268875984740077
 30
0.0
 11
4507.8735084556319634
 21
153.7303467152740097
 31
0.0
  0
LINE
  5
ECB7
  8
0
 10
4507.8735084556319634
 20
153.7303467152740097
 30
0.0
 11
4507.8735084556319634
 21
153.7372649488740137
 31
0.0
  0
LINE
  5
ECB8
  8
0
 10
4507.8735084556319634
 20
153.7372649488740137
 30
0.0
 11
4507.8990990068314204
 21
153.7407240656739873
 31
0.0
  0
LINE
  5
ECB9
  8
0
 10
4507.8990990068314204
 20
153.7407240656739873
 30
0.0
 11
4507.9246895580317869
 21
153.7372649488740137
 31
0.0
  0
LINE
  5
ECBA
  8
0
 10
4507.8990990068314204
 20
153.7407240656739873
 30
0.0
 11
4507.8990990068314204
 21
153.7268875984740077
 31
0.0
  0
LINE
  5
ECBB
  8
0
 10
4507.8616974320311783
 20
153.7372649488740137
 30
0.0
 11
4507.8616974320311783
 21
153.7303467152740097
 31
0.0
  0
LINE
  5
ECBC
  8
0
 10
4507.8616974320311783
 20
153.7303467152740097
 30
0.0
 11
4507.8361068808317214
 21
153.7268875984740077
 31
0.0
  0
LINE
  5
ECBD
  8
0
 10
4507.8361068808317214
 20
153.7268875984740077
 30
0.0
 11
4507.8105163296313549
 21
153.7303467152740097
 31
0.0
  0
LINE
  5
ECBE
  8
0
 10
4507.8105163296313549
 20
153.7303467152740097
 30
0.0
 11
4507.8105163296313549
 21
153.7372649488740137
 31
0.0
  0
LINE
  5
ECBF
  8
0
 10
4507.8105163296313549
 20
153.7372649488740137
 30
0.0
 11
4507.8361068808317214
 21
153.7407240656739873
 31
0.0
  0
LINE
  5
ECC0
  8
0
 10
4507.8361068808317214
 20
153.7407240656739873
 30
0.0
 11
4507.8616974320311783
 21
153.7372649488740137
 31
0.0
  0
LINE
  5
ECC1
  8
0
 10
4507.8361068808317214
 20
153.7407240656739873
 30
0.0
 11
4507.8361068808317214
 21
153.7268875984740077
 31
0.0
  0
LINE
  5
ECC2
  8
0
 10
4507.8616974320311783
 20
153.7628066031238916
 30
0.0
 11
4507.8616974320311783
 21
153.7558883695240013
 31
0.0
  0
LINE
  5
ECC3
  8
0
 10
4507.8616974320311783
 20
153.7558883695240013
 30
0.0
 11
4507.8361068808317214
 21
153.7524292527239993
 31
0.0
  0
LINE
  5
ECC4
  8
0
 10
4507.8361068808317214
 20
153.7524292527239993
 30
0.0
 11
4507.8105163296313549
 21
153.7558883695240013
 31
0.0
  0
LINE
  5
ECC5
  8
0
 10
4507.8105163296313549
 20
153.7558883695240013
 30
0.0
 11
4507.8105163296313549
 21
153.7628066031238916
 31
0.0
  0
LINE
  5
ECC6
  8
0
 10
4507.8105163296313549
 20
153.7628066031238916
 30
0.0
 11
4507.8361068808317214
 21
153.7662657199240073
 31
0.0
  0
LINE
  5
ECC7
  8
0
 10
4507.8361068808317214
 20
153.7662657199240073
 30
0.0
 11
4507.8616974320311783
 21
153.7628066031238916
 31
0.0
  0
LINE
  5
ECC8
  8
0
 10
4507.8361068808317214
 20
153.7662657199240073
 30
0.0
 11
4507.8361068808317214
 21
153.7524292527239993
 31
0.0
  0
LINE
  5
ECC9
  8
0
 10
4507.8931934950305731
 20
153.7755761338239893
 30
0.0
 11
4507.8931934950305731
 21
153.7686579002239
 31
0.0
  0
LINE
  5
ECCA
  8
0
 10
4507.8931934950305731
 20
153.7686579002239
 30
0.0
 11
4507.8676029438311161
 21
153.7651987834240117
 31
0.0
  0
LINE
  5
ECCB
  8
0
 10
4507.8676029438311161
 20
153.7651987834240117
 30
0.0
 11
4507.8420123926307497
 21
153.7686579002239
 31
0.0
  0
LINE
  5
ECCC
  8
0
 10
4507.8420123926307497
 20
153.7686579002239
 30
0.0
 11
4507.8420123926307497
 21
153.7755761338239893
 31
0.0
  0
LINE
  5
ECCD
  8
0
 10
4507.8420123926307497
 20
153.7755761338239893
 30
0.0
 11
4507.8579935894285882
 21
153.7777363384203966
 31
0.0
  0
LINE
  5
ECCE
  8
0
 10
4507.8875858572018842
 20
153.7763341274313973
 30
0.0
 11
4507.8931934950305731
 21
153.7755761338239893
 31
0.0
  0
LINE
  5
ECCF
  8
0
 10
4507.8676029438311161
 20
153.7773503075054009
 30
0.0
 11
4507.8676029438311161
 21
153.7651987834240117
 31
0.0
  0
LINE
  5
ECD0
  8
0
 10
4507.9561856210311817
 20
153.7704817554239867
 30
0.0
 11
4507.9561856210311817
 21
153.7686579002239
 31
0.0
  0
LINE
  5
ECD1
  8
0
 10
4507.9561856210311817
 20
153.7686579002239
 30
0.0
 11
4507.9305950698317247
 21
153.7651987834240117
 31
0.0
  0
LINE
  5
ECD2
  8
0
 10
4507.9305950698317247
 20
153.7651987834240117
 30
0.0
 11
4507.9050045186313582
 21
153.7686579002239
 31
0.0
  0
LINE
  5
ECD3
  8
0
 10
4507.9050045186313582
 20
153.7686579002239
 30
0.0
 11
4507.9050045186313582
 21
153.7752128039240063
 31
0.0
  0
LINE
  5
ECD4
  8
0
 10
4507.9305950698317247
 20
153.773106075624014
 30
0.0
 11
4507.9305950698317247
 21
153.7651987834240117
 31
0.0
  0
LINE
  5
ECD5
  8
0
 10
4508.0469621478805493
 20
153.7553866580603028
 30
0.0
 11
4508.0250832588308185
 21
153.7524292527239993
 31
0.0
  0
LINE
  5
ECD6
  8
0
 10
4508.0250832588308185
 20
153.7524292527239993
 30
0.0
 11
4507.9994927076313616
 21
153.7558883695240013
 31
0.0
  0
LINE
  5
ECD7
  8
0
 10
4507.9994927076313616
 20
153.7558883695240013
 30
0.0
 11
4507.9994927076313616
 21
153.7628066031238916
 31
0.0
  0
LINE
  5
ECD8
  8
0
 10
4508.0250832588308185
 20
153.759977068107986
 30
0.0
 11
4508.0250832588308185
 21
153.7524292527239993
 31
0.0
  0
LINE
  5
ECD9
  8
0
 10
4507.9994927076313616
 20
153.7628066031238916
 30
0.0
 11
4508.0052937847312933
 21
153.7635907442239898
 31
0.0
  0
LINE
  5
ECDA
  8
0
 10
4507.9945527046329516
 20
153.7653292928237931
 30
0.0
 11
4507.9935871958314237
 21
153.7651987834240117
 31
0.0
  0
LINE
  5
ECDB
  8
0
 10
4507.9935871958314237
 20
153.7651987834240117
 30
0.0
 11
4507.9679966446319668
 21
153.7686579002239
 31
0.0
  0
LINE
  5
ECDC
  8
0
 10
4507.9679966446319668
 20
153.7686579002239
 30
0.0
 11
4507.9679966446319668
 21
153.769063276124001
 31
0.0
  0
LINE
  5
ECDD
  8
0
 10
4507.9935871958314237
 20
153.7651987834240117
 30
0.0
 11
4507.9935871958314237
 21
153.7654753127239928
 31
0.0
  0
LINE
  5
ECDE
  8
0
 10
4507.9200441120310643
 20
153.6113392331687066
 30
0.0
 11
4507.9200441120310643
 21
153.6086895854240026
 31
0.0
  0
LINE
  5
ECDF
  8
0
 10
4507.9200441120310643
 20
153.6086895854240026
 30
0.0
 11
4507.9172424980115466
 21
153.611137532712803
 31
0.0
  0
ARC
  5
ECE0
  8
0
 10
4507.8054471533514516
 20
155.4522941497322108
 30
0.0
 40
1.8471627574410761
 50
269.9740583274651158
 51
273.5568827299770192
  0
LINE
  5
ECE1
  8
0
 10
4508.1199804423313253
 20
153.6357153072239896
 30
0.0
 11
4508.1023926796233354
 21
153.6398330282983125
 31
0.0
  0
ARC
  5
ECE2
  8
0
 10
5129.8406977995846319
 20
178.3020637810203084
 30
0.0
 40
622.0817543449252298
 50
182.276713873820114
 51
182.7238254958689936
  0
ARC
  5
ECE3
  8
0
 10
4508.4303245740966304
 20
148.73247078481279
 30
0.0
 40
0.0322464346270005
 50
276.7757075186032125
 51
12.78673601908541
  0
ARC
  5
ECE4
  8
0
 10
4515.0701163196117705
 20
153.0449479253898062
 30
0.0
 40
0.0810767499645919
 50
4.1892250392927064
 51
90.0
  0
ARC
  5
ECE5
  8
0
 10
4515.0642711126911308
 20
152.7511167342522072
 30
0.0
 40
0.0787401648953106
 50
277.0868703770104275
 51
354.394030108838308
  0
ARC
  5
ECE6
  8
0
 10
4512.976646243230789
 20
152.9560295890240127
 30
0.0
 40
2.1763976378001688
 50
354.3940344408975989
 51
2.4975734236991438
  0
ARC
  5
ECE7
  8
0
 10
4527.0491250350378323
 20
0.7558539659114559
 30
0.0
 40
152.8403270469839867
 50
94.4952224702459773
 51
95.0631864333160621
  0
ARC
  5
ECE8
  8
0
 10
4519.9808834726800342
 20
112.3713965712452989
 30
0.0
 40
40.5992010074534306
 50
96.9418497119844744
 51
98.9662378417319673
  0
ARC
  5
ECE9
  8
0
 10
4515.0201773830985985
 20
135.2421837955398018
 30
0.0
 40
17.8175181115578383
 50
94.6997683951481832
 51
98.6317027780622624
  0
ARC
  5
ECEA
  8
0
 10
4512.5671042590283832
 20
151.2192430650050028
 30
0.0
 40
1.653487283238561
 50
97.6817689613640425
 51
120.3355726152850025
  0
ARC
  5
ECEB
  8
0
 10
4515.0994966178177492
 20
143.1898418076171993
 30
0.0
 40
9.3965888043086352
 50
98.8527730223072894
 51
102.8735682460741003
  0
ARC
  5
ECEC
  8
0
 10
4522.571170488997268
 20
152.9803494546993932
 30
0.0
 40
10.2874999323787506
 50
188.4053889498017043
 51
193.409494719921895
  0
ARC
  5
ECED
  8
0
 10
4513.3408837417691757
 20
150.7466544835585864
 30
0.0
 40
1.6381924646958601
 50
101.798110302993706
 51
117.5646768256969068
  0
ARC
  5
ECEE
  8
0
 10
4513.9858903507129071
 20
151.7232427508203045
 30
0.0
 40
1.6107189489413001
 50
173.2807250928393898
 51
188.8094474587612979
  0
ARC
  5
ECEF
  8
0
 10
4512.7690744331566748
 20
151.8605290351345047
 30
0.0
 40
0.3862448343392313
 50
118.8319524896888026
 51
172.3861885557791993
  0
ARC
  5
ECF0
  8
0
 10
4512.2467639413098368
 20
151.976813423972601
 30
0.0
 40
0.8445459828496069
 50
127.5555066028435931
 51
160.7407504655701871
  0
ARC
  5
ECF1
  8
0
 10
4052.7476229370390683
 20
250.6496701746210931
 30
0.0
 40
469.0766437200260839
 50
347.6840513574869078
 51
347.7567511483252929
  0
ARC
  5
ECF2
  8
0
 10
4517.4888220268639998
 20
150.0314604853124081
 30
0.0
 40
6.4357941900761277
 50
159.7843241419251967
 51
169.7552043320733901
  0
ARC
  5
ECF3
  8
0
 10
4512.5524174977881557
 20
150.5919594780060038
 30
0.0
 40
0.0120069061966646
 50
270.0405812340471243
 51
12.6287023578086508
  0
ARC
  5
ECF4
  8
0
 10
4511.0407787009989988
 20
150.5919594286320091
 30
0.0
 40
0.0120068567356755
 50
167.6760219043520124
 51
269.9600090215503201
  0
ARC
  5
ECF5
  8
0
 10
4512.5514261899443227
 20
150.5485146683062965
 30
0.0
 40
0.0200055147893335
 50
12.7216665095092196
 51
89.9877946532147206
  0
ARC
  5
ECF6
  8
0
 10
4511.0419458701617259
 20
150.5485144519956862
 30
0.0
 40
0.0200055673917133
 50
90.0123332931901246
 51
167.6060356263735116
  0
LINE
  5
ECF7
  8
0
 10
4512.5524260019928988
 20
150.579952574820993
 30
0.0
 11
4511.040770320521915
 21
150.579952574820993
 31
0.0
  0
LINE
  5
ECF8
  8
0
 10
4511.0419415638307328
 20
150.5685200189240049
 30
0.0
 11
4512.5514304515891126
 21
150.5685201826416915
 31
0.0
  0
LINE
  5
ECF9
  8
0
 10
4512.5004961735312463
 20
150.579952574820993
 30
0.0
 11
4512.5004961735312463
 21
150.5685201771173922
 31
0.0
  0
LINE
  5
ECFA
  8
0
 10
4511.0927833846317299
 20
150.579952574820993
 30
0.0
 11
4511.0927833858722806
 21
150.5685200244381861
 31
0.0
  0
ARC
  5
ECFB
  8
0
 10
4515.1611343180584299
 20
152.8023071078958992
 30
0.0
 40
0.3171909846924965
 50
132.9244000411810873
 51
143.3555221659165966
  0
ARC
  5
ECFC
  8
0
 10
4515.0840817668013187
 20
153.0760901035066865
 30
0.0
 40
0.05185070087088
 50
105.6249731721657952
 51
129.5610224813028992
  0
ARC
  5
ECFD
  8
0
 10
4515.6593869707348858
 20
152.2156267851840994
 30
0.0
 40
1.0866699777623701
 50
124.0426703288973016
 51
131.0944141613823035
  0
ARC
  5
ECFE
  8
0
 10
4431.8144973867802037
 20
131.6229662606532997
 30
0.0
 40
82.9454415588041343
 50
11.8878736842190307
 51
13.1924013806502405
  0
ARC
  5
ECFF
  8
0
 10
4512.96138651568981
 20
148.7054495140480981
 30
0.0
 40
0.0200002345290191
 50
270.001265766590393
 51
11.6418926097348994
  0
LINE
  5
ED00
  8
0
 10
4512.9613869575314311
 20
148.6854492795239935
 30
0.0
 11
4510.6528305919437116
 21
148.6854492795239935
 31
0.0
  0
ARC
  5
ED01
  8
0
 10
4631.2072081781452653
 20
128.4837003987751132
 30
0.0
 40
121.9347996514334938
 50
169.2103261739175082
 51
169.5525393077379022
  0
ARC
  5
ED02
  8
0
 10
4522.0607795833420823
 20
149.4195287034089858
 30
0.0
 40
10.7995128380366392
 50
165.5896250773392921
 51
169.9160982812360885
  0
ARC
  5
ED03
  8
0
 10
4512.209473245134177
 20
152.0009437445590095
 30
0.0
 40
0.617633824081919
 50
113.354030792959307
 51
170.0981714198069028
  0
ARC
  5
ED04
  8
0
 10
4512.7257606362381921
 20
150.3633596551779874
 30
0.0
 40
2.3323050091220709
 50
94.6698347945013268
 51
109.0467804754028975
  0
ARC
  5
ED05
  8
0
 10
4518.2239991145588647
 20
37.6865548994275628
 30
0.0
 40
115.1684689685568941
 50
91.6496877567531385
 51
92.4160725507707923
  0
ARC
  5
ED06
  8
0
 10
4513.9345035733085751
 20
140.079123692983103
 30
0.0
 40
12.6861323428703994
 50
92.5550474982004232
 51
96.3296300434565183
  0
ARC
  5
ED07
  8
0
 10
4515.2235451201004253
 20
152.9026035997684119
 30
0.0
 40
0.3291754019223307
 50
164.3102560488478048
 51
196.8312779118689946
  0
ARC
  5
ED08
  8
0
 10
4515.1311589022188855
 20
152.9531429722711096
 30
0.0
 40
0.2662013773466117
 50
213.2235295544766132
 51
232.4600531970419013
  0
ARC
  5
ED09
  8
0
 10
4515.4799451559811132
 20
153.4045072513264927
 30
0.0
 40
0.8366229834688834
 50
232.3545952592199058
 51
240.9720676288862933
  0
ARC
  5
ED0A
  8
0
 10
4511.233007158845794
 20
150.5913887657337114
 30
0.0
 40
0.0609699103833792
 50
349.1894574888494276
 51
3.022335843597685
  0
ARC
  5
ED0B
  8
0
 10
4555.0509948273229384
 20
140.2974247607463099
 30
0.0
 40
45.2071839257469392
 50
166.8881370991562108
 51
169.2791437442755011
  0
ARC
  5
ED0C
  8
0
 10
4510.6528310156763837
 20
148.705449489278891
 30
0.0
 40
0.0200002097593799
 50
175.384737125268714
 51
269.9987861101117232
  0
ARC
  5
ED0D
  8
0
 10
4543.8935146425537823
 20
144.1508160104206979
 30
0.0
 40
33.2277955253004009
 50
168.8911371674703048
 51
172.1143720574247027
  0
LINE
  5
ED0E
  8
0
 10
4510.9799241878308749
 20
148.7095393898239877
 30
0.0
 11
4510.9800445691753339
 21
148.6854492795239935
 31
0.0
  0
LINE
  5
ED0F
  8
0
 10
4511.2883125793314321
 20
150.5529401803239864
 30
0.0
 11
4511.2883125793314321
 21
150.5685200189240049
 31
0.0
  0
LINE
  5
ED10
  8
0
 10
4507.7790202667301855
 20
153.7755761338239893
 30
0.0
 11
4507.7790202667301855
 21
153.7686579002239
 31
0.0
  0
LINE
  5
ED11
  8
0
 10
4507.7790202667301855
 20
153.7686579002239
 30
0.0
 11
4507.804610817930552
 21
153.7651987834240117
 31
0.0
  0
LINE
  5
ED12
  8
0
 10
4507.804610817930552
 20
153.7651987834240117
 30
0.0
 11
4507.830201369131828
 21
153.7686579002239
 31
0.0
  0
LINE
  5
ED13
  8
0
 10
4507.830201369131828
 20
153.7686579002239
 30
0.0
 11
4507.830201369131828
 21
153.7755761338239893
 31
0.0
  0
LINE
  5
ED14
  8
0
 10
4507.830201369131828
 20
153.7755761338239893
 30
0.0
 11
4507.8069474945086768
 21
153.7787193982163956
 31
0.0
  0
LINE
  5
ED15
  8
0
 10
4507.8022737253040759
 20
153.7787193419783875
 30
0.0
 11
4507.7790202667301855
 21
153.7755761338239893
 31
0.0
  0
LINE
  5
ED16
  8
0
 10
4507.804610817930552
 20
153.778721199921506
 30
0.0
 11
4507.804610817930552
 21
153.7650417580738917
 31
0.0
  0
LINE
  5
ED17
  8
0
 10
4507.7790202667301855
 20
153.7500344795739977
 30
0.0
 11
4507.7790202667301855
 21
153.7431162459739937
 31
0.0
  0
LINE
  5
ED18
  8
0
 10
4507.7790202667301855
 20
153.7431162459739937
 30
0.0
 11
4507.804610817930552
 21
153.7396571291739917
 31
0.0
  0
LINE
  5
ED19
  8
0
 10
4507.804610817930552
 20
153.7396571291739917
 30
0.0
 11
4507.830201369131828
 21
153.7431162459739937
 31
0.0
  0
LINE
  5
ED1A
  8
0
 10
4507.830201369131828
 20
153.7431162459739937
 30
0.0
 11
4507.830201369131828
 21
153.7500344795739977
 31
0.0
  0
LINE
  5
ED1B
  8
0
 10
4507.830201369131828
 20
153.7500344795739977
 30
0.0
 11
4507.804610817930552
 21
153.7534935963739997
 31
0.0
  0
LINE
  5
ED1C
  8
0
 10
4507.804610817930552
 20
153.7534935963739997
 30
0.0
 11
4507.7790202667301855
 21
153.7500344795739977
 31
0.0
  0
LINE
  5
ED1D
  8
0
 10
4507.804610817930552
 20
153.7534935963739997
 30
0.0
 11
4507.804610817930552
 21
153.7396571291739917
 31
0.0
  0
LINE
  5
ED1E
  8
0
 10
4507.7790202667301855
 20
153.6989511711238947
 30
0.0
 11
4507.7790202667301855
 21
153.6920329375240044
 31
0.0
  0
LINE
  5
ED1F
  8
0
 10
4507.7790202667301855
 20
153.6920329375240044
 30
0.0
 11
4507.804610817930552
 21
153.6885738207240024
 31
0.0
  0
LINE
  5
ED20
  8
0
 10
4507.804610817930552
 20
153.6885738207240024
 30
0.0
 11
4507.830201369131828
 21
153.6920329375240044
 31
0.0
  0
LINE
  5
ED21
  8
0
 10
4507.830201369131828
 20
153.6920329375240044
 30
0.0
 11
4507.830201369131828
 21
153.6989511711238947
 31
0.0
  0
LINE
  5
ED22
  8
0
 10
4507.830201369131828
 20
153.6989511711238947
 30
0.0
 11
4507.804610817930552
 21
153.7024102879240104
 31
0.0
  0
LINE
  5
ED23
  8
0
 10
4507.804610817930552
 20
153.7024102879240104
 30
0.0
 11
4507.7790202667301855
 21
153.6989511711238947
 31
0.0
  0
LINE
  5
ED24
  8
0
 10
4507.804610817930552
 20
153.7024102879240104
 30
0.0
 11
4507.804610817930552
 21
153.6885738207240024
 31
0.0
  0
LINE
  5
ED25
  8
0
 10
4506.9923195995315837
 20
148.7004491527239907
 30
0.0
 11
4506.9923195995315837
 21
148.6854492795239935
 31
0.0
  0
LINE
  5
ED26
  8
0
 10
4506.9923195995315837
 20
148.6854492795239935
 30
0.0
 11
4508.6209020364312892
 21
148.6854492795239935
 31
0.0
  0
LINE
  5
ED27
  8
0
 10
4508.6209020364312892
 20
148.6854492795239935
 30
0.0
 11
4508.6209020364312892
 21
148.7004491527239907
 31
0.0
  0
LINE
  5
ED28
  8
0
 10
4507.0351643084313764
 20
148.7004491527239907
 30
0.0
 11
4507.0351643084313764
 21
148.6854492795239935
 31
0.0
  0
LINE
  5
ED29
  8
0
 10
4507.119110817931869
 20
148.7004491527239907
 30
0.0
 11
4507.119110817931869
 21
148.6854492795239935
 31
0.0
  0
LINE
  5
ED2A
  8
0
 10
4507.2082356879318468
 20
148.7004491527239907
 30
0.0
 11
4507.2082356879318468
 21
148.6854492795239935
 31
0.0
  0
LINE
  5
ED2B
  8
0
 10
4507.2584097461312922
 20
148.7004491527239907
 30
0.0
 11
4507.2584097461312922
 21
148.6854492795239935
 31
0.0
  0
LINE
  5
ED2C
  8
0
 10
4507.2989859242316015
 20
148.7004491527239907
 30
0.0
 11
4507.2989859242316015
 21
148.6854492795239935
 31
0.0
  0
LINE
  5
ED2D
  8
0
 10
4508.3142441636309741
 20
148.7004491527239907
 30
0.0
 11
4508.3142441636309741
 21
148.6854492795239935
 31
0.0
  0
LINE
  5
ED2E
  8
0
 10
4508.3548096205313414
 20
148.7004491527239907
 30
0.0
 11
4508.3548096205313414
 21
148.6854492795239935
 31
0.0
  0
LINE
  5
ED2F
  8
0
 10
4508.4049859480319355
 20
148.7004491527239907
 30
0.0
 11
4508.4049859480319355
 21
148.6854492795239935
 31
0.0
  0
LINE
  5
ED30
  8
0
 10
4508.494110817931869
 20
148.7004491527239907
 30
0.0
 11
4508.494110817931869
 21
148.6854492795239935
 31
0.0
  0
LINE
  5
ED31
  8
0
 10
4508.5780573275324059
 20
148.7004491527239907
 30
0.0
 11
4508.5780573275324059
 21
148.6854492795239935
 31
0.0
  0
ENDSEC
  0
EOF
