  0
SECTION
  2
HEADER
  9
$ACADVER
  1
AC1009
  9
$INSBASE
 10
1267.0856906111589524
 20
137.3222367209428967
 30
0.0
  9
$EXTMIN
 10
1238.7207544015880103
 20
134.3972758442027953
 30
-0.0000000000000053
  9
$EXTMAX
 10
1295.4548472788640083
 20
140.7436585809080896
 30
0.0000000000000099
  9
$LIMMIN
 10
0.0
 20
0.0
  9
$LIMMAX
 10
11.6929133858000007
 20
8.2677165353999982
  9
$ORTHOMODE
 70
     0
  9
$REGENMODE
 70
     1
  9
$FILLMODE
 70
     1
  9
$QTEXTMODE
 70
     0
  9
$MIRRTEXT
 70
     0
  9
$DRAGMODE
 70
     2
  9
$LTSCALE
 40
0.6431102362
  9
$OSMODE
 70
  4095
  9
$ATTMODE
 70
     1
  9
$TEXTSIZE
 40
0.2
  9
$TRACEWID
 40
0.05
  9
$TEXTSTYLE
  7
STANDARD
  9
$CLAYER
  8
0
  9
$CELTYPE
  6
BYLAYER
  9
$CECOLOR
 62
   256
  9
$DIMSCALE
 40
1.0
  9
$DIMASZ
 40
0.1875
  9
$DIMEXO
 40
0.0625
  9
$DIMDLI
 40
0.4443307087
  9
$DIMRND
 40
0.0
  9
$DIMDLE
 40
0.0
  9
$DIMEXE
 40
0.125
  9
$DIMTP
 40
0.01
  9
$DIMTM
 40
0.01
  9
$DIMTXT
 40
2.0
  9
$DIMCEN
 40
0.1052362205
  9
$DIMTSZ
 40
0.0
  9
$DIMTOL
 70
     1
  9
$DIMLIM
 70
     0
  9
$DIMTIH
 70
     1
  9
$DIMTOH
 70
     1
  9
$DIMSE1
 70
     0
  9
$DIMSE2
 70
     0
  9
$DIMTAD
 70
     0
  9
$DIMZIN
 70
     0
  9
$DIMBLK
  1

  9
$DIMASO
 70
     1
  9
$DIMSHO
 70
     1
  9
$DIMPOST
  1
\X
  9
$DIMAPOST
  1

  9
$DIMALT
 70
     1
  9
$DIMALTD
 70
     2
  9
$DIMALTF
 40
25.3999999999999986
  9
$DIMLFAC
 40
1.0
  9
$DIMTOFL
 70
     0
  9
$DIMTVP
 40
0.0
  9
$DIMTIX
 70
     0
  9
$DIMSOXD
 70
     0
  9
$DIMSAH
 70
     0
  9
$DIMBLK1
  1

  9
$DIMBLK2
  1

  9
$DIMSTYLE
  2
STANDARD
  9
$DIMCLRD
 70
     0
  9
$DIMCLRE
 70
     0
  9
$DIMCLRT
 70
     0
  9
$DIMTFAC
 40
1.0
  9
$DIMGAP
 40
0.09
  9
$LUNITS
 70
     2
  9
$LUPREC
 70
     4
  9
$SKETCHINC
 40
0.1
  9
$FILLETRAD
 40
0.0
  9
$AUNITS
 70
     0
  9
$AUPREC
 70
     0
  9
$MENU
  1
.
  9
$ELEVATION
 40
0.0
  9
$PELEVATION
 40
0.0
  9
$THICKNESS
 40
0.0
  9
$LIMCHECK
 70
     0
  9
$BLIPMODE
 70
     0
  9
$CHAMFERA
 40
0.0
  9
$CHAMFERB
 40
0.0
  9
$SKPOLY
 70
     0
  9
$TDCREATE
 40
2458072.6192476861178875
  9
$TDUPDATE
 40
2459712.4947800929658115
  9
$TDINDWG
 40
0.0419761574
  9
$TDUSRTIMER
 40
0.0419761574
  9
$USRTIMER
 70
     1
  9
$ANGBASE
 50
0.0
  9
$ANGDIR
 70
     0
  9
$PDMODE
 70
     0
  9
$PDSIZE
 40
0.3125
  9
$PLINEWID
 40
0.0
  9
$COORDS
 70
     1
  9
$SPLFRAME
 70
     0
  9
$SPLINETYPE
 70
     6
  9
$SPLINESEGS
 70
     8
  9
$ATTDIA
 70
     1
  9
$ATTREQ
 70
     1
  9
$HANDLING
 70
     1
  9
$HANDSEED
  5
18FA
  9
$SURFTAB1
 70
     6
  9
$SURFTAB2
 70
     6
  9
$SURFTYPE
 70
     6
  9
$SURFU
 70
     6
  9
$SURFV
 70
     6
  9
$UCSNAME
  2

  9
$UCSORG
 10
0.0
 20
0.0
 30
0.0
  9
$UCSXDIR
 10
1.0
 20
0.0
 30
0.0
  9
$UCSYDIR
 10
0.0
 20
1.0
 30
0.0
  9
$PUCSNAME
  2

  9
$PUCSORG
 10
0.0
 20
0.0
 30
0.0
  9
$PUCSXDIR
 10
1.0
 20
0.0
 30
0.0
  9
$PUCSYDIR
 10
0.0
 20
1.0
 30
0.0
  9
$USERI1
 70
     0
  9
$USERI2
 70
     0
  9
$USERI3
 70
     0
  9
$USERI4
 70
     0
  9
$USERI5
 70
     0
  9
$USERR1
 40
0.0
  9
$USERR2
 40
0.0
  9
$USERR3
 40
0.0
  9
$USERR4
 40
0.0
  9
$USERR5
 40
0.0
  9
$WORLDVIEW
 70
     1
  9
$SHADEDGE
 70
     3
  9
$SHADEDIF
 70
    70
  9
$TILEMODE
 70
     1
  9
$MAXACTVP
 70
    64
  9
$PLIMCHECK
 70
     0
  9
$PEXTMIN
 10
1.0000000000000000E+20
 20
1.0000000000000000E+20
 30
1.0000000000000000E+20
  9
$PEXTMAX
 10
-1.0000000000000000E+20
 20
-1.0000000000000000E+20
 30
-1.0000000000000000E+20
  9
$PLIMMIN
 10
0.0
 20
0.0
  9
$PLIMMAX
 10
12.0
 20
9.0
  9
$UNITMODE
 70
     0
  9
$VISRETAIN
 70
     1
  9
$PLINEGEN
 70
     0
  9
$PSLTSCALE
 70
     1
  0
ENDSEC
  0
SECTION
  2
TABLES
  0
TABLE
  2
VPORT
 70
     1
  0
VPORT
  2
*ACTIVE
 70
     0
 10
0.0
 20
0.0
 11
1.0
 21
1.0
 12
234.9150408304606117
 22
3.6312059561827819
 13
0.0
 23
0.0
 14
1.0
 24
1.0
 15
0.0
 25
0.0
 16
0.0
 26
0.0
 36
326.5532607118676083
 17
1032.1727600097649429
 27
133.9392612563727027
 37
0.0
 40
28.3815052083620287
 41
2.005224660397074
 42
50.0
 43
0.0
 44
0.0
 50
0.0
 51
0.0
 71
     0
 72
   100
 73
     1
 74
     1
 75
     0
 76
     0
 77
     0
 78
     0
  0
ENDTAB
  0
TABLE
  2
LTYPE
 70
     2
  0
LTYPE
  2
CONTINUOUS
 70
     0
  3
Solid line
 72
    65
 73
     0
 40
0.0
  0
LTYPE
  2
PHANTOM2
 70
     0
  3
___ _ _ ___ _ _ ___ _ _ ___ _ _
 72
    65
 73
     6
 40
1.25
 49
0.625
 49
-0.125
 49
0.125
 49
-0.125
 49
0.125
 49
-0.125
  0
ENDTAB
  0
TABLE
  2
LAYER
 70
     2
  0
LAYER
  2
0
 70
     0
 62
   255
  6
CONTINUOUS
  0
LAYER
  2
DEFPOINTS
 70
     0
 62
     7
  6
CONTINUOUS
  0
ENDTAB
  0
TABLE
  2
STYLE
 70
     1
  0
STYLE
  2
STANDARD
 70
     0
 40
0.0
 41
0.8
 50
0.0
 71
     0
 42
0.2
  3
txt
  4

  0
ENDTAB
  0
TABLE
  2
VIEW
 70
     0
  0
ENDTAB
  0
TABLE
  2
UCS
 70
     0
  0
ENDTAB
  0
TABLE
  2
APPID
 70
     9
  0
APPID
  2
ACAD
 70
     0
  0
APPID
  2
ACAD_MLEADERVER
 70
     0
  0
APPID
  2
ACAD_EXEMPT_FROM_CAD_STANDARDS
 70
     0
  0
APPID
  2
ACAD_NAV_VCDISPLAY
 70
     0
  0
APPID
  2
ACAD_DSTYLE_DIMJAG
 70
     0
  0
APPID
  2
ACAD_DSTYLE_DIMTALN
 70
     0
  0
APPID
  2
ACAECLAYERSTANDARD
 70
     0
  0
APPID
  2
ACCMTRANSPARENCY
 70
     0
  0
APPID
  2
ACDBATTR
 70
     0
  0
ENDTAB
  0
TABLE
  2
DIMSTYLE
 70
     1
  0
DIMSTYLE
  2
STANDARD
 70
     0
  3

  4

  5

  6

  7

 40
1.0
 41
0.1875
 42
0.0625
 43
0.38
 44
0.125
 45
0.0
 46
0.0
 47
0.01
 48
0.01
140
0.15625
141
0.09
142
0.0
143
25.3999999999999986
144
1.0
145
0.0
146
1.0
147
0.09
 71
     1
 72
     0
 73
     1
 74
     1
 75
     0
 76
     0
 77
     0
 78
     4
170
     0
171
     2
172
     0
173
     0
174
     0
175
     0
176
     0
177
     0
178
     0
  0
ENDTAB
  0
ENDSEC
  0
SECTION
  2
BLOCKS
  0
BLOCK
  8
0
  2
$MODEL_SPACE
 70
     0
 10
0.0
 20
0.0
 30
0.0
  3
$MODEL_SPACE
  1

  0
ENDBLK
  5
21
  8
0
  0
BLOCK
 67
     1
  8
0
  2
$PAPER_SPACE
 70
     0
 10
0.0
 20
0.0
 30
0.0
  3
$PAPER_SPACE
  1

  0
ENDBLK
  5
1D
 67
     1
  8
0
  0
ENDSEC
  0
SECTION
  2
ENTITIES
  0
ATTDEF
  5
FEC
  8
DEFPOINTS
 10
1267.085635621953088
 20
137.3209826006473122
 30
0.0
 40
0.001
  1
SP5475-57*
  3

  2
MODELNUMBER
 70
     0
1001
ACDBATTR
1070
     0
1070
     1
  0
ATTDEF
  5
FED
  8
DEFPOINTS
 10
1267.085635621953088
 20
137.3193159339805902
 30
0.0
 40
0.001
  1
FINESSE
  3

  2
TRADENAME
 70
     0
1001
ACDBATTR
1070
     0
1070
     1
  0
ATTDEF
  5
FEE
  8
DEFPOINTS
 10
1267.085635621953088
 20
137.3176492673140103
 30
0.0
 40
0.001
  1
SHOWER DOOR
  3

  2
PRODUCT
 70
     0
1001
ACDBATTR
1070
     0
1070
     1
  0
LINE
  5
1684
  8
0
 10
1238.7306906111589342
 20
135.9845290240428994
 30
0.0
 11
1238.7306906111589342
 21
138.6599444178428939
 31
0.0
  0
LINE
  5
1685
  8
0
 10
1242.075190611159087
 20
135.9845290240428994
 30
0.0
 11
1242.075190611159087
 21
135.8978621538427944
 31
0.0
  0
LINE
  5
1686
  8
0
 10
1242.8051906111591052
 20
135.9845290240428994
 30
0.0
 11
1242.8051906111591052
 21
135.8978621538427944
 31
0.0
  0
LINE
  5
1687
  8
0
 10
1266.0551906111591052
 20
135.8978621538427944
 30
0.0
 11
1266.0551906111591052
 21
135.9845290240428994
 31
0.0
  0
LINE
  5
1688
  8
0
 10
1243.5551906111591052
 20
134.3978660578428901
 30
0.0
 11
1265.3251906111770495
 21
134.3978660578441122
 31
0.0
  0
LINE
  5
1689
  8
0
 10
1243.5551906111591052
 20
135.1478641058428991
 30
0.0
 11
1265.3051906111591052
 21
135.1478641058428991
 31
0.0
  0
LINE
  5
168A
  8
0
 10
1266.825190611159087
 20
135.8978621538427944
 30
0.0
 11
1266.825190611159087
 21
135.9845290240428994
 31
0.0
  0
LINE
  5
168B
  8
0
 10
1238.7306906111589342
 20
135.9845290240428994
 30
0.0
 11
1295.4406906111589706
 21
135.9845290240428994
 31
0.0
  0
LINE
  5
168C
  8
0
 10
1295.4406906111589706
 20
136.6695205080428934
 30
0.0
 11
1238.7306906111589342
 21
136.6695205080428934
 31
0.0
  0
LINE
  5
168D
  8
0
 10
1267.366190611159027
 20
139.2416620150428912
 30
0.0
 11
1267.366190611159027
 21
138.6599444178428939
 31
0.0
  0
LINE
  5
168E
  8
0
 10
1295.4406906111589706
 20
138.4126189170428916
 30
0.0
 11
1238.7306906111589342
 21
138.4126189170428916
 31
0.0
  0
LINE
  5
168F
  8
0
 10
1238.7306906111589342
 20
138.6599444178428939
 30
0.0
 11
1295.4406906111589706
 21
138.6599444178428939
 31
0.0
  0
LINE
  5
1690
  8
0
 10
1268.116190611159027
 20
139.2416620150428912
 30
0.0
 11
1268.116190611159027
 21
138.6599444178428939
 31
0.0
  0
LINE
  5
1691
  8
0
 10
1290.616190611159027
 20
139.9916620150428912
 30
0.0
 11
1268.866190611159027
 21
139.9916620150428912
 31
0.0
  0
LINE
  5
1692
  8
0
 10
1290.616190611159027
 20
140.7416620150428912
 30
0.0
 11
1268.866190611159027
 21
140.7416620150428912
 31
0.0
  0
LINE
  5
1693
  8
0
 10
1240.0350008430671096
 20
138.6683766914428872
 30
0.0
 11
1240.630266479266993
 21
138.7896944162428952
 31
0.0
  0
LINE
  5
1694
  8
0
 10
1293.5411157733490199
 20
138.8121943415171131
 30
0.0
 11
1294.1363812853589934
 21
138.6908766420428947
 31
0.0
  0
LINE
  5
1695
  8
0
 10
1291.366190611159027
 20
138.6599444178428939
 30
0.0
 11
1291.366190611159027
 21
139.2416620150428912
 31
0.0
  0
LINE
  5
1696
  8
0
 10
1292.116190611159027
 20
138.6599444178428939
 30
0.0
 11
1292.116190611159027
 21
139.2416620150428912
 31
0.0
  0
LINE
  5
1697
  8
0
 10
1295.4406906111589706
 20
135.9845290240428994
 30
0.0
 11
1295.4406906111589706
 21
138.6599444178428939
 31
0.0
  0
ARC
  5
1698
  8
0
 10
1268.866190611159027
 20
139.2416620150428912
 30
0.0
 40
1.5
 50
90.0
 51
180.0
  0
ARC
  5
1699
  8
0
 10
1290.616190611159027
 20
139.2416620150428912
 30
0.0
 40
1.5
 50
0.0
 51
90.0
  0
ARC
  5
169A
  8
0
 10
1265.3251925631589074
 20
135.8978641058428991
 30
0.0
 40
1.4999980479999999
 50
269.9999254396983019
 51
359.999925439499691
  0
ARC
  5
169B
  8
0
 10
1243.5754215296090024
 20
135.8979605642965112
 30
0.0
 40
1.500230921676323
 50
180.0037584233324139
 51
269.2273313655285847
  0
ARC
  5
169C
  8
0
 10
1268.866190611159027
 20
139.2416620150428912
 30
0.0
 40
0.75
 50
90.0
 51
180.0
  0
ARC
  5
169D
  8
0
 10
1290.616190611159027
 20
139.2416620150428912
 30
0.0
 40
0.75
 50
0.0
 51
90.0
  0
ARC
  5
169E
  8
0
 10
1293.491190611159027
 20
138.5672301029428866
 30
0.0
 40
0.25
 50
78.480545661797521
 51
158.2315035849624962
  0
ARC
  5
169F
  8
0
 10
1240.6801915172400186
 20
138.5447301523151964
 30
0.0
 40
0.25000000003653
 50
27.4424259882065584
 51
101.5194252827212011
  0
ARC
  5
16A0
  8
0
 10
1240.0411945578309769
 20
138.6379965811404986
 30
0.0
 40
0.0310050512748361
 50
101.5231996650156958
 51
134.9373626561078936
  0
ARC
  5
16A1
  8
0
 10
1243.5551980940520025
 20
135.8978715887577096
 30
0.0
 40
0.7500074829521459
 50
180.0007207672063032
 51
269.9994283547973168
  0
ARC
  5
16A2
  8
0
 10
1265.3051831282659805
 20
135.8978715887575959
 30
0.0
 40
0.7500074829521037
 50
270.0005716451897229
 51
359.99927923279688
  0
ARC
  5
16A3
  8
0
 10
1294.1301875705948987
 20
138.660496531740506
 30
0.0
 40
0.0310050512748361
 50
358.9796672826320219
 51
78.4768003349842616
  0
ENDSEC
  0
EOF
