  0
SECTION
  2
HEADER
  9
$ACADVER
  1
AC1009
  9
$INSBASE
 10
3328.4166382698499547
 20
150.9558524121217999
 30
0.0
  9
$EXTMIN
 10
3305.9508650754351038
 20
147.7784112027507035
 30
-0.000000000000013
  9
$EXTMAX
 10
3350.945088561727971
 20
154.1403641583326873
 30
0.0000000000000023
  9
$LIMMIN
 10
0.0
 20
0.0
  9
$LIMMAX
 10
11.6929133858000007
 20
8.2677165353999982
  9
$ORTHOMODE
 70
     1
  9
$REGENMODE
 70
     1
  9
$FILLMODE
 70
     1
  9
$QTEXTMODE
 70
     0
  9
$MIRRTEXT
 70
     0
  9
$DRAGMODE
 70
     2
  9
$LTSCALE
 40
0.6431102362
  9
$OSMODE
 70
  4095
  9
$ATTMODE
 70
     1
  9
$TEXTSIZE
 40
0.2
  9
$TRACEWID
 40
0.05
  9
$TEXTSTYLE
  7
STANDARD
  9
$CLAYER
  8
0
  9
$CELTYPE
  6
BYLAYER
  9
$CECOLOR
 62
   256
  9
$DIMSCALE
 40
1.0
  9
$DIMASZ
 40
0.1875
  9
$DIMEXO
 40
0.0625
  9
$DIMDLI
 40
0.4443307087
  9
$DIMRND
 40
0.0
  9
$DIMDLE
 40
0.0
  9
$DIMEXE
 40
0.125
  9
$DIMTP
 40
0.01
  9
$DIMTM
 40
0.01
  9
$DIMTXT
 40
2.0
  9
$DIMCEN
 40
0.1052362205
  9
$DIMTSZ
 40
0.0
  9
$DIMTOL
 70
     1
  9
$DIMLIM
 70
     0
  9
$DIMTIH
 70
     1
  9
$DIMTOH
 70
     1
  9
$DIMSE1
 70
     0
  9
$DIMSE2
 70
     0
  9
$DIMTAD
 70
     0
  9
$DIMZIN
 70
     0
  9
$DIMBLK
  1

  9
$DIMASO
 70
     1
  9
$DIMSHO
 70
     1
  9
$DIMPOST
  1
\X
  9
$DIMAPOST
  1

  9
$DIMALT
 70
     1
  9
$DIMALTD
 70
     2
  9
$DIMALTF
 40
25.3999999999999986
  9
$DIMLFAC
 40
1.0
  9
$DIMTOFL
 70
     0
  9
$DIMTVP
 40
0.0
  9
$DIMTIX
 70
     0
  9
$DIMSOXD
 70
     0
  9
$DIMSAH
 70
     0
  9
$DIMBLK1
  1

  9
$DIMBLK2
  1

  9
$DIMSTYLE
  2
STANDARD
  9
$DIMCLRD
 70
     0
  9
$DIMCLRE
 70
     0
  9
$DIMCLRT
 70
     0
  9
$DIMTFAC
 40
1.0
  9
$DIMGAP
 40
0.09
  9
$LUNITS
 70
     2
  9
$LUPREC
 70
     4
  9
$SKETCHINC
 40
0.1
  9
$FILLETRAD
 40
0.0
  9
$AUNITS
 70
     0
  9
$AUPREC
 70
     0
  9
$MENU
  1
.
  9
$ELEVATION
 40
0.0
  9
$PELEVATION
 40
0.0
  9
$THICKNESS
 40
0.0
  9
$LIMCHECK
 70
     0
  9
$BLIPMODE
 70
     0
  9
$CHAMFERA
 40
0.0
  9
$CHAMFERB
 40
0.0
  9
$SKPOLY
 70
     0
  9
$TDCREATE
 40
2458060.468368056230247
  9
$TDUPDATE
 40
2459712.4925925931893289
  9
$TDINDWG
 40
0.3088496528
  9
$TDUSRTIMER
 40
0.3088496528
  9
$USRTIMER
 70
     1
  9
$ANGBASE
 50
0.0
  9
$ANGDIR
 70
     0
  9
$PDMODE
 70
     0
  9
$PDSIZE
 40
0.3125
  9
$PLINEWID
 40
0.0
  9
$COORDS
 70
     1
  9
$SPLFRAME
 70
     0
  9
$SPLINETYPE
 70
     6
  9
$SPLINESEGS
 70
     8
  9
$ATTDIA
 70
     1
  9
$ATTREQ
 70
     1
  9
$HANDLING
 70
     1
  9
$HANDSEED
  5
7F17
  9
$SURFTAB1
 70
     6
  9
$SURFTAB2
 70
     6
  9
$SURFTYPE
 70
     6
  9
$SURFU
 70
     6
  9
$SURFV
 70
     6
  9
$UCSNAME
  2

  9
$UCSORG
 10
0.0
 20
0.0
 30
0.0
  9
$UCSXDIR
 10
1.0
 20
0.0
 30
0.0
  9
$UCSYDIR
 10
0.0
 20
1.0
 30
0.0
  9
$PUCSNAME
  2

  9
$PUCSORG
 10
0.0
 20
0.0
 30
0.0
  9
$PUCSXDIR
 10
1.0
 20
0.0
 30
0.0
  9
$PUCSYDIR
 10
0.0
 20
1.0
 30
0.0
  9
$USERI1
 70
     0
  9
$USERI2
 70
     0
  9
$USERI3
 70
     0
  9
$USERI4
 70
     0
  9
$USERI5
 70
     0
  9
$USERR1
 40
0.0
  9
$USERR2
 40
0.0
  9
$USERR3
 40
0.0
  9
$USERR4
 40
0.0
  9
$USERR5
 40
0.0
  9
$WORLDVIEW
 70
     1
  9
$SHADEDGE
 70
     3
  9
$SHADEDIF
 70
    70
  9
$TILEMODE
 70
     1
  9
$MAXACTVP
 70
    64
  9
$PLIMCHECK
 70
     0
  9
$PEXTMIN
 10
1.0000000000000000E+20
 20
1.0000000000000000E+20
 30
1.0000000000000000E+20
  9
$PEXTMAX
 10
-1.0000000000000000E+20
 20
-1.0000000000000000E+20
 30
-1.0000000000000000E+20
  9
$PLIMMIN
 10
0.0
 20
0.0
  9
$PLIMMAX
 10
12.0
 20
9.0
  9
$UNITMODE
 70
     0
  9
$VISRETAIN
 70
     1
  9
$PLINEGEN
 70
     0
  9
$PSLTSCALE
 70
     1
  0
ENDSEC
  0
SECTION
  2
TABLES
  0
TABLE
  2
VPORT
 70
     1
  0
VPORT
  2
*ACTIVE
 70
     0
 10
0.0
 20
0.0
 11
1.0
 21
1.0
 12
311.4686067013935826
 22
47.6231831517331088
 13
0.0
 23
0.0
 14
1.0
 24
1.0
 15
0.0
 25
0.0
 16
0.0
 26
0.0
 36
106.320558520324596
 17
3016.9793701171879547
 27
103.3362045288085938
 37
0.0
 40
22.5085785893289199
 41
2.005224660397074
 42
50.0
 43
0.0
 44
0.0
 50
0.0
 51
0.0
 71
     0
 72
   100
 73
     1
 74
     1
 75
     0
 76
     0
 77
     0
 78
     0
  0
ENDTAB
  0
TABLE
  2
LTYPE
 70
     2
  0
LTYPE
  2
CONTINUOUS
 70
     0
  3
Solid line
 72
    65
 73
     0
 40
0.0
  0
LTYPE
  2
PHANTOM2
 70
     0
  3
___ _ _ ___ _ _ ___ _ _ ___ _ _
 72
    65
 73
     6
 40
1.25
 49
0.625
 49
-0.125
 49
0.125
 49
-0.125
 49
0.125
 49
-0.125
  0
ENDTAB
  0
TABLE
  2
LAYER
 70
     2
  0
LAYER
  2
0
 70
     0
 62
   255
  6
CONTINUOUS
  0
LAYER
  2
DEFPOINTS
 70
     0
 62
     7
  6
CONTINUOUS
  0
ENDTAB
  0
TABLE
  2
STYLE
 70
     1
  0
STYLE
  2
STANDARD
 70
     0
 40
0.0
 41
0.8
 50
0.0
 71
     0
 42
0.2
  3
txt
  4

  0
ENDTAB
  0
TABLE
  2
VIEW
 70
     0
  0
ENDTAB
  0
TABLE
  2
UCS
 70
     0
  0
ENDTAB
  0
TABLE
  2
APPID
 70
     9
  0
APPID
  2
ACAD
 70
     0
  0
APPID
  2
ACAD_MLEADERVER
 70
     0
  0
APPID
  2
ACAD_EXEMPT_FROM_CAD_STANDARDS
 70
     0
  0
APPID
  2
ACAD_NAV_VCDISPLAY
 70
     0
  0
APPID
  2
ACAECLAYERSTANDARD
 70
     0
  0
APPID
  2
ACCMTRANSPARENCY
 70
     0
  0
APPID
  2
ACAD_DSTYLE_DIMJAG
 70
     0
  0
APPID
  2
ACAD_DSTYLE_DIMTALN
 70
     0
  0
APPID
  2
ACDBATTR
 70
     0
  0
ENDTAB
  0
TABLE
  2
DIMSTYLE
 70
     1
  0
DIMSTYLE
  2
STANDARD
 70
     0
  3

  4

  5

  6

  7

 40
1.0
 41
0.1875
 42
0.0625
 43
0.38
 44
0.125
 45
0.0
 46
0.0
 47
0.01
 48
0.01
140
0.15625
141
0.09
142
0.0
143
25.3999999999999986
144
1.0
145
0.0
146
1.0
147
0.09
 71
     1
 72
     0
 73
     1
 74
     1
 75
     0
 76
     0
 77
     0
 78
     4
170
     0
171
     2
172
     0
173
     0
174
     0
175
     0
176
     0
177
     0
178
     0
  0
ENDTAB
  0
ENDSEC
  0
SECTION
  2
BLOCKS
  0
BLOCK
  8
0
  2
$MODEL_SPACE
 70
     0
 10
0.0
 20
0.0
 30
0.0
  3
$MODEL_SPACE
  1

  0
ENDBLK
  5
21
  8
0
  0
BLOCK
 67
     1
  8
0
  2
$PAPER_SPACE
 70
     0
 10
0.0
 20
0.0
 30
0.0
  3
$PAPER_SPACE
  1

  0
ENDBLK
  5
1D
 67
     1
  8
0
  0
ENDSEC
  0
SECTION
  2
ENTITIES
  0
ATTDEF
  5
3930
  8
DEFPOINTS
 10
3328.4166890064821018
 20
150.9547241939598052
 30
0.0
 40
0.001
  1
SP5465-45*
  3

  2
MODELNUMBER
 70
     0
1001
ACDBATTR
1070
     0
1070
     1
  0
ATTDEF
  5
3931
  8
DEFPOINTS
 10
3328.4166890064821018
 20
150.9530575272931117
 30
0.0
 40
0.001
  1
FINESSE
  3

  2
TRADENAME
 70
     0
1001
ACDBATTR
1070
     0
1070
     1
  0
ATTDEF
  5
3932
  8
DEFPOINTS
 10
3328.4166890064821018
 20
150.9513908606263897
 30
0.0
 40
0.001
  1
SHOWER DOOR
  3

  2
PRODUCT
 70
     0
1001
ACDBATTR
1070
     0
1070
     1
  0
LINE
  5
7B96
  8
0
 10
3306.0616382698499365
 20
152.0497054182717136
 30
0.0
 11
3350.7716382698499729
 21
152.0497054182717989
 31
0.0
  0
LINE
  5
7B97
  8
0
 10
3350.7716382698499729
 20
152.0497054182717989
 30
0.0
 11
3350.7716382698499729
 21
149.3742900243717031
 31
0.0
  0
LINE
  5
7B98
  8
0
 10
3350.7716382698499729
 20
149.3742900243717031
 30
0.0
 11
3306.0616382698499365
 21
149.3742900243717031
 31
0.0
  0
LINE
  5
7B99
  8
0
 10
3306.0616382698499365
 20
149.3742900243717031
 30
0.0
 11
3306.0616382698499365
 21
152.0497054182717136
 31
0.0
  0
LINE
  5
7B9A
  8
0
 10
3328.6031382698502057
 20
152.6314230153718086
 30
0.0
 11
3328.6031382698502057
 21
152.0497054182717136
 31
0.0
  0
LINE
  5
7B9B
  8
0
 10
3329.3531382698502057
 20
152.6314230153718086
 30
0.0
 11
3329.3531382698502057
 21
152.0497054182717136
 31
0.0
  0
LINE
  5
7B9C
  8
0
 10
3346.6031382698502057
 20
152.0497054182717989
 30
0.0
 11
3346.6031382698502057
 21
152.6114230153717983
 31
0.0
  0
LINE
  5
7B9D
  8
0
 10
3347.3531382698502057
 20
152.0497054182717989
 30
0.0
 11
3347.3531382698502057
 21
152.6114230153717983
 31
0.0
  0
LINE
  5
7B9E
  8
0
 10
3347.1522120390268356
 20
153.3814230153718086
 30
0.0
 11
3347.1521763755258689
 21
153.3814230153718086
 31
0.0
  0
LINE
  5
7B9F
  8
0
 10
3345.8531382698502057
 20
153.3814230153718086
 30
0.0
 11
3330.1031382698502057
 21
153.3814230153718086
 31
0.0
  0
LINE
  5
7BA0
  8
0
 10
3345.8531382698502057
 20
154.1314230153718086
 30
0.0
 11
3330.1031382698502057
 21
154.1314230153718086
 31
0.0
  0
ARC
  5
7BA1
  8
0
 10
3330.1031382698502057
 20
152.6314230153718086
 30
0.0
 40
1.5
 50
90.0
 51
180.0
  0
ARC
  5
7BA2
  8
0
 10
3345.8530446012568973
 20
152.631199000312904
 30
0.0
 40
1.500224017982982
 50
359.2447039396037098
 51
89.9964226575706476
  0
ARC
  5
7BA3
  8
0
 10
3330.1031382698502057
 20
152.6314230153718086
 30
0.0
 40
0.75
 50
90.0
 51
180.0
  0
ARC
  5
7BA4
  8
0
 10
3345.8529520937090638
 20
152.6309819347154075
 30
0.0
 40
0.7504411037505068
 50
358.5065177834076735
 51
89.9857855504530448
  0
LINE
  5
7BA5
  8
0
 10
3310.2301382698501584
 20
149.286560921371688
 30
0.0
 11
3310.2301382698501584
 21
149.3742900243717031
 31
0.0
  0
LINE
  5
7BA6
  8
0
 10
3327.4801382698501584
 20
149.3742900243717884
 30
0.0
 11
3327.4801382698501584
 21
149.3065609213716982
 31
0.0
  0
LINE
  5
7BA7
  8
0
 10
3328.0292120390267883
 20
148.536560921371688
 30
0.0
 11
3328.0291763755258216
 21
148.536560921371688
 31
0.0
  0
LINE
  5
7BA8
  8
0
 10
3326.7301382698501584
 20
148.536560921371688
 30
0.0
 11
3310.9801382698501584
 21
148.536560921371688
 31
0.0
  0
LINE
  5
7BA9
  8
0
 10
3326.7301382698501584
 20
147.786560921371688
 30
0.0
 11
3310.9801382698501584
 21
147.786560921371688
 31
0.0
  0
ARC
  5
7BAA
  8
0
 10
3310.9801382698501584
 20
149.286560921371688
 30
0.0
 40
1.5
 50
180.0
 51
270.0
  0
ARC
  5
7BAB
  8
0
 10
3326.73004460125685
 20
149.2867849364305926
 30
0.0
 40
1.500224017982982
 50
270.0035773424555146
 51
359.2447039396150217
  0
ARC
  5
7BAC
  8
0
 10
3310.9801382698501584
 20
149.286560921371688
 30
0.0
 40
0.75
 50
180.0
 51
270.0
  0
ARC
  5
7BAD
  8
0
 10
3326.7299520937090165
 20
149.287002002028089
 30
0.0
 40
0.7504411037505068
 50
270.0142144495468983
 51
1.493482216592269
  0
LINE
  5
7BAE
  8
0
 10
3306.0616382698499365
 20
151.8041276425718138
 30
0.0
 11
3350.7716382698499729
 21
151.8041276425718138
 31
0.0
  0
LINE
  5
7BAF
  8
0
 10
3306.0616382698499365
 20
150.1210988485717905
 30
0.0
 11
3350.7716382698499729
 21
150.1210988485717053
 31
0.0
  0
LINE
  5
7BB0
  8
0
 10
3306.0616382698499365
 20
149.906337380771788
 30
0.0
 11
3350.7716382698499729
 21
149.906337380771788
 31
0.0
  0
LINE
  5
7BB1
  8
0
 10
3350.7716382698499729
 20
150.0592815083718108
 30
0.0
 11
3306.0616382698499365
 21
150.0592815083718108
 31
0.0
  0
LINE
  5
7BB2
  8
0
 10
3306.0616382698499365
 20
151.8641972575717887
 30
0.0
 11
3350.7716382698499729
 21
151.8641972575717887
 31
0.0
  0
ARC
  5
7BB3
  8
0
 10
3348.8221382698829984
 20
151.9569911032417906
 30
0.0
 40
0.250000000042272
 50
78.4805166431289933
 51
158.2315035567189057
  0
ARC
  5
7BB4
  8
0
 10
3349.4611314661510733
 20
152.0502516018300128
 30
0.0
 40
0.0310116138263098
 50
358.9908415931233776
 51
78.4721765733702057
  0
LINE
  5
7BB5
  8
0
 10
3348.8720635561498966
 20
152.2019553165717127
 30
0.0
 11
3349.4673289439501787
 21
152.0806376425717872
 31
0.0
  0
LINE
  5
7BB7
  8
0
 10
3328.2301382698501584
 20
149.3742900243717031
 30
0.0
 11
3328.2301382698501584
 21
149.2670089514896858
 31
0.0
  0
LINE
  5
7BB8
  8
0
 10
3309.480138269750114
 20
149.286560921371688
 30
0.0
 11
3309.480138269750114
 21
149.3742900243717031
 31
0.0
  0
ARC
  5
7C7F
  8
0
 10
3308.0111382698160014
 20
151.9569911032417906
 30
0.0
 40
0.250000000042272
 50
21.7684964432840893
 51
101.519483356871504
  0
ARC
  5
7C80
  8
0
 10
3307.3721450735488361
 20
152.0502516018300128
 30
0.0
 40
0.0310116138263098
 50
101.5278234266553028
 51
181.0091584068767929
  0
LINE
  5
7C81
  8
0
 10
3307.9612129835491032
 20
152.2019553165717127
 30
0.0
 11
3307.3659475957488212
 21
152.0806376425717872
 31
0.0
  0
ENDSEC
  0
EOF
