  0
SECTION
  2
HEADER
  9
$ACADVER
  1
AC1009
  9
$INSBASE
 10
664.1689953304038454
 20
38.698550843134619
 30
0.0
  9
$EXTMIN
 10
638.8810940338039472
 20
38.6916725423038628
 30
0.0
  9
$EXTMAX
 10
689.4568966270038572
 20
110.9485508431345977
 30
0.0
  9
$LIMMIN
 10
0.0
 20
0.0
  9
$LIMMAX
 10
11.6929133858000007
 20
8.2677165353999982
  9
$ORTHOMODE
 70
     1
  9
$REGENMODE
 70
     1
  9
$FILLMODE
 70
     1
  9
$QTEXTMODE
 70
     0
  9
$MIRRTEXT
 70
     0
  9
$DRAGMODE
 70
     2
  9
$LTSCALE
 40
0.6431102362
  9
$OSMODE
 70
  4095
  9
$ATTMODE
 70
     1
  9
$TEXTSIZE
 40
0.2
  9
$TRACEWID
 40
0.05
  9
$TEXTSTYLE
  7
STANDARD
  9
$CLAYER
  8
0
  9
$CELTYPE
  6
BYLAYER
  9
$CECOLOR
 62
   256
  9
$DIMSCALE
 40
1.0
  9
$DIMASZ
 40
0.1875
  9
$DIMEXO
 40
0.0625
  9
$DIMDLI
 40
0.4443307087
  9
$DIMRND
 40
0.0
  9
$DIMDLE
 40
0.0
  9
$DIMEXE
 40
0.125
  9
$DIMTP
 40
0.01
  9
$DIMTM
 40
0.01
  9
$DIMTXT
 40
2.0
  9
$DIMCEN
 40
0.1052362205
  9
$DIMTSZ
 40
0.0
  9
$DIMTOL
 70
     1
  9
$DIMLIM
 70
     0
  9
$DIMTIH
 70
     1
  9
$DIMTOH
 70
     1
  9
$DIMSE1
 70
     0
  9
$DIMSE2
 70
     0
  9
$DIMTAD
 70
     0
  9
$DIMZIN
 70
     0
  9
$DIMBLK
  1

  9
$DIMASO
 70
     1
  9
$DIMSHO
 70
     1
  9
$DIMPOST
  1
\X
  9
$DIMAPOST
  1

  9
$DIMALT
 70
     1
  9
$DIMALTD
 70
     2
  9
$DIMALTF
 40
25.3999999999999986
  9
$DIMLFAC
 40
1.0
  9
$DIMTOFL
 70
     0
  9
$DIMTVP
 40
0.0
  9
$DIMTIX
 70
     0
  9
$DIMSOXD
 70
     0
  9
$DIMSAH
 70
     0
  9
$DIMBLK1
  1

  9
$DIMBLK2
  1

  9
$DIMSTYLE
  2
STANDARD
  9
$DIMCLRD
 70
     0
  9
$DIMCLRE
 70
     0
  9
$DIMCLRT
 70
     0
  9
$DIMTFAC
 40
1.0
  9
$DIMGAP
 40
0.09
  9
$LUNITS
 70
     2
  9
$LUPREC
 70
     4
  9
$SKETCHINC
 40
0.1
  9
$FILLETRAD
 40
0.0
  9
$AUNITS
 70
     0
  9
$AUPREC
 70
     0
  9
$MENU
  1
.
  9
$ELEVATION
 40
0.0
  9
$PELEVATION
 40
0.0
  9
$THICKNESS
 40
0.0
  9
$LIMCHECK
 70
     0
  9
$BLIPMODE
 70
     0
  9
$CHAMFERA
 40
0.0
  9
$CHAMFERB
 40
0.0
  9
$SKPOLY
 70
     0
  9
$TDCREATE
 40
2458060.468368056230247
  9
$TDUPDATE
 40
2458680.8053935188800097
  9
$TDINDWG
 40
0.2527436921
  9
$TDUSRTIMER
 40
0.2527436921
  9
$USRTIMER
 70
     1
  9
$ANGBASE
 50
0.0
  9
$ANGDIR
 70
     0
  9
$PDMODE
 70
     0
  9
$PDSIZE
 40
0.3125
  9
$PLINEWID
 40
0.0
  9
$COORDS
 70
     1
  9
$SPLFRAME
 70
     0
  9
$SPLINETYPE
 70
     6
  9
$SPLINESEGS
 70
     8
  9
$ATTDIA
 70
     1
  9
$ATTREQ
 70
     1
  9
$HANDLING
 70
     1
  9
$HANDSEED
  5
4789
  9
$SURFTAB1
 70
     6
  9
$SURFTAB2
 70
     6
  9
$SURFTYPE
 70
     6
  9
$SURFU
 70
     6
  9
$SURFV
 70
     6
  9
$UCSNAME
  2

  9
$UCSORG
 10
0.0
 20
0.0
 30
0.0
  9
$UCSXDIR
 10
1.0
 20
0.0
 30
0.0
  9
$UCSYDIR
 10
0.0
 20
1.0
 30
0.0
  9
$PUCSNAME
  2

  9
$PUCSORG
 10
0.0
 20
0.0
 30
0.0
  9
$PUCSXDIR
 10
1.0
 20
0.0
 30
0.0
  9
$PUCSYDIR
 10
0.0
 20
1.0
 30
0.0
  9
$USERI1
 70
     0
  9
$USERI2
 70
     0
  9
$USERI3
 70
     0
  9
$USERI4
 70
     0
  9
$USERI5
 70
     0
  9
$USERR1
 40
0.0
  9
$USERR2
 40
0.0
  9
$USERR3
 40
0.0
  9
$USERR4
 40
0.0
  9
$USERR5
 40
0.0
  9
$WORLDVIEW
 70
     1
  9
$SHADEDGE
 70
     3
  9
$SHADEDIF
 70
    70
  9
$TILEMODE
 70
     1
  9
$MAXACTVP
 70
    64
  9
$PLIMCHECK
 70
     0
  9
$PEXTMIN
 10
1.0000000000000000E+20
 20
1.0000000000000000E+20
 30
1.0000000000000000E+20
  9
$PEXTMAX
 10
-1.0000000000000000E+20
 20
-1.0000000000000000E+20
 30
-1.0000000000000000E+20
  9
$PLIMMIN
 10
0.0
 20
0.0
  9
$PLIMMAX
 10
12.0
 20
9.0
  9
$UNITMODE
 70
     0
  9
$VISRETAIN
 70
     1
  9
$PLINEGEN
 70
     0
  9
$PSLTSCALE
 70
     1
  0
ENDSEC
  0
SECTION
  2
TABLES
  0
TABLE
  2
VPORT
 70
     1
  0
VPORT
  2
*ACTIVE
 70
     0
 10
0.0
 20
0.0
 11
1.0
 21
1.0
 12
0.0
 22
0.0
 13
0.0
 23
0.0
 14
1.0
 24
1.0
 15
0.0
 25
0.0
 16
0.0
 26
0.0
 36
252.675427017323301
 17
664.16900634765625
 27
74.8201099527925635
 37
0.0
 40
88.2184354558615809
 41
2.1481900452488678
 42
50.0
 43
0.0
 44
0.0
 50
0.0
 51
0.0
 71
     0
 72
   100
 73
     1
 74
     1
 75
     0
 76
     0
 77
     0
 78
     0
  0
ENDTAB
  0
TABLE
  2
LTYPE
 70
     2
  0
LTYPE
  2
CONTINUOUS
 70
     0
  3
Solid line
 72
    65
 73
     0
 40
0.0
  0
LTYPE
  2
PHANTOM2
 70
     0
  3
___ _ _ ___ _ _ ___ _ _ ___ _ _
 72
    65
 73
     6
 40
1.25
 49
0.625
 49
-0.125
 49
0.125
 49
-0.125
 49
0.125
 49
-0.125
  0
ENDTAB
  0
TABLE
  2
LAYER
 70
     2
  0
LAYER
  2
0
 70
     0
 62
   255
  6
CONTINUOUS
  0
LAYER
  2
DEFPOINTS
 70
     0
 62
     7
  6
CONTINUOUS
  0
ENDTAB
  0
TABLE
  2
STYLE
 70
     1
  0
STYLE
  2
STANDARD
 70
     0
 40
0.0
 41
0.8
 50
0.0
 71
     0
 42
0.2
  3
txt
  4

  0
ENDTAB
  0
TABLE
  2
VIEW
 70
     0
  0
ENDTAB
  0
TABLE
  2
UCS
 70
     0
  0
ENDTAB
  0
TABLE
  2
APPID
 70
     9
  0
APPID
  2
ACAD
 70
     0
  0
APPID
  2
ACAD_MLEADERVER
 70
     0
  0
APPID
  2
ACAD_EXEMPT_FROM_CAD_STANDARDS
 70
     0
  0
APPID
  2
ACAD_NAV_VCDISPLAY
 70
     0
  0
APPID
  2
ACAECLAYERSTANDARD
 70
     0
  0
APPID
  2
ACCMTRANSPARENCY
 70
     0
  0
APPID
  2
ACAD_DSTYLE_DIMJAG
 70
     0
  0
APPID
  2
ACAD_DSTYLE_DIMTALN
 70
     0
  0
APPID
  2
ACDBATTR
 70
     0
  0
ENDTAB
  0
TABLE
  2
DIMSTYLE
 70
     1
  0
DIMSTYLE
  2
STANDARD
 70
     0
  3

  4

  5

  6

  7

 40
1.0
 41
0.1875
 42
0.0625
 43
0.38
 44
0.125
 45
0.0
 46
0.0
 47
0.01
 48
0.01
140
0.15625
141
0.09
142
0.0
143
25.3999999999999986
144
1.0
145
0.0
146
1.0
147
0.09
 71
     1
 72
     0
 73
     1
 74
     1
 75
     0
 76
     0
 77
     0
 78
     4
170
     0
171
     2
172
     0
173
     0
174
     0
175
     0
176
     0
177
     0
178
     0
  0
ENDTAB
  0
ENDSEC
  0
SECTION
  2
BLOCKS
  0
BLOCK
  8
0
  2
$MODEL_SPACE
 70
     0
 10
0.0
 20
0.0
 30
0.0
  3
$MODEL_SPACE
  1

  0
ENDBLK
  5
21
  8
0
  0
BLOCK
 67
     1
  8
0
  2
$PAPER_SPACE
 70
     0
 10
0.0
 20
0.0
 30
0.0
  3
$PAPER_SPACE
  1

  0
ENDBLK
  5
1D
 67
     1
  8
0
  0
ENDSEC
  0
SECTION
  2
ENTITIES
  0
ATTDEF
  5
3930
  8
DEFPOINTS
 10
664.1639218517021845
 20
38.6966725423038724
 30
0.0
 40
0.001
  1
SP2375-38*
  3

  2
MODELNUMBER
 70
     0
1001
ACDBATTR
1070
     0
1070
     1
  0
ATTDEF
  5
3931
  8
DEFPOINTS
 10
664.1639218517021845
 20
38.6950058756372002
 30
0.0
 40
0.001
  1
SOLITAIRE
  3

  2
TRADENAME
 70
     0
1001
ACDBATTR
1070
     0
1070
     1
  0
ATTDEF
  5
3932
  8
DEFPOINTS
 10
664.1639218517021845
 20
38.6933392089705421
 30
0.0
 40
0.001
  1
SHOWER DOOR
  3

  2
PRODUCT
 70
     0
1001
ACDBATTR
1070
     0
1070
     1
  0
ATTDEF
  5
3933
  8
DEFPOINTS
 10
664.1639218517021845
 20
38.6916725423038699
 30
0.0
 40
0.001
  1
ALUMINUM/GLASS
  3

  2
MATERIAL
 70
     0
1001
ACDBATTR
1070
     0
1070
     1
  0
LINE
  5
45C9
  8
0
 10
638.8810940338039472
 20
38.6985508431346119
 30
0.0
 11
689.4568966270038572
 21
38.698550843134619
 31
0.0
  0
LINE
  5
45CA
  8
0
 10
676.8210007830039103
 20
39.9485508431346119
 30
0.0
 11
651.5016706560038529
 21
39.948550843134619
 31
0.0
  0
LINE
  5
45CB
  8
0
 10
676.5710007830039103
 20
39.958550843134617
 30
0.0
 11
674.8210007830039103
 21
39.958550843134617
 31
0.0
  0
LINE
  5
45CC
  8
0
 10
674.8210007830039103
 20
40.3685508431346207
 30
0.0
 11
651.6235692049040154
 21
40.3685508431346065
 31
0.0
  0
LINE
  5
45CD
  8
0
 10
674.8210007830039103
 20
43.458550843134617
 30
0.0
 11
676.5710007830039103
 21
43.458550843134617
 31
0.0
  0
LINE
  5
45CE
  8
0
 10
638.8810940338039472
 20
38.698550843134619
 30
0.0
 11
638.8810940338039472
 21
110.9485508431345977
 31
0.0
  0
LINE
  5
45CF
  8
0
 10
639.7623292780040174
 20
38.698550843134619
 30
0.0
 11
639.7623292780040174
 21
110.9485508431345977
 31
0.0
  0
LINE
  5
45D0
  8
0
 10
639.8925420464039462
 20
110.9485508431345977
 30
0.0
 11
639.8925420464039462
 21
38.698550843134619
 31
0.0
  0
LINE
  5
45D1
  8
0
 10
649.7044452928039391
 20
38.698550843134619
 30
0.0
 11
649.7044452928039391
 21
110.9485508431345977
 31
0.0
  0
LINE
  5
45D2
  8
0
 10
650.4993144915039238
 20
38.698550843134619
 30
0.0
 11
650.4993144915039238
 21
110.9485508431345977
 31
0.0
  0
LINE
  5
45D3
  8
0
 10
651.5016706560038529
 20
39.948550843134619
 30
0.0
 11
651.5016706560038529
 21
109.6985508431345977
 31
0.0
  0
LINE
  5
45D4
  8
0
 10
651.5110007830038512
 20
39.948550843134619
 30
0.0
 11
651.5110007830038512
 21
38.698550843134619
 31
0.0
  0
LINE
  5
45D5
  8
0
 10
651.5110007830038512
 20
109.6985508431345977
 30
0.0
 11
651.5110007830038512
 21
110.9485508431345977
 31
0.0
  0
LINE
  5
45D6
  8
0
 10
651.6235692049040154
 20
109.1185508431345994
 30
0.0
 11
651.6235692049040154
 21
39.948550843134619
 31
0.0
  0
LINE
  5
45D7
  8
0
 10
651.8737486968038866
 20
39.948550843134619
 30
0.0
 11
651.8737486968038866
 21
40.3685508431346207
 31
0.0
  0
LINE
  5
45D8
  8
0
 10
651.8737486968038866
 20
109.1185508431345994
 30
0.0
 11
651.8737486968038866
 21
109.6985508431345977
 31
0.0
  0
LINE
  5
45D9
  8
0
 10
652.1285007830039149
 20
109.6985508431345977
 30
0.0
 11
652.1285007830039149
 21
109.1185508431345994
 31
0.0
  0
LINE
  5
45DA
  8
0
 10
652.1285007830039149
 20
40.3685508431346207
 30
0.0
 11
652.1285007830039149
 21
39.948550843134619
 31
0.0
  0
LINE
  5
45DB
  8
0
 10
652.1460007830039558
 20
109.6985508431345977
 30
0.0
 11
652.1460007830039558
 21
109.1185508431345994
 31
0.0
  0
LINE
  5
45DC
  8
0
 10
652.1460007830039558
 20
40.3685508431346207
 30
0.0
 11
652.1460007830039558
 21
39.948550843134619
 31
0.0
  0
LINE
  5
45DD
  8
0
 10
674.8210007830039103
 20
39.958550843134617
 30
0.0
 11
674.8210007830039103
 21
43.458550843134617
 31
0.0
  0
LINE
  5
45DE
  8
0
 10
674.8210007830039103
 20
106.028550843134596
 30
0.0
 11
674.8210007830039103
 21
109.528550843134596
 31
0.0
  0
LINE
  5
45DF
  8
0
 10
676.1460007830039558
 20
39.948550843134619
 30
0.0
 11
676.1460007830039558
 21
39.958550843134617
 31
0.0
  0
LINE
  5
45E0
  8
0
 10
676.1860007830039194
 20
109.528550843134596
 30
0.0
 11
676.1860007830039194
 21
109.6985508431345977
 31
0.0
  0
LINE
  5
45E1
  8
0
 10
676.2275007830038476
 20
109.528550843134596
 30
0.0
 11
676.2275007830038476
 21
109.6985508431345977
 31
0.0
  0
LINE
  5
45E2
  8
0
 10
676.4145007830038594
 20
109.528550843134596
 30
0.0
 11
676.4145007830038594
 21
109.6985508431345977
 31
0.0
  0
LINE
  5
45E3
  8
0
 10
676.4960007830039785
 20
39.948550843134619
 30
0.0
 11
676.4960007830039785
 21
39.958550843134617
 31
0.0
  0
LINE
  5
45E4
  8
0
 10
676.5110007830038512
 20
109.6985508431345977
 30
0.0
 11
676.5110007830038512
 21
109.528550843134596
 31
0.0
  0
LINE
  5
45E5
  8
0
 10
676.5110007830038512
 20
39.958550843134617
 30
0.0
 11
676.5110007830038512
 21
39.948550843134619
 31
0.0
  0
LINE
  5
45E6
  8
0
 10
676.5710007830039103
 20
109.528550843134596
 30
0.0
 11
676.5710007830039103
 21
39.958550843134617
 31
0.0
  0
LINE
  5
45E7
  8
0
 10
676.7310007830038785
 20
39.948550843134619
 30
0.0
 11
676.7310007830038785
 21
109.6985508431345977
 31
0.0
  0
LINE
  5
45E8
  8
0
 10
676.7810007830039467
 20
109.6985508431345977
 30
0.0
 11
676.7810007830039467
 21
39.948550843134619
 31
0.0
  0
LINE
  5
45E9
  8
0
 10
676.8210007830039103
 20
38.698550843134619
 30
0.0
 11
676.8210007830039103
 21
110.9485508431345977
 31
0.0
  0
LINE
  5
45EA
  8
0
 10
677.8326870745039514
 20
110.9485508431345977
 30
0.0
 11
677.8326870745039514
 21
38.698550843134619
 31
0.0
  0
LINE
  5
45EB
  8
0
 10
678.6275562732039361
 20
110.9485508431345977
 30
0.0
 11
678.6275562732039361
 21
38.698550843134619
 31
0.0
  0
LINE
  5
45EC
  8
0
 10
688.4454486144038583
 20
38.698550843134619
 30
0.0
 11
688.4454486144038583
 21
110.9485508431345977
 31
0.0
  0
LINE
  5
45ED
  8
0
 10
688.5756613828037871
 20
110.9485508431345977
 30
0.0
 11
688.5756613828037871
 21
38.698550843134619
 31
0.0
  0
LINE
  5
45EE
  8
0
 10
689.4568966270038572
 20
110.9485508431345977
 30
0.0
 11
689.4568966270038572
 21
38.698550843134619
 31
0.0
  0
LINE
  5
45EF
  8
0
 10
676.5710007830039103
 20
106.028550843134596
 30
0.0
 11
674.8210007830039103
 21
106.028550843134596
 31
0.0
  0
LINE
  5
45F0
  8
0
 10
651.6235692049040154
 20
109.1185508431345994
 30
0.0
 11
674.8210007830039103
 21
109.1185508431345994
 31
0.0
  0
LINE
  5
45F1
  8
0
 10
674.8210007830039103
 20
109.528550843134596
 30
0.0
 11
676.5710007830039103
 21
109.528550843134596
 31
0.0
  0
LINE
  5
45F2
  8
0
 10
676.8210007830039103
 20
109.6985508431345977
 30
0.0
 11
651.5016706560038529
 21
109.6985508431345977
 31
0.0
  0
LINE
  5
45F3
  8
0
 10
689.4568966270038572
 20
110.9485508431345977
 30
0.0
 11
638.8810940338039472
 21
110.9485508431345977
 31
0.0
  0
CIRCLE
  5
45F4
  8
0
 10
654.6310007830038558
 20
74.7435508431346136
 30
0.0
 40
0.775
  0
ENDSEC
  0
EOF
