  0
SECTION
  2
HEADER
  9
$ACADVER
  1
AC1009
  9
$INSBASE
 10
4581.5128367593470102
 20
174.7934437433609958
 30
0.0
  9
$EXTMIN
 10
4564.8350762739755737
 20
165.4957816678034135
 30
-0.0000000349181948
  9
$EXTMAX
 10
4598.2322303290629861
 20
189.7893218072188972
 30
0.0000000814935746
  9
$LIMMIN
 10
0.0
 20
0.0
  9
$LIMMAX
 10
11.6929133858000007
 20
8.2677165353999982
  9
$ORTHOMODE
 70
     0
  9
$REGENMODE
 70
     1
  9
$FILLMODE
 70
     1
  9
$QTEXTMODE
 70
     0
  9
$MIRRTEXT
 70
     0
  9
$DRAGMODE
 70
     2
  9
$LTSCALE
 40
0.6431102362
  9
$OSMODE
 70
  4095
  9
$ATTMODE
 70
     1
  9
$TEXTSIZE
 40
0.2
  9
$TRACEWID
 40
0.05
  9
$TEXTSTYLE
  7
STANDARD
  9
$CLAYER
  8
0
  9
$CELTYPE
  6
BYLAYER
  9
$CECOLOR
 62
   256
  9
$DIMSCALE
 40
1.0
  9
$DIMASZ
 40
0.1875
  9
$DIMEXO
 40
0.0625
  9
$DIMDLI
 40
0.4443307087
  9
$DIMRND
 40
0.0
  9
$DIMDLE
 40
0.0
  9
$DIMEXE
 40
0.125
  9
$DIMTP
 40
0.01
  9
$DIMTM
 40
0.01
  9
$DIMTXT
 40
2.0
  9
$DIMCEN
 40
0.1052362205
  9
$DIMTSZ
 40
0.0
  9
$DIMTOL
 70
     1
  9
$DIMLIM
 70
     0
  9
$DIMTIH
 70
     1
  9
$DIMTOH
 70
     1
  9
$DIMSE1
 70
     0
  9
$DIMSE2
 70
     0
  9
$DIMTAD
 70
     0
  9
$DIMZIN
 70
     0
  9
$DIMBLK
  1

  9
$DIMASO
 70
     1
  9
$DIMSHO
 70
     1
  9
$DIMPOST
  1
\X
  9
$DIMAPOST
  1

  9
$DIMALT
 70
     1
  9
$DIMALTD
 70
     2
  9
$DIMALTF
 40
25.3999999999999986
  9
$DIMLFAC
 40
1.0
  9
$DIMTOFL
 70
     0
  9
$DIMTVP
 40
0.0
  9
$DIMTIX
 70
     0
  9
$DIMSOXD
 70
     0
  9
$DIMSAH
 70
     0
  9
$DIMBLK1
  1

  9
$DIMBLK2
  1

  9
$DIMSTYLE
  2
STANDARD
  9
$DIMCLRD
 70
     0
  9
$DIMCLRE
 70
     0
  9
$DIMCLRT
 70
     0
  9
$DIMTFAC
 40
1.0
  9
$DIMGAP
 40
0.09
  9
$LUNITS
 70
     2
  9
$LUPREC
 70
     4
  9
$SKETCHINC
 40
0.1
  9
$FILLETRAD
 40
0.0
  9
$AUNITS
 70
     0
  9
$AUPREC
 70
     0
  9
$MENU
  1
.
  9
$ELEVATION
 40
0.0
  9
$PELEVATION
 40
0.0
  9
$THICKNESS
 40
0.0
  9
$LIMCHECK
 70
     0
  9
$BLIPMODE
 70
     0
  9
$CHAMFERA
 40
0.0
  9
$CHAMFERB
 40
0.0
  9
$SKPOLY
 70
     0
  9
$TDCREATE
 40
2458060.468368056230247
  9
$TDUPDATE
 40
2459600.880486112087965
  9
$TDINDWG
 40
0.4096366898
  9
$TDUSRTIMER
 40
0.4096366898
  9
$USRTIMER
 70
     1
  9
$ANGBASE
 50
0.0
  9
$ANGDIR
 70
     0
  9
$PDMODE
 70
     0
  9
$PDSIZE
 40
0.3125
  9
$PLINEWID
 40
0.0
  9
$COORDS
 70
     1
  9
$SPLFRAME
 70
     0
  9
$SPLINETYPE
 70
     6
  9
$SPLINESEGS
 70
     8
  9
$ATTDIA
 70
     1
  9
$ATTREQ
 70
     1
  9
$HANDLING
 70
     1
  9
$HANDSEED
  5
EC55
  9
$SURFTAB1
 70
     6
  9
$SURFTAB2
 70
     6
  9
$SURFTYPE
 70
     6
  9
$SURFU
 70
     6
  9
$SURFV
 70
     6
  9
$UCSNAME
  2

  9
$UCSORG
 10
0.0
 20
0.0
 30
0.0
  9
$UCSXDIR
 10
1.0
 20
0.0
 30
0.0
  9
$UCSYDIR
 10
0.0
 20
1.0
 30
0.0
  9
$PUCSNAME
  2

  9
$PUCSORG
 10
0.0
 20
0.0
 30
0.0
  9
$PUCSXDIR
 10
1.0
 20
0.0
 30
0.0
  9
$PUCSYDIR
 10
0.0
 20
1.0
 30
0.0
  9
$USERI1
 70
     0
  9
$USERI2
 70
     0
  9
$USERI3
 70
     0
  9
$USERI4
 70
     0
  9
$USERI5
 70
     0
  9
$USERR1
 40
0.0
  9
$USERR2
 40
0.0
  9
$USERR3
 40
0.0
  9
$USERR4
 40
0.0
  9
$USERR5
 40
0.0
  9
$WORLDVIEW
 70
     1
  9
$SHADEDGE
 70
     3
  9
$SHADEDIF
 70
    70
  9
$TILEMODE
 70
     1
  9
$MAXACTVP
 70
    64
  9
$PLIMCHECK
 70
     0
  9
$PEXTMIN
 10
1.0000000000000000E+20
 20
1.0000000000000000E+20
 30
1.0000000000000000E+20
  9
$PEXTMAX
 10
-1.0000000000000000E+20
 20
-1.0000000000000000E+20
 30
-1.0000000000000000E+20
  9
$PLIMMIN
 10
0.0
 20
0.0
  9
$PLIMMAX
 10
12.0
 20
9.0
  9
$UNITMODE
 70
     0
  9
$VISRETAIN
 70
     1
  9
$PLINEGEN
 70
     0
  9
$PSLTSCALE
 70
     1
  0
ENDSEC
  0
SECTION
  2
TABLES
  0
TABLE
  2
VPORT
 70
     1
  0
VPORT
  2
*ACTIVE
 70
     0
 10
0.0
 20
0.0
 11
1.0
 21
1.0
 12
777.9895859187072347
 22
51.6472895407612427
 13
0.0
 23
0.0
 14
1.0
 24
1.0
 15
0.0
 25
0.0
 16
0.0
 26
0.0
 36
17.1152628219792007
 17
3803.5440673828129547
 27
125.9952621967499056
 37
0.0
 40
24.50549126842294
 41
2.6486111111111108
 42
50.0
 43
0.0
 44
0.0
 50
0.0
 51
0.0
 71
     0
 72
   100
 73
     1
 74
     1
 75
     0
 76
     0
 77
     0
 78
     0
  0
ENDTAB
  0
TABLE
  2
LTYPE
 70
     2
  0
LTYPE
  2
CONTINUOUS
 70
     0
  3
Solid line
 72
    65
 73
     0
 40
0.0
  0
LTYPE
  2
PHANTOM2
 70
     0
  3
___ _ _ ___ _ _ ___ _ _ ___ _ _
 72
    65
 73
     6
 40
1.25
 49
0.625
 49
-0.125
 49
0.125
 49
-0.125
 49
0.125
 49
-0.125
  0
ENDTAB
  0
TABLE
  2
LAYER
 70
     2
  0
LAYER
  2
0
 70
     0
 62
   255
  6
CONTINUOUS
  0
LAYER
  2
DEFPOINTS
 70
     0
 62
     7
  6
CONTINUOUS
  0
ENDTAB
  0
TABLE
  2
STYLE
 70
     1
  0
STYLE
  2
STANDARD
 70
     0
 40
0.0
 41
0.8
 50
0.0
 71
     0
 42
0.2
  3
txt
  4

  0
ENDTAB
  0
TABLE
  2
VIEW
 70
     0
  0
ENDTAB
  0
TABLE
  2
UCS
 70
     0
  0
ENDTAB
  0
TABLE
  2
APPID
 70
     9
  0
APPID
  2
ACAD
 70
     0
  0
APPID
  2
ACAD_MLEADERVER
 70
     0
  0
APPID
  2
ACAD_EXEMPT_FROM_CAD_STANDARDS
 70
     0
  0
APPID
  2
ACAD_NAV_VCDISPLAY
 70
     0
  0
APPID
  2
ACAECLAYERSTANDARD
 70
     0
  0
APPID
  2
ACCMTRANSPARENCY
 70
     0
  0
APPID
  2
ACAD_DSTYLE_DIMJAG
 70
     0
  0
APPID
  2
ACAD_DSTYLE_DIMTALN
 70
     0
  0
APPID
  2
ACDBATTR
 70
     0
  0
ENDTAB
  0
TABLE
  2
DIMSTYLE
 70
     1
  0
DIMSTYLE
  2
STANDARD
 70
     0
  3

  4

  5

  6

  7

 40
1.0
 41
0.1875
 42
0.0625
 43
0.38
 44
0.125
 45
0.0
 46
0.0
 47
0.01
 48
0.01
140
0.15625
141
0.09
142
0.0
143
25.3999999999999986
144
1.0
145
0.0
146
1.0
147
0.09
 71
     1
 72
     0
 73
     1
 74
     1
 75
     0
 76
     0
 77
     0
 78
     4
170
     0
171
     2
172
     0
173
     0
174
     0
175
     0
176
     0
177
     0
178
     0
  0
ENDTAB
  0
ENDSEC
  0
SECTION
  2
BLOCKS
  0
BLOCK
  8
0
  2
$MODEL_SPACE
 70
     0
 10
0.0
 20
0.0
 30
0.0
  3
$MODEL_SPACE
  1

  0
ENDBLK
  5
21
  8
0
  0
BLOCK
 67
     1
  8
0
  2
$PAPER_SPACE
 70
     0
 10
0.0
 20
0.0
 30
0.0
  3
$PAPER_SPACE
  1

  0
ENDBLK
  5
1D
 67
     1
  8
0
  0
ENDSEC
  0
SECTION
  2
ENTITIES
  0
ATTDEF
  5
3930
  8
DEFPOINTS
 10
4581.5091327695163272
 20
174.7978506224212083
 30
0.0
 40
0.001
  1
K-R28197-1PC
  3

  2
MODELNUMBER
 70
     0
1001
ACDBATTR
1070
     0
1070
     1
  0
ATTDEF
  5
3931
  8
DEFPOINTS
 10
4581.5091327695163272
 20
174.7961839557546
 30
0.0
 40
0.001
  1

  3

  2
TRADENAME
 70
     0
1001
ACDBATTR
1070
     0
1070
     1
  0
ATTDEF
  5
3932
  8
DEFPOINTS
 10
4581.5091327695163272
 20
174.7945172890879064
 30
0.0
 40
0.001
  1
KITCHEN SINK 
  3

  2
PRODUCT
 70
     0
1001
ACDBATTR
1070
     0
1070
     1
  0
LINE
  5
E4F1
  8
0
 10
4565.2115470685939727
 20
174.7934437433609958
 30
0.0
 11
4597.8143382782691333
 21
174.7934437433609958
 31
0.0
  0
LINE
  5
E4F2
  8
0
 10
4565.0453933776816484
 20
174.6280749464609983
 30
0.0
 11
4597.980491969180548
 21
174.6280749464609983
 31
0.0
  0
LINE
  5
E4F3
  8
0
 10
4565.134412555417839
 20
174.7653690765239105
 30
0.0
 11
4565.1106664680437461
 21
174.7454437433609939
 31
0.0
  0
LINE
  5
E4F4
  8
0
 10
4565.0876174171817183
 20
174.7261032932769069
 30
0.0
 11
4565.0129426734811204
 21
174.6634437433610003
 31
0.0
  0
LINE
  5
E4F5
  8
0
 10
4565.0129426734811204
 20
174.6634437433610003
 30
0.0
 11
4565.0453933776816484
 21
174.6280749464609983
 31
0.0
  0
ARC
  5
E4F6
  8
0
 10
4565.2115470685939727
 20
174.6734437433609912
 30
0.0
 40
0.12
 50
90.0
 51
130.0000000085173895
  0
LINE
  5
E4F7
  8
0
 10
4576.1960897360422678
 20
165.7468347935260908
 30
0.0
 11
4578.3436773702524079
 21
165.8218281916560102
 31
0.0
  0
LINE
  5
E4F8
  8
0
 10
4575.6754426734805747
 20
165.5030056781610028
 30
0.0
 11
4571.9554426734803201
 21
165.5030056781610028
 31
0.0
  0
LINE
  5
E4F9
  8
0
 10
4576.1199906028123223
 20
165.663088323265896
 30
0.0
 11
4576.1713269352831048
 21
165.7336757803516036
 31
0.0
  0
LINE
  5
E4FA
  8
0
 10
4575.6754426734805747
 20
165.5030056781610028
 30
0.0
 11
4576.0810125138086732
 21
165.6347833074378002
 31
0.0
  0
ARC
  5
E4FB
  8
0
 10
4576.0569091882562134
 20
165.7089657157112015
 30
0.0
 40
0.078
 50
287.9999999943755142
 51
323.9726265907398215
  0
ARC
  5
E4FC
  8
0
 10
4576.1972064899737234
 20
165.714854286015111
 30
0.0
 40
0.032
 50
91.9999463174464722
 51
143.9726265907385141
  0
LINE
  5
E4FD
  8
0
 10
4580.7051402359966232
 20
168.1832888448448955
 30
0.0
 11
4580.9268388412965578
 21
174.5319062574492079
 31
0.0
  0
ARC
  5
E4FE
  8
0
 10
4578.2582317351261736
 20
168.2687367725878005
 30
0.0
 40
2.448399999999999
 50
271.9999463174985976
 51
357.9999999996135784
  0
LINE
  5
E4FF
  8
0
 10
4571.4347956109186271
 20
165.7468347935260908
 30
0.0
 11
4569.287207976710306
 21
165.8218281916560102
 31
0.0
  0
LINE
  5
E500
  8
0
 10
4571.5108947441503915
 20
165.663088323265896
 30
0.0
 11
4571.45955841167779
 21
165.7336757803516036
 31
0.0
  0
LINE
  5
E501
  8
0
 10
4571.9554426734803201
 20
165.5030056781610028
 30
0.0
 11
4571.5498728331531311
 21
165.6347833074378002
 31
0.0
  0
ARC
  5
E502
  8
0
 10
4571.5739761587055909
 20
165.7089657157112015
 30
0.0
 40
0.078
 50
216.0273734092600932
 51
252.0000000056245995
  0
ARC
  5
E503
  8
0
 10
4571.4336788569889904
 20
165.714854286015111
 30
0.0
 40
0.032
 50
36.0273734092614788
 51
88.0000536825535278
  0
LINE
  5
E504
  8
0
 10
4566.9257451109642716
 20
168.1832888448448955
 30
0.0
 11
4566.7044083492155551
 21
174.5215444138989085
 31
0.0
  0
ARC
  5
E505
  8
0
 10
4569.3726536118374497
 20
168.2687367725878005
 30
0.0
 40
2.448399999999999
 50
182.0000000003863931
 51
268.0000536825014024
  0
LINE
  5
E506
  8
0
 10
4571.4347956109186271
 20
165.7468347935260908
 30
0.0
 11
4576.1960897360422678
 21
165.7468347935260908
 31
0.0
  0
LINE
  5
E507
  8
0
 10
4576.0810125138086732
 20
165.6347833074378002
 30
0.0
 11
4571.5498728331531311
 21
165.6347833074378002
 31
0.0
  0
LINE
  5
E508
  8
0
 10
4565.0129426734811204
 20
174.6634437433610003
 30
0.0
 11
4598.0129426733801665
 21
174.6634437433610003
 31
0.0
  0
LINE
  5
E509
  8
0
 10
4597.8914727914443574
 20
174.7653690765239105
 30
0.0
 11
4597.9152188788184503
 21
174.7454437433609939
 31
0.0
  0
LINE
  5
E50A
  8
0
 10
4597.9382679296995775
 20
174.7261032932609908
 30
0.0
 11
4598.0129426733801665
 21
174.6634437433610003
 31
0.0
  0
LINE
  5
E50B
  8
0
 10
4598.0129426733801665
 20
174.6634437433610003
 30
0.0
 11
4597.980491969180548
 21
174.6280749464609983
 31
0.0
  0
ARC
  5
E50C
  8
0
 10
4597.8143382782691333
 20
174.6734437433609912
 30
0.0
 40
0.12
 50
49.9999999914826176
 51
90.0
  0
LINE
  5
E50D
  8
0
 10
4586.8297956108199287
 20
165.7468347935260908
 30
0.0
 11
4584.6822079766097886
 21
165.8218281916560102
 31
0.0
  0
LINE
  5
E50E
  8
0
 10
4587.3504426733816217
 20
165.5030056781610028
 30
0.0
 11
4591.0704426733800574
 21
165.5030056781610028
 31
0.0
  0
LINE
  5
E50F
  8
0
 10
4586.9058947440507836
 20
165.663088323265896
 30
0.0
 11
4586.8545584115790916
 21
165.7336757803516036
 31
0.0
  0
LINE
  5
E510
  8
0
 10
4587.3504426733816217
 20
165.5030056781610028
 30
0.0
 11
4586.9448728330517042
 21
165.6347833074378002
 31
0.0
  0
ARC
  5
E511
  8
0
 10
4586.9689761586059831
 20
165.7089657157112015
 30
0.0
 40
0.078
 50
216.0273734092600932
 51
252.0000000056245995
  0
ARC
  5
E512
  8
0
 10
4586.8286788568893826
 20
165.714854286015111
 30
0.0
 40
0.032
 50
36.0273734092614788
 51
88.0000536825535278
  0
LINE
  5
E513
  8
0
 10
4582.3207451108646637
 20
168.1832888448448955
 30
0.0
 11
4582.0990465055601817
 21
174.5319062575528051
 31
0.0
  0
ARC
  5
E514
  8
0
 10
4584.7676536117369324
 20
168.2687367725878005
 30
0.0
 40
2.448399999999999
 50
182.0000000003863931
 51
268.0000536825014024
  0
LINE
  5
E515
  8
0
 10
4591.5910897359417504
 20
165.7468347935260908
 30
0.0
 11
4593.7386773701518905
 21
165.8218281916560102
 31
0.0
  0
LINE
  5
E516
  8
0
 10
4591.5149906027108955
 20
165.663088323265896
 30
0.0
 11
4591.5663269351844065
 21
165.7336757803516036
 31
0.0
  0
LINE
  5
E517
  8
0
 10
4591.0704426733800574
 20
165.5030056781610028
 30
0.0
 11
4591.4760125137099749
 21
165.6347833074378002
 31
0.0
  0
ARC
  5
E518
  8
0
 10
4591.451909188155696
 20
165.7089657157112015
 30
0.0
 40
0.078
 50
287.9999999943755142
 51
323.9726265907398215
  0
ARC
  5
E519
  8
0
 10
4591.592206489873206
 20
165.714854286015111
 30
0.0
 40
0.032
 50
91.9999463174464722
 51
143.9726265907385141
  0
LINE
  5
E51A
  8
0
 10
4596.1001402358979249
 20
168.1832888448448955
 30
0.0
 11
4596.3218388411942215
 21
174.5319062573454971
 31
0.0
  0
ARC
  5
E51B
  8
0
 10
4593.6532317350238372
 20
168.2687367725878005
 30
0.0
 40
2.448399999999999
 50
271.9999463174985976
 51
357.9999999996135784
  0
LINE
  5
E51C
  8
0
 10
4591.5910897359417504
 20
165.7468347935260908
 30
0.0
 11
4586.8297956108199287
 21
165.7468347935260908
 31
0.0
  0
LINE
  5
E51D
  8
0
 10
4586.9448728330517042
 20
165.6347833074378002
 30
0.0
 11
4591.4760125137099749
 21
165.6347833074378002
 31
0.0
  0
LINE
  5
E51E
  8
0
 10
4597.938267929781432
 20
174.6280749464609983
 30
0.0
 11
4597.938267929781432
 21
174.6254437433609894
 31
0.0
  0
LINE
  5
E51F
  8
0
 10
4597.938267929781432
 20
174.6254437433609894
 30
0.0
 11
4565.0876174171817183
 21
174.6254437433609894
 31
0.0
  0
LINE
  5
E520
  8
0
 10
4565.0876174171817183
 20
174.6254437433609894
 30
0.0
 11
4565.0876174171817183
 21
174.6280749464609983
 31
0.0
  0
LINE
  5
E521
  8
0
 10
4597.938267929781432
 20
174.7261032932609908
 30
0.0
 11
4565.0876174171817183
 21
174.7261032932609908
 31
0.0
  0
LINE
  5
E522
  8
0
 10
4597.938267929781432
 20
174.7454437433609939
 30
0.0
 11
4565.0876174171817183
 21
174.7454437433609939
 31
0.0
  0
LINE
  5
E523
  8
0
 10
4597.938267929781432
 20
174.7261032932609908
 30
0.0
 11
4597.938267929781432
 21
174.7454437433609939
 31
0.0
  0
LINE
  5
E524
  8
0
 10
4565.0876174171817183
 20
174.7454437433609939
 30
0.0
 11
4565.0876174171817183
 21
174.7261032932609908
 31
0.0
  0
LINE
  5
E525
  8
0
 10
4566.6716725360820419
 20
174.5968316297604019
 30
0.0
 11
4566.6430604224806302
 21
174.6254437433609894
 31
0.0
  0
LINE
  5
E526
  8
0
 10
4580.9595746544309804
 20
174.6071934733105877
 30
0.0
 11
4580.9778249244800463
 21
174.6254437433609894
 31
0.0
  0
ARC
  5
E527
  8
0
 10
4581.0387706139235888
 20
174.5279975138176951
 30
0.0
 40
0.112
 50
135.0000000000057128
 51
177.9999999996136069
  0
ARC
  5
E528
  8
0
 10
4566.5924765765894335
 20
174.5176356702675093
 30
0.0
 40
0.112
 50
2.0000000003880309
 51
44.9999999999942375
  0
LINE
  5
E529
  8
0
 10
4582.066310692427578
 20
174.6071934734142985
 30
0.0
 11
4582.0480604224812851
 21
174.6254437433609894
 31
0.0
  0
ARC
  5
E52A
  8
0
 10
4581.9871147329340602
 20
174.5279975139212922
 30
0.0
 40
0.112
 50
2.0000000003880309
 51
45.0000000000541078
  0
LINE
  5
E52B
  8
0
 10
4596.3545746543259156
 20
174.6071934732069906
 30
0.0
 11
4596.3728249244823019
 21
174.6254437433609894
 31
0.0
  0
ARC
  5
E52C
  8
0
 10
4596.433770613820343
 20
174.527997513714098
 30
0.0
 40
0.112
 50
135.0000000000034106
 51
177.9999999996167901
  0
LINE
  5
E52D
  8
0
 10
4580.4251424665299055
 20
174.8044437433609914
 30
0.0
 11
4582.6008343253788553
 21
174.8044437433609914
 31
0.0
  0
ARC
  5
E52E
  8
0
 10
4456.2297625607789087
 20
190.2347255198187952
 30
0.0
 40
125.1367498745988058
 50
352.9271788855185719
 51
353.6482164186381283
  0
ARC
  5
E52F
  8
0
 10
4514.713136742117058
 20
183.7245943837108939
 30
0.0
 40
66.2921506063241566
 50
353.6482164186381283
 51
355.1109342289802271
  0
ARC
  5
E530
  8
0
 10
4523.4079673803853439
 20
182.9808559255774014
 30
0.0
 40
57.5655689890898898
 50
355.1109342289802271
 51
356.8682670969558899
  0
ARC
  5
E531
  8
0
 10
4500.5728652240386509
 20
184.2302454045357081
 30
0.0
 40
80.4348248703134061
 50
356.8682670969558899
 51
357.9644286915008138
  0
ARC
  5
E532
  8
0
 10
4596.3984930129681743
 20
180.8243748550752912
 30
0.0
 40
15.4513101823742591
 50
177.5740694594038018
 51
177.9644286915008138
  0
LINE
  5
E533
  8
0
 10
4580.9808129207649472
 20
181.4973571291610028
 30
0.0
 11
4582.0450724525226178
 21
181.4973571291600933
 31
0.0
  0
ARC
  5
E534
  8
0
 10
4580.9808129207649472
 20
181.4775571291609992
 30
0.0
 40
0.0198
 50
89.9999999999478888
 51
177.574069459395588
  0
LINE
  5
E535
  8
0
 10
4580.9814466104817257
 20
181.4973571291610028
 30
0.0
 11
4580.9814466104817257
 21
181.5296405937610018
 31
0.0
  0
LINE
  5
E536
  8
0
 10
4580.9617173549813742
 20
187.7284201528740084
 30
0.0
 11
4580.9617173549813742
 21
189.2337388318582043
 31
0.0
  0
ARC
  5
E537
  8
0
 10
4581.5328894559615946
 20
189.2139133256293917
 30
0.0
 40
0.5715160712008003
 50
92.01016582081742
 51
178.0120492859140029
  0
ARC
  5
E538
  8
0
 10
4590.8145175490026304
 20
183.988614949105397
 30
0.0
 40
10.1880539296167392
 50
176.5250398058809083
 51
180.5660582499122029
  0
ARC
  5
E539
  8
0
 10
4592.9973140584670546
 20
183.8560668794989112
 30
0.0
 40
12.3748711584878492
 50
173.7878636326611002
 51
176.5250398058809083
  0
ARC
  5
E53A
  8
0
 10
4607.3996909869038063
 20
182.2883812764146967
 30
0.0
 40
26.862317425475819
 50
172.5083029737077993
 51
173.7878636326611002
  0
ARC
  5
E53B
  8
0
 10
4647.5192614654170029
 20
177.0124541732741079
 30
0.0
 40
67.3273065170107401
 50
172.0861413360987058
 51
172.5083029737077993
  0
ARC
  5
E53C
  8
0
 10
4556.6818884480380802
 20
189.639576789788407
 30
0.0
 40
24.3835028909916289
 50
352.0861413360987058
 51
353.2603677485802791
  0
ARC
  5
E53D
  8
0
 10
4572.4773668737907428
 20
187.7729569096042042
 30
0.0
 40
8.4781136007064184
 50
353.2603677485802791
 51
357.0144317936716902
  0
ARC
  5
E53E
  8
0
 10
4577.10253193972585
 20
187.5317304613290901
 30
0.0
 40
3.846662198986134
 50
357.0144317936716902
 51
358.8066264669353131
  0
ARC
  5
E53F
  8
0
 10
4590.5146433344298202
 20
187.1287053501237096
 30
0.0
 40
9.5717319547443758
 50
176.4077923885579082
 51
178.066705555379599
  0
LINE
  5
E540
  8
0
 10
4580.9617173489814377
 20
181.5296405937610018
 30
0.0
 11
4580.9617181082376192
 21
183.6750833263174911
 31
0.0
  0
ARC
  5
E541
  8
0
 10
4580.7572380626788799
 20
183.8908209213340115
 30
0.0
 40
0.1303085852715969
 50
181.2567571051571917
 51
237.4138290160244935
  0
ARC
  5
E542
  8
0
 10
4581.0595315732762174
 20
184.3637555609581966
 30
0.0
 40
0.6916004344070853
 50
237.4138290160244935
 51
251.6018696349902939
  0
ARC
  5
E543
  8
0
 10
4581.1796921281538744
 20
184.7250108728503051
 30
0.0
 40
1.072315497569218
 50
251.6018696349902939
 51
260.6004626216895872
  0
ARC
  5
E544
  8
0
 10
4581.6612529507419822
 20
187.6340297638577113
 30
0.0
 40
4.020923937849056
 50
260.6004626216895872
 51
263.6752485000648107
  0
ARC
  5
E545
  8
0
 10
4581.4095243711772127
 20
185.362896421936199
 30
0.0
 40
1.7358825958691779
 50
263.6752485000648107
 51
268.3273864912659974
  0
ARC
  5
E546
  8
0
 10
4581.6127721131888393
 20
189.7931409155875997
 30
0.0
 40
6.1706138911988848
 50
267.6416617279090246
 51
269.0720646402278931
  0
ARC
  5
E547
  8
0
 10
4581.6227744579873615
 20
186.7004891729687017
 30
0.0
 40
3.0653140441747082
 50
265.1726634412174803
 51
267.9447054007201245
  0
ARC
  5
E548
  8
0
 10
4581.4434295515484337
 20
184.5060211689755931
 30
0.0
 40
0.863558335200688
 50
256.1904780901962795
 51
264.7770291206185789
  0
ARC
  5
E549
  8
0
 10
4581.346963388416043
 20
184.113562872735713
 30
0.0
 40
0.4594182172750769
 50
244.6639959035169909
 51
256.1904780901962795
  0
ARC
  5
E54A
  8
0
 10
4581.1939823793172764
 20
183.7904547078103121
 30
0.0
 40
0.1019240559427895
 50
214.5758641161490914
 51
244.6639959035169909
  0
ARC
  5
E54B
  8
0
 10
4581.1449457870212427
 20
183.753651348915497
 30
0.0
 40
0.0407379780610049
 50
180.9004724926629137
 51
211.0929510995252087
  0
ARC
  5
E54C
  8
0
 10
4599.7426505821549654
 20
183.9495113831630988
 30
0.0
 40
18.6394735392095114
 50
180.4002994045314949
 51
180.6040322858320053
  0
ARC
  5
E54D
  8
0
 10
4581.5323030022327657
 20
182.320432500985504
 30
0.0
 40
1.5317876098440619
 50
90.7280154749138319
 51
95.342783158513285
  0
ARC
  5
E54E
  8
0
 10
4581.4921630208964416
 20
182.7496435577911029
 30
0.0
 40
1.100703686012684
 50
95.342783158513285
 51
102.9647568050577036
  0
ARC
  5
E54F
  8
0
 10
4581.3367169471275702
 20
183.4248490651708039
 30
0.0
 40
0.4078357627793001
 50
102.9647568050577036
 51
116.9820118108872009
  0
ARC
  5
E550
  8
0
 10
4581.1932195448616767
 20
183.7066972916134944
 30
0.0
 40
0.0915606812342273
 50
116.9820118108864051
 51
141.8478602930204033
  0
ARC
  5
E551
  8
0
 10
4581.14702744691931
 20
183.7429844504723064
 30
0.0
 40
0.0328199984810578
 50
141.8478602930229044
 51
173.1541981328491033
  0
ARC
  5
E552
  8
0
 10
4581.1429188363408684
 20
183.7434777040369909
 30
0.0
 40
0.028681885389092
 50
173.1541981328458917
 51
211.315242796487297
  0
ARC
  5
E553
  8
0
 10
4581.2094617845850735
 20
183.7839607018701997
 30
0.0
 40
0.1065717889366271
 50
211.315242796487297
 51
226.7782537290975995
  0
ARC
  5
E554
  8
0
 10
4581.5214459613798681
 20
184.9606199134661892
 30
0.0
 40
1.3043902985646061
 50
267.0337316589333909
 51
269.6219840585375778
  0
ARC
  5
E555
  8
0
 10
4581.5115897277082695
 20
184.7704092160190896
 30
0.0
 40
1.113924409845656
 50
261.1754831256118905
 51
267.0337316589333909
  0
ARC
  5
E556
  8
0
 10
4581.4306755018133117
 20
184.2492103665609875
 30
0.0
 40
0.5864821356310822
 50
252.4755862254106944
 51
261.1754831256118905
  0
ARC
  5
E557
  8
0
 10
4581.3207524370536703
 20
183.9010962320735132
 30
0.0
 40
0.2214252485629645
 50
239.7857429894145014
 51
252.4755862254106944
  0
ARC
  5
E558
  8
0
 10
4581.2467539998679058
 20
183.7740269270072986
 30
0.0
 40
0.0743797556163209
 50
218.5802436198898988
 51
239.7857429894145014
  0
ARC
  5
E559
  8
0
 10
4581.2090225470228688
 20
183.7439275994294974
 30
0.0
 40
0.0261134935431304
 50
160.3487711328747878
 51
218.5802436198912062
  0
ARC
  5
E55A
  8
0
 10
4581.2181577566261694
 20
183.740665491117511
 30
0.0
 40
0.0358136690628969
 50
123.9328389554029002
 51
160.3487711328764078
  0
ARC
  5
E55B
  8
0
 10
4581.3402326033483405
 20
183.5592236789736091
 30
0.0
 40
0.2544992867810963
 50
111.2283196731730044
 51
123.9328389554029002
  0
ARC
  5
E55C
  8
0
 10
4581.4283023119369318
 20
183.2695042891409969
 30
0.0
 40
0.5569157976767791
 50
99.5948548396912514
 51
108.8810192492890963
  0
ARC
  5
E55D
  8
0
 10
4581.5131063266089768
 20
182.7873976660065125
 30
0.0
 40
1.046418464284715
 50
93.4075134440552262
 51
99.77335713090919
  0
ARC
  5
E55E
  8
0
 10
4581.5742953197595853
 20
181.433080204883197
 30
0.0
 40
2.4020569292338241
 50
91.4660361430975684
 51
92.944379416966683
  0
ARC
  5
E55F
  8
0
 10
4581.521694872457374
 20
184.9166021896458005
 30
0.0
 40
1.2331489541223819
 50
267.4046274674515757
 51
269.5885800613148149
  0
ARC
  5
E560
  8
0
 10
4581.5181584759102407
 20
184.8385856466281041
 30
0.0
 40
1.155052301921571
 50
265.9779462587976013
 51
267.4046274674515757
  0
ARC
  5
E561
  8
0
 10
4580.4615772654733519
 20
184.7647525132061901
 30
0.0
 40
1.4541729981366831
 50
312.0610546991297269
 51
312.134475467373818
  0
ARC
  5
E562
  8
0
 10
4581.5067950198326798
 20
184.7103223227506135
 30
0.0
 40
1.0276515114442291
 50
262.4527492361344798
 51
266.0363422234431141
  0
ARC
  5
E563
  8
0
 10
4581.3819313835119829
 20
183.673902104280188
 30
0.0
 40
0.0203600053090703
 50
112.4058869713088029
 51
119.7792437408506032
  0
ARC
  5
E564
  8
0
 10
4581.4783815487471657
 20
184.4749449123669933
 30
0.0
 40
0.7891310105958393
 50
258.8831862792824836
 51
262.4114945245262902
  0
ARC
  5
E565
  8
0
 10
4581.406304954261941
 20
184.1192970203258881
 30
0.0
 40
0.4262647991949184
 50
247.418414632813807
 51
259.1724073032150955
  0
ARC
  5
E566
  8
0
 10
4581.3600089628725982
 20
182.9131069806711025
 30
0.0
 40
0.8210406349591542
 50
98.2200901662003645
 51
98.5287102762932392
  0
ARC
  5
E567
  8
0
 10
4581.2918552809878747
 20
183.8436621537518931
 30
0.0
 40
0.1301484433172142
 50
231.7875068229284921
 51
245.6745042711706901
  0
ARC
  5
E568
  8
0
 10
4581.1930777624938855
 20
183.9907610555434019
 30
0.0
 40
0.2500278302095773
 50
274.1905198923079752
 51
275.2903242886059161
  0
ARC
  5
E569
  8
0
 10
4581.2422233538718501
 20
183.774972252613594
 30
0.0
 40
0.0422057711258391
 50
204.0113681788280928
 51
231.8137952121807928
  0
ARC
  5
E56A
  8
0
 10
4581.22490833230313
 20
183.7663348833443138
 30
0.0
 40
0.0228899798321826
 50
180.4314278677393872
 51
201.8979264872573935
  0
ARC
  5
E56B
  8
0
 10
111051.8881774212932214
 20
647.1471861628181159
 30
0.0
 40
106471.6945155745052034
 50
180.249357115074389
 51
180.2493607422755986
  0
ARC
  5
E56C
  8
0
 10
4581.5229637057882428
 20
181.9511644846261902
 30
0.0
 40
2.0413611609785929
 50
90.2841398767453143
 51
96.4469263990769718
  0
ARC
  5
E56D
  8
0
 10
4581.4573718678011574
 20
182.5316367212641921
 30
0.0
 40
1.457194826174727
 50
96.4469263990769718
 51
101.1069952116573063
  0
ARC
  5
E56E
  8
0
 10
4581.3816013726082019
 20
182.9175927333762104
 30
0.0
 40
1.0638715351952619
 50
101.1069952116573063
 51
107.7053236419226039
  0
ARC
  5
E56F
  8
0
 10
4581.1676093993637551
 20
183.5879031623196056
 30
0.0
 40
0.3602319713818324
 50
107.7053236419226039
 51
122.0195396420342036
  0
ARC
  5
E570
  8
0
 10
4581.0332852102628749
 20
183.8027037610962111
 30
0.0
 40
0.1068897423468172
 50
122.0195396420342036
 51
138.815818853026002
  0
ARC
  5
E571
  8
0
 10
4580.9953815962699082
 20
183.8358673863162096
 30
0.0
 40
0.0565259657665498
 50
138.8158188530271957
 51
166.3663555619359045
  0
ARC
  5
E572
  8
0
 10
4580.9650073789907765
 20
183.8432345653469042
 30
0.0
 40
0.0252710717139903
 50
166.3663555619390877
 51
199.703632240857786
  0
ARC
  5
E573
  8
0
 10
4581.0188846719693174
 20
183.8625292825809936
 30
0.0
 40
0.0824991138945444
 50
199.703632240857786
 51
224.7163983231280042
  0
ARC
  5
E574
  8
0
 10
4581.0267509793793579
 20
183.8765892823062131
 30
0.0
 40
0.1090632944693726
 50
215.3136832253431976
 51
233.1163823691323955
  0
ARC
  5
E575
  8
0
 10
4580.9758816210933219
 20
183.8359814129634913
 30
0.0
 40
0.0442380414799391
 50
149.5241389560198115
 51
210.4758610439801885
  0
ARC
  5
E576
  8
0
 10
4581.0292545558850179
 20
183.8003786210391866
 30
0.0
 40
0.1083542900131965
 50
119.2683821210815012
 51
147.6124605300259134
  0
ARC
  5
E577
  8
0
 10
4581.1230067853612127
 20
183.6614223415809874
 30
0.0
 40
0.2757547967731793
 50
108.9195203206789984
 51
122.1468737888632035
  0
ARC
  5
E578
  8
0
 10
4581.5329377696889424
 20
181.2026010306703938
 30
0.0
 40
2.8504059834740629
 50
90.403980948917706
 51
96.3206326048545947
  0
ARC
  5
E579
  8
0
 10
4581.4314920918832286
 20
182.1184605961304896
 30
0.0
 40
1.928945203413307
 50
96.3206326048545947
 51
103.8525320063681932
  0
ARC
  5
E57A
  8
0
 10
4581.1507736476460195
 20
183.2568347071996016
 30
0.0
 40
0.7564698468758579
 50
103.8525320063681932
 51
113.859206647366193
  0
ARC
  5
E57B
  8
0
 10
4580.9597683477795727
 20
183.6886925101740076
 30
0.0
 40
0.284257832451198
 50
113.859206647366193
 51
132.4421137230910119
  0
ARC
  5
E57C
  8
0
 10
4580.8000901105706362
 20
183.8633045714123
 30
0.0
 40
0.0476431427811686
 50
132.4421137230910119
 51
164.4315454184929877
  0
ARC
  5
E57D
  8
0
 10
4580.7969484495806682
 20
183.8641798746591007
 30
0.0
 40
0.0443818256320126
 50
164.431545418491396
 51
218.3049178792159069
  0
ARC
  5
E57E
  8
0
 10
4581.5388781123519948
 20
180.9810308038464939
 30
0.0
 40
3.0728804247042332
 50
90.4854971116082538
 51
90.9727032898418457
  0
ARC
  5
E57F
  8
0
 10
4581.5385649219851985
 20
180.9994770889803135
 30
0.0
 40
3.0544314810097002
 50
90.9727032898418457
 51
91.9960905920478211
  0
ARC
  5
E580
  8
0
 10
4581.53407658409742
 20
181.1282582024998078
 30
0.0
 40
2.925572176431722
 50
91.9960905920478211
 51
94.9267671146502749
  0
ARC
  5
E581
  8
0
 10
4581.4859824457007562
 20
181.6861892213053125
 30
0.0
 40
2.365572115812538
 50
94.9267671146502749
 51
99.8716796471639441
  0
ARC
  5
E582
  8
0
 10
4581.3118875779391601
 20
182.68662724477079
 30
0.0
 40
1.350099190631219
 50
99.8716796471639441
 51
108.2881044190167046
  0
ARC
  5
E583
  8
0
 10
4581.0375334042873874
 20
183.5167757369636945
 30
0.0
 40
0.4757899022836246
 50
108.2881044190167046
 51
122.5905969025053963
  0
ARC
  5
E584
  8
0
 10
4580.8723248551996221
 20
183.7802376716014976
 30
0.0
 40
0.1648481209320281
 50
123.5340135007601958
 51
140.2548430695532033
  0
ARC
  5
E585
  8
0
 10
4580.7985397561706122
 20
183.8422390671894959
 30
0.0
 40
0.0684747802142257
 50
140.6701580072625006
 51
200.2936269454885974
  0
ARC
  5
E586
  8
0
 10
4580.8915094242856867
 20
183.9280559949438043
 30
0.0
 40
0.1916108167503461
 50
214.876956780287486
 51
243.4630713513641922
  0
ARC
  5
E587
  8
0
 10
4581.1252199278878834
 20
184.3862459265068026
 30
0.0
 40
0.7059583686187584
 50
243.1075290947144083
 51
257.8468330308829195
  0
ARC
  5
E588
  8
0
 10
4581.4373335216087071
 20
185.7071574029245937
 30
0.0
 40
2.0631510461368978
 50
257.0960874181729992
 51
261.6475647408914256
  0
ARC
  5
E589
  8
0
 10
4581.4373335216087071
 20
185.7071574029245937
 30
0.0
 40
2.0631510461368978
 50
262.753916840557622
 51
264.3675846831878857
  0
ARC
  5
E58A
  8
0
 10
4581.4373335216087071
 20
185.7071574029245937
 30
0.0
 40
2.0631510461368978
 50
266.2296169223291145
 51
267.8446608436433962
  0
ARC
  5
E58B
  8
0
 10
4581.4733235910116491
 20
185.9351543808386111
 30
0.0
 40
2.2916883550272109
 50
261.0937872572358742
 51
261.4435203018429092
  0
ARC
  5
E58C
  8
0
 10
4581.4733235910116491
 20
185.9351543808386111
 30
0.0
 40
2.2916883550272109
 50
262.7163905311136887
 51
264.0157639636065028
  0
ARC
  5
E58D
  8
0
 10
4581.4733235910116491
 20
185.9351543808386111
 30
0.0
 40
2.2916883550272109
 50
265.7179322307005123
 51
267.1537222682587753
  0
ARC
  5
E58E
  8
0
 10
4581.329517663819388
 20
185.0174799601163045
 30
0.0
 40
1.3628145815015
 50
252.098344583768494
 51
261.0937872572358742
  0
ARC
  5
E58F
  8
0
 10
4581.032915118326855
 20
184.0992715108156972
 30
0.0
 40
0.3978898039364271
 50
232.8583158327267881
 51
252.098344583768494
  0
ARC
  5
E590
  8
0
 10
4580.8435324473830406
 20
183.8492410340261074
 30
0.0
 40
0.0842322910694873
 50
211.5208590955824093
 51
232.8583158327267881
  0
ARC
  5
E591
  8
0
 10
4580.8574067714562261
 20
183.8577501801968026
 30
0.0
 40
0.100508114767667
 50
198.7975238117666947
 51
211.5208590955809882
  0
ARC
  5
E592
  8
0
 10
4589.3562323807000212
 20
183.9172654436179073
 30
0.0
 40
8.5951977686993928
 50
180.1774216399745967
 51
180.3898564704130081
  0
ARC
  5
E593
  8
0
 10
4580.7691486990843259
 20
183.8588356285546865
 30
0.0
 40
0.007915299934882
 50
180.3898564704130081
 51
267.7165659367313992
  0
ARC
  5
E594
  8
0
 10
4580.7638053277869403
 20
183.7248310937376914
 30
0.0
 40
0.126195724848108
 50
74.4914354445094915
 51
87.7165659367314419
  0
ARC
  5
E595
  8
0
 10
4580.7841531482599748
 20
183.7981603974708946
 30
0.0
 40
0.0500956553082428
 50
58.252923343195107
 51
74.4914354445094915
  0
ARC
  5
E596
  8
0
 10
4580.7866301178455615
 20
183.8631988386179046
 30
0.0
 40
0.0327691150834622
 50
276.6187359829431216
 51
316.7852678455205933
  0
ARC
  5
E597
  8
0
 10
4580.7563069309253478
 20
183.9831149599997957
 30
0.0
 40
0.1562336731584695
 50
274.2385947778006994
 51
282.607102436920286
  0
ARC
  5
E598
  8
0
 10
4580.7681581298211313
 20
183.8174137008529101
 30
0.0
 40
0.0098995659172392
 50
91.7595751292924007
 51
126.5734971598342042
  0
LINE
  5
E599
  8
0
 10
4580.7622594392305473
 20
183.8253639747275088
 30
0.0
 11
4580.7618881928519841
 21
183.8556833242685968
 31
0.0
  0
ARC
  5
E59A
  8
0
 10
4581.0072549001151856
 20
183.8486096392396121
 30
0.0
 40
0.0616769175500769
 50
199.5099659284942959
 51
219.9179164528883916
  0
ARC
  5
E59B
  8
0
 10
4580.9890844772617129
 20
183.8421715979553142
 30
0.0
 40
0.0423996604263433
 50
179.7890601709667919
 51
199.5099659284942959
  0
ARC
  5
E59C
  8
0
 10
4579.7689903060991128
 20
183.8466635102890905
 30
0.0
 40
1.1777027794450849
 50
359.7890601709668204
 51
0.8608243956813131
  0
ARC
  5
E59D
  8
0
 10
4581.3916168738578563
 20
183.978438448291314
 30
0.0
 40
0.099379385505591
 50
249.7475493088421103
 51
288.5881709101220736
  0
ARC
  5
E59E
  8
0
 10
4581.3890256009117365
 20
183.8000326707118006
 30
0.0
 40
0.0909166851549042
 50
67.8559561313553843
 51
110.4797640876180935
  0
ARC
  5
E59F
  8
0
 10
4581.3909938890219564
 20
183.9333164344604938
 30
0.0
 40
0.0515644762375409
 50
248.8069483898505041
 51
289.6658113340761247
  0
ARC
  5
E5A0
  8
0
 10
4581.3897038156173949
 20
183.8365256596761128
 30
0.0
 40
0.0517115744698613
 50
68.8676445808607127
 51
109.6051151430560964
  0
ARC
  5
E5A1
  8
0
 10
4581.2663788156396549
 20
183.9645882223518072
 30
0.0
 40
0.099379385505591
 50
249.7475493088421103
 51
288.5881709101220736
  0
ARC
  5
E5A2
  8
0
 10
4581.2637875426926257
 20
183.7861824447724075
 30
0.0
 40
0.0909166851549042
 50
67.8559561313553843
 51
110.4797640876180935
  0
ARC
  5
E5A3
  8
0
 10
4581.2657558308028456
 20
183.9194662085211007
 30
0.0
 40
0.0515644762375409
 50
248.8069483898505041
 51
289.6658113340761247
  0
ARC
  5
E5A4
  8
0
 10
4581.264465757398284
 20
183.8226754337366913
 30
0.0
 40
0.0517115744698613
 50
68.8676445808607127
 51
109.6051151430560964
  0
ARC
  5
E5A5
  8
0
 10
4581.1633542442023099
 20
183.9334660791558917
 30
0.0
 40
0.0897055694702476
 50
243.6526485217679863
 51
286.7459399079780837
  0
ARC
  5
E5A6
  8
0
 10
4581.1502770176712147
 20
183.7777565446870085
 30
0.0
 40
0.0799265990478785
 50
60.8566591834043109
 51
109.5419292463230931
  0
ARC
  5
E5A7
  8
0
 10
4581.1600323421316716
 20
183.8938279301025887
 30
0.0
 40
0.0468683289910712
 50
242.6071216206626957
 51
287.7767724981690094
  0
ARC
  5
E5A8
  8
0
 10
4581.152674904585183
 20
183.8085206480459988
 30
0.0
 40
0.0459455860964054
 50
61.9035497095184013
 51
108.010776232340703
  0
ARC
  5
E5A9
  8
0
 10
4581.0814126090872378
 20
183.9046601602601072
 30
0.0
 40
0.0882172402847857
 50
241.5667783087102976
 51
285.3191144213930102
  0
ARC
  5
E5AA
  8
0
 10
4581.0646707094329031
 20
183.7590080340517034
 30
0.0
 40
0.0726121053885108
 50
56.5273129554606086
 51
110.3585797746171977
  0
ARC
  5
E5AB
  8
0
 10
4581.0766131765358296
 20
183.8624609228099018
 30
0.0
 40
0.0425349852436163
 50
238.1629473888646089
 51
288.1988216726796281
  0
ARC
  5
E5AC
  8
0
 10
4581.0671044165319472
 20
183.7846862090885054
 30
0.0
 40
0.043600004844462
 50
58.4817673595725509
 51
107.2492516476804951
  0
ARC
  5
E5AD
  8
0
 10
4581.029180559859924
 20
183.8649563035453127
 30
0.0
 40
0.080078259431567
 50
234.9705590890235101
 51
284.7285605494075185
  0
ARC
  5
E5AE
  8
0
 10
4581.0045125432552595
 20
183.7271735212515011
 30
0.0
 40
0.0752851286342994
 50
53.2669291681018109
 51
106.4321904703544988
  0
ARC
  5
E5AF
  8
0
 10
4581.0246516021470597
 20
183.8326620548967867
 30
0.0
 40
0.0440031037408087
 50
234.8880762351762996
 51
283.405091410959983
  0
ARC
  5
E5B0
  8
0
 10
4581.0107279673557059
 20
183.7600397079557126
 30
0.0
 40
0.038355411622276
 50
51.024555597376299
 51
107.2686120487878014
  0
ARC
  5
E5B1
  8
0
 10
4581.0083239628929732
 20
183.8256541336041039
 30
0.0
 40
0.0739004284471121
 50
231.9592745067060946
 51
284.6451867177572126
  0
ARC
  5
E5B2
  8
0
 10
4580.9837111246288259
 20
183.7067799273368962
 30
0.0
 40
0.0641796282149913
 50
47.574861773926628
 51
109.029599450540104
  0
ARC
  5
E5B3
  8
0
 10
4581.0022684061223117
 20
183.7941715752791083
 30
0.0
 40
0.0380815088639204
 50
229.1021639758799893
 51
285.7352777951235794
  0
ARC
  5
E5B4
  8
0
 10
4580.9875372128371964
 20
183.7281667086816981
 30
0.0
 40
0.0385925516069286
 50
49.5101912211630832
 51
105.3272505498709961
  0
ARC
  5
E5B5
  8
0
 10
4581.0258878246622771
 20
183.7827614543795107
 30
0.0
 40
0.0648450507464964
 50
229.1877727572569938
 51
290.2109168328275928
  0
ARC
  5
E5B6
  8
0
 10
4581.0060486218771985
 20
183.6736004687886918
 30
0.0
 40
0.0641722879586443
 50
48.8331376896317622
 51
110.5655519004679945
  0
ARC
  5
E5B7
  8
0
 10
4581.0204876015895934
 20
183.7547581550786902
 30
0.0
 40
0.0322137413730178
 50
226.3642546641530089
 51
292.4497952778190779
  0
ARC
  5
E5B8
  8
0
 10
4581.009964972873604
 20
183.6984928331330025
 30
0.0
 40
0.0349688311354335
 50
49.2544005589688965
 51
109.5596493830095994
  0
ARC
  5
E5B9
  8
0
 10
4581.0656315532996814
 20
183.6553973264346951
 30
0.0
 40
0.0516523256941631
 50
41.4911584647467606
 51
119.5742618713380949
  0
ARC
  5
E5BA
  8
0
 10
4581.0820404395071819
 20
183.753798032134199
 30
0.0
 40
0.0679385782602494
 50
231.9199147593458008
 51
289.1455055767535214
  0
ARC
  5
E5BB
  8
0
 10
4581.0769241409961978
 20
183.7237372047935082
 30
0.0
 40
0.0329101003378223
 50
227.9275771757284019
 51
294.2415484791284825
  0
ARC
  5
E5BC
  8
0
 10
4581.0683349934506623
 20
183.668984573935802
 30
0.0
 40
0.0331777837819213
 50
48.2290666892300166
 51
113.9400589656150942
  0
ARC
  5
E5BD
  8
0
 10
4581.3428464374901523
 20
183.9604510846641858
 30
0.0
 40
0.0062360408632602
 50
129.7027563328624069
 51
202.2899058228979072
  0
ARC
  5
E5BE
  8
0
 10
4581.3916717624642843
 20
183.8412884497589914
 30
0.0
 40
0.1347404066352614
 50
66.4128641644604016
 51
113.0747033404768018
  0
ARC
  5
E5BF
  8
0
 10
4581.4431284710753971
 20
183.9618636599718968
 30
0.0
 40
0.0038081326818824
 50
338.2303280363333897
 51
49.7848111720870889
  0
ARC
  5
E5C0
  8
0
 10
4581.3197641291108084
 20
183.9481630728207904
 30
0.0
 40
0.0047318239006903
 50
342.8918333441582718
 51
55.3981276595972716
  0
ARC
  5
E5C1
  8
0
 10
4581.2716607516649674
 20
183.8308994241743903
 30
0.0
 40
0.1313737050166809
 50
67.2562473662115963
 51
115.711290550514093
  0
ARC
  5
E5C2
  8
0
 10
4581.218286520392212
 20
183.947061952280194
 30
0.0
 40
0.0042386213696581
 50
148.6679597582686085
 51
192.8141524594998089
  0
ARC
  5
E5C3
  8
0
 10
4581.1894086227312073
 20
183.8848641588118085
 30
0.0
 40
0.0542117389059538
 50
58.4950078828206017
 51
83.9565349166822301
  0
ARC
  5
E5C4
  8
0
 10
4581.169691859176055
 20
183.6986308148850924
 30
0.0
 40
0.2414858939706828
 50
83.9565349166822301
 51
100.9835036794718945
  0
ARC
  5
E5C5
  8
0
 10
4581.1289244908675755
 20
183.908683609899299
 30
0.0
 40
0.0275135709658461
 50
100.983503679472193
 51
132.2577720983323104
  0
ARC
  5
E5C6
  8
0
 10
4581.1139093245074037
 20
183.92520951417589
 30
0.0
 40
0.0051850973732357
 50
132.2577720983333904
 51
204.1148760067993919
  0
ARC
  5
E5C7
  8
0
 10
4581.0883135835565554
 20
183.7385002494524997
 30
0.0
 40
0.1748752971454402
 50
82.362650695564156
 51
107.907138846106804
  0
ARC
  5
E5C8
  8
0
 10
4581.0378582964385714
 20
183.8946463038678871
 30
0.0
 40
0.0107798179031682
 50
107.9071388460562986
 51
145.1331216196653884
  0
ARC
  5
E5C9
  8
0
 10
4581.0338173015052234
 20
183.8974618695081915
 30
0.0
 40
0.0058546732430171
 50
145.1331216196452942
 51
197.6251006514847859
  0
ARC
  5
E5CA
  8
0
 10
4581.0255843583599926
 20
183.7819737135845912
 30
0.0
 40
0.0995266658664818
 50
88.1667480877630254
 51
118.3699322273728995
  0
ARC
  5
E5CB
  8
0
 10
4580.9817238273699331
 20
183.8658574208301957
 30
0.0
 40
0.0050382235816094
 50
132.9184216219950088
 51
182.3895803513615022
  0
ARC
  5
E5CC
  8
0
 10
4580.9858280218759319
 20
183.8001524009683862
 30
0.0
 40
0.043908871880115
 50
100.7926789266767003
 51
125.3424206914980061
  0
ARC
  5
E5CD
  8
0
 10
4580.9632433515644152
 20
183.8319998512945972
 30
0.0
 40
0.004866235885778
 50
125.3424206915073995
 51
189.0401924306329136
  0
ARC
  5
E5CE
  8
0
 10
4581.0855343161838391
 20
183.8009402644005092
 30
0.0
 40
0.0047102082510423
 50
335.668935733798719
 51
61.525912756474213
  0
ARC
  5
E5CF
  8
0
 10
4581.057427251154877
 20
183.7491176121149863
 30
0.0
 40
0.0636643802355119
 50
61.5259127564734385
 51
85.9985662861570148
  0
ARC
  5
E5D0
  8
0
 10
4581.3965750474499146
 20
183.6858751905230918
 30
0.0
 40
0.0591393494235422
 50
233.7829256356052099
 51
301.2136407993168064
  0
ARC
  5
E5D1
  8
0
 10
4581.3924465200580016
 20
183.5913813397407921
 30
0.0
 40
0.0560175165167829
 50
51.6245399340404489
 51
64.996015107676044
  0
ARC
  5
E5D2
  8
0
 10
4581.3924465200580016
 20
183.5913813397407921
 30
0.0
 40
0.0560175165167829
 50
106.530328243490203
 51
123.372026500878107
  0
ARC
  5
E5D3
  8
0
 10
4581.3954890880504536
 20
183.6609281650167986
 30
0.0
 40
0.0292760843000129
 50
229.5556700505624121
 51
305.4224890275813777
  0
ARC
  5
E5D4
  8
0
 10
4581.3938690199465782
 20
183.6239840899006026
 30
0.0
 40
0.0227332825407993
 50
35.1469197592456908
 51
55.8880524577005886
  0
ARC
  5
E5D5
  8
0
 10
4581.3938690199465782
 20
183.6239840899006026
 30
0.0
 40
0.0227332825407993
 50
115.6015157046263937
 51
139.8312393189175111
  0
ARC
  5
E5D6
  8
0
 10
4581.2720672102177559
 20
183.6993614100088905
 30
0.0
 40
0.0602721861517792
 50
232.5055314509062043
 51
298.5298529390666999
  0
ARC
  5
E5D7
  8
0
 10
4581.2653111432646256
 20
183.6131772091966923
 30
0.0
 40
0.0486580546296943
 50
43.074511005616543
 51
63.5930725547127977
  0
ARC
  5
E5D8
  8
0
 10
4581.2653111432646256
 20
183.6131772091966923
 30
0.0
 40
0.0486580546296943
 50
93.8426488858093961
 51
127.9608733843344055
  0
ARC
  5
E5D9
  8
0
 10
4581.2701103175841126
 20
183.674489758431406
 30
0.0
 40
0.0304194336974727
 50
229.257971080442104
 51
301.8108549136229044
  0
ARC
  5
E5DA
  8
0
 10
4581.2662886207781412
 20
183.6255547484209956
 30
0.0
 40
0.0304496301022006
 50
49.2996619165818402
 51
121.7691640774936985
  0
ARC
  5
E5DB
  8
0
 10
4581.164986606569073
 20
183.7187852414811005
 30
0.0
 40
0.0595479930444658
 50
228.8655821772694878
 51
296.0056492976390246
  0
ARC
  5
E5DC
  8
0
 10
4581.1525487237950074
 20
183.625123566690803
 30
0.0
 40
0.0556537754889718
 50
46.1616166538595394
 51
118.7096148210438997
  0
ARC
  5
E5DD
  8
0
 10
4581.1615736838166413
 20
183.6956985978827106
 30
0.0
 40
0.0314956695709863
 50
228.5435280750486982
 51
298.1969682226146006
  0
ARC
  5
E5DE
  8
0
 10
4581.1556028667482678
 20
183.6443279804960014
 30
0.0
 40
0.0315021800296975
 50
48.5517656639142885
 51
118.1887306337521011
  0
LINE
  5
E5DF
  8
0
 10
4581.4466650163822123
 20
183.9604513137610127
 30
0.0
 11
4581.4232954074777808
 21
183.8842432638541879
 31
0.0
  0
LINE
  5
E5E0
  8
0
 10
4581.3370763750799597
 20
183.9580857970609884
 30
0.0
 11
4581.3572159854584243
 21
183.8852030411717919
 31
0.0
  0
LINE
  5
E5E1
  8
0
 10
4581.29805734925867
 20
183.8703930379147096
 30
0.0
 11
4581.3242865749807606
 21
183.9467710811609891
 31
0.0
  0
LINE
  5
E5E2
  8
0
 10
4581.2319779272393134
 20
183.8713528152323988
 30
0.0
 11
4581.2141534635811695
 21
183.9461218711610115
 31
0.0
  0
LINE
  5
E5E3
  8
0
 10
4581.1091767402813275
 20
183.9230910521609985
 30
0.0
 11
4581.1235418421956638
 21
183.8530791284698012
 31
0.0
  0
LINE
  5
E5E4
  8
0
 10
4581.1892009674811561
 20
183.8475647631611025
 30
0.0
 11
4581.2191711406003378
 21
183.9250740022960997
 31
0.0
  0
LINE
  5
E5E5
  8
0
 10
4581.0282374576800066
 20
183.8956891479610078
 30
0.0
 11
4581.0394093662644082
 21
183.8270843323514043
 31
0.0
  0
LINE
  5
E5E6
  8
0
 10
4581.104719147083415
 20
183.8195773372573001
 30
0.0
 11
4581.1221585437542672
 21
183.8598209800474876
 31
0.0
  0
LINE
  5
E5E7
  8
0
 10
4580.9766899848809771
 20
183.8656473573610981
 30
0.0
 11
4580.9832158572089611
 21
183.7993836435121011
 31
0.0
  0
LINE
  5
E5E8
  8
0
 10
4581.0495396623382476
 20
183.7875093243926017
 30
0.0
 11
4581.0645424175017979
 21
183.8180710263036985
 31
0.0
  0
LINE
  5
E5E9
  8
0
 10
4580.9584375623062442
 20
183.8312352328848931
 30
0.0
 11
4580.9627849349753888
 21
183.7674521554515934
 31
0.0
  0
LINE
  5
E5EA
  8
0
 10
4581.0270083907817025
 20
183.7541547246609923
 30
0.0
 11
4581.0404574479653093
 21
183.7856760447903071
 31
0.0
  0
LINE
  5
E5EB
  8
0
 10
4581.0482902987905618
 20
183.7219090940369881
 30
0.0
 11
4581.0898261638812983
 21
183.7989996188609894
 31
0.0
  0
LINE
  5
E5EC
  8
0
 10
4580.983506257877707
 20
183.7336831149287946
 30
0.0
 11
4580.9814137875819142
 21
183.7568274252028004
 31
0.0
  0
LINE
  5
E5ED
  8
0
 10
4581.1043221391855695
 20
183.6896172228888133
 30
0.0
 11
4581.1195811750776556
 21
183.7207914177105863
 31
0.0
  0
LINE
  5
E5EE
  8
0
 10
4581.0401384846009023
 20
183.700320218126194
 30
0.0
 11
4581.0375242536283622
 21
183.7189690243642985
 31
0.0
  0
LINE
  5
E5EF
  8
0
 10
4581.1910960055865871
 20
183.665266433960312
 30
0.0
 11
4581.1971705779942567
 21
183.679250528552501
 31
0.0
  0
LINE
  5
E5F0
  8
0
 10
4581.1258142815513565
 20
183.6739355767296047
 30
0.0
 11
4581.1177520168257615
 21
183.7170544492628039
 31
0.0
  0
LINE
  5
E5F1
  8
0
 10
4581.3008542060806576
 20
183.6464081731610065
 30
0.0
 11
4581.3037691179579269
 21
183.6538310718821947
 31
0.0
  0
LINE
  5
E5F2
  8
0
 10
4581.2353804445810965
 20
183.6515407277611871
 30
0.0
 11
4581.2315445672065835
 21
183.668879171578709
 31
0.0
  0
LINE
  5
E5F3
  8
0
 10
4581.42722287018114
 20
183.6352967997609937
 30
0.0
 11
4581.4293450907707665
 21
183.6412841668742999
 31
0.0
  0
LINE
  5
E5F4
  8
0
 10
4581.3616327923809877
 20
183.6381624934610102
 30
0.0
 11
4581.3594585243190522
 21
183.6465551342303968
 31
0.0
  0
ARC
  5
E5F5
  8
0
 10
4581.7343639221808189
 20
174.7566463089029867
 30
0.0
 40
9.3656489451119942
 50
91.3553306311288651
 51
92.3908165186025059
  0
ARC
  5
E5F6
  8
0
 10
4581.8892148193099274
 20
177.485886599282793
 30
0.0
 40
6.6506689363474596
 50
94.7051678307846743
 51
97.006989011737943
  0
ARC
  5
E5F7
  8
0
 10
4581.2348186503922989
 20
182.8101464490837884
 30
0.0
 40
1.286344440747043
 50
97.006989011737943
 51
107.3599307206409037
  0
ARC
  5
E5F8
  8
0
 10
4581.2213758339821652
 20
182.853147891532501
 30
0.0
 40
1.2412907686914281
 50
107.3599307206409037
 51
113.2124607816736983
  0
ARC
  5
E5F9
  8
0
 10
4580.8266131914479047
 20
183.7736452092875936
 30
0.0
 40
0.2397155813317458
 50
113.2124607816736983
 51
137.5359438062839104
  0
ARC
  5
E5FA
  8
0
 10
4580.72111322953333
 20
183.8701964267368112
 30
0.0
 40
0.0967037651938461
 50
137.5359438062826882
 51
160.6506086919874008
  0
ARC
  5
E5FB
  8
0
 10
4580.6803612289631928
 20
183.884507024394992
 30
0.0
 40
0.0535121137349278
 50
160.6506086919889924
 51
176.2972041069290867
  0
ARC
  5
E5FC
  8
0
 10
4581.5349064851061485
 20
181.2208834811351039
 30
0.0
 40
2.814746371008686
 50
91.6098348724031979
 51
94.3235294259323069
  0
ARC
  5
E5FD
  8
0
 10
4581.5014483100367215
 20
181.6634321592646018
 30
0.0
 40
2.3709347195244561
 50
94.3235294259323069
 51
99.206019195766757
  0
ARC
  5
E5FE
  8
0
 10
4581.3500076338459621
 20
182.5978331444204912
 30
0.0
 40
1.4243411005592801
 50
99.206019195766757
 51
105.737225744515797
  0
ARC
  5
E5FF
  8
0
 10
4581.1468200935760251
 20
183.3188971429298988
 30
0.0
 40
0.6751959434186839
 50
105.737225744515797
 51
117.1264287038037963
  0
ARC
  5
E600
  8
0
 10
4580.9228660567659972
 20
183.756044358706788
 30
0.0
 40
0.1840207212574624
 50
117.1264287038037963
 51
141.8779039857842861
  0
ARC
  5
E601
  8
0
 10
4580.818297589858048
 20
183.8381016498292126
 30
0.0
 40
0.0510998301314576
 50
141.8779039857855935
 51
165.4645716970408102
  0
ARC
  5
E602
  8
0
 10
4581.4808590322818418
 20
184.0686040457283923
 30
0.0
 40
0.0418925471058225
 50
234.4098216994156019
 51
256.6005511893981179
  0
ARC
  5
E603
  8
0
 10
4581.5199987035657614
 20
184.2329022004072954
 30
0.0
 40
0.2107883655829108
 50
256.6005511893981179
 51
263.1072737049672128
  0
ARC
  5
E604
  8
0
 10
4581.5141080234652691
 20
184.1841723747450885
 30
0.0
 40
0.1617037853042944
 50
263.1072737049673265
 51
269.5508045990619053
  0
LINE
  5
E605
  8
0
 10
4581.4639951271146856
 20
184.0429521067333098
 30
0.0
 11
4581.4639550313586369
 21
184.0521721654970122
 31
0.0
  0
ARC
  5
E606
  8
0
 10
4581.4555952065411475
 20
184.0429155775564141
 30
0.0
 40
0.0084
 50
271.6098348724032121
 51
0.249163602819967
  0
ARC
  5
E607
  8
0
 10
4581.5133047743565839
 20
183.985159510470794
 30
0.0
 40
0.1008161561148708
 50
251.9749884778242119
 51
290.235150454483005
  0
ARC
  5
E608
  8
0
 10
4581.5168048385303337
 20
183.8037102492286863
 30
0.0
 40
0.0923466783399662
 50
70.1417683429424983
 51
112.0683705893408018
  0
ARC
  5
E609
  8
0
 10
4581.5141497143204106
 20
183.9394371237131907
 30
0.0
 40
0.0524315120828623
 50
250.9743606632704029
 51
291.1299399850275904
  0
ARC
  5
E60A
  8
0
 10
4581.5159576112973809
 20
183.8409975562964007
 30
0.0
 40
0.0523995252668309
 50
70.9615762284217055
 51
111.1427244198712003
  0
ARC
  5
E60B
  8
0
 10
4581.5128281960132881
 20
183.8064795612091871
 30
0.0
 40
0.1747904340009618
 50
89.9980206120952744
 51
101.2250651651824001
  0
ARC
  5
E60C
  8
0
 10
4581.4905591525093769
 20
183.9186851579642905
 30
0.0
 40
0.0603963509361723
 50
101.224393700651305
 51
116.835325305159202
  0
ARC
  5
E60D
  8
0
 10
4581.4685927714726859
 20
183.9621046623371114
 30
0.0
 40
0.0117365599810074
 50
116.8353253051119935
 51
141.9142808898054966
  0
ARC
  5
E60E
  8
0
 10
4581.46321332660591
 20
183.9663205211589059
 30
0.0
 40
0.0049019500667334
 50
141.9142808898182864
 51
193.2642080897238941
  0
LINE
  5
E60F
  8
0
 10
4581.482109016143113
 20
183.8892912571058957
 30
0.0
 11
4581.458442148841641
 21
183.965195809105893
 31
0.0
  0
ARC
  5
E610
  8
0
 10
4581.512840272925132
 20
183.8064795612091871
 30
0.0
 40
0.1747904340009656
 50
78.7749348348176284
 51
90.0019793879047256
  0
ARC
  5
E611
  8
0
 10
4581.5351093164281338
 20
183.9186851579642905
 30
0.0
 40
0.0603963509361723
 50
63.1646746948408122
 51
78.7756062993486523
  0
ARC
  5
E612
  8
0
 10
4581.5570756974630058
 20
183.9621046623371114
 30
0.0
 40
0.0117365599810074
 50
38.0857191101944466
 51
63.164674694888042
  0
ARC
  5
E613
  8
0
 10
4581.5624551423297817
 20
183.9663205211589059
 30
0.0
 40
0.0049019500667334
 50
346.7357919102760775
 51
38.0857191101816284
  0
LINE
  5
E614
  8
0
 10
4581.5481744505632378
 20
183.8905656258112913
 30
0.0
 11
4581.5672263200949601
 21
183.965195809105893
 31
0.0
  0
ARC
  5
E615
  8
0
 10
4581.4936130728865464
 20
182.7673533326183986
 30
0.0
 40
1.1802598296431011
 50
97.348683976455888
 51
98.4501270200205312
  0
ARC
  5
E616
  8
0
 10
4581.5317051208885459
 20
182.3686487148989954
 30
0.0
 40
1.58090405266224
 50
92.4627142071446713
 51
93.2328607723684257
  0
ARC
  5
E617
  8
0
 10
4581.3767845287948148
 20
183.3466550693092927
 30
0.0
 40
0.588866115653784
 50
105.2756187489117963
 51
106.0092007361150053
  0
LINE
  5
E618
  8
0
 10
4581.4676627622811793
 20
183.7142414974609892
 30
0.0
 11
4581.4793651509817209
 21
183.7091361108610101
 31
0.0
  0
LINE
  5
E619
  8
0
 10
4581.4793651509817209
 20
183.7091361108610101
 30
0.0
 11
4581.5024584299690105
 21
183.7092366163427073
 31
0.0
  0
LINE
  5
E61A
  8
0
 10
4581.5024584299690105
 20
183.7092366163427073
 30
0.0
 11
4581.5138489735809344
 21
183.7145221877609913
 31
0.0
  0
LINE
  5
E61B
  8
0
 10
4581.5138489735809344
 20
183.7145221877609913
 30
0.0
 11
4581.5024137141317624
 21
183.7195110342144062
 31
0.0
  0
LINE
  5
E61C
  8
0
 10
4581.5024137141317624
 20
183.7195110342144062
 30
0.0
 11
4581.4793200962803894
 21
183.7194883895610076
 31
0.0
  0
LINE
  5
E61D
  8
0
 10
4581.4793200962803894
 20
183.7194883895610076
 30
0.0
 11
4581.4676627622811793
 21
183.7142414974609892
 31
0.0
  0
LINE
  5
E61E
  8
0
 10
4581.5024584299690105
 20
183.7092366163427073
 30
0.0
 11
4581.5024137141317624
 21
183.7195110342144062
 31
0.0
  0
LINE
  5
E61F
  8
0
 10
4581.4793651509817209
 20
183.7091361108610101
 30
0.0
 11
4581.4793549999276365
 21
183.719488423786089
 31
0.0
  0
LINE
  5
E620
  8
0
 10
4581.4675931934680193
 20
183.7256887001807968
 30
0.0
 11
4581.4792955821685609
 21
183.7205833135807893
 31
0.0
  0
LINE
  5
E621
  8
0
 10
4581.4792955821685609
 20
183.7205833135807893
 30
0.0
 11
4581.5023888611558505
 21
183.7206838190624012
 31
0.0
  0
LINE
  5
E622
  8
0
 10
4581.5023888611558505
 20
183.7206838190624012
 30
0.0
 11
4581.5137794047677744
 21
183.7259693904807136
 31
0.0
  0
LINE
  5
E623
  8
0
 10
4581.5137794047677744
 20
183.7259693904807136
 30
0.0
 11
4581.5023441453176929
 21
183.7309582369341001
 31
0.0
  0
LINE
  5
E624
  8
0
 10
4581.5023441453176929
 20
183.7309582369341001
 30
0.0
 11
4581.4792505274672294
 21
183.7309355922807868
 31
0.0
  0
LINE
  5
E625
  8
0
 10
4581.4792505274672294
 20
183.7309355922807868
 30
0.0
 11
4581.4675931934680193
 21
183.7256887001807968
 31
0.0
  0
LINE
  5
E626
  8
0
 10
4581.5023888611558505
 20
183.7206838190624012
 30
0.0
 11
4581.5023441453176929
 21
183.7309582369341001
 31
0.0
  0
LINE
  5
E627
  8
0
 10
4581.4792955821685609
 20
183.7205833135807893
 30
0.0
 11
4581.479285431115386
 21
183.7309356265058113
 31
0.0
  0
LINE
  5
E628
  8
0
 10
4581.4675239851003425
 20
183.7370765933326879
 30
0.0
 11
4581.4792263737999747
 21
183.7319712067327089
 31
0.0
  0
LINE
  5
E629
  8
0
 10
4581.4792263737999747
 20
183.7319712067327089
 30
0.0
 11
4581.5023196527881737
 21
183.7320717122142923
 31
0.0
  0
LINE
  5
E62A
  8
0
 10
4581.5023196527881737
 20
183.7320717122142923
 30
0.0
 11
4581.5137101964000976
 21
183.73735728363269
 31
0.0
  0
LINE
  5
E62B
  8
0
 10
4581.5137101964000976
 20
183.73735728363269
 30
0.0
 11
4581.5022749369500161
 21
183.7423461300861049
 31
0.0
  0
LINE
  5
E62C
  8
0
 10
4581.5022749369500161
 20
183.7423461300861049
 30
0.0
 11
4581.4791813190995526
 21
183.7423234854327063
 31
0.0
  0
LINE
  5
E62D
  8
0
 10
4581.4791813190995526
 20
183.7423234854327063
 30
0.0
 11
4581.4675239851003425
 21
183.7370765933326879
 31
0.0
  0
LINE
  5
E62E
  8
0
 10
4581.5023196527881737
 20
183.7320717122142923
 30
0.0
 11
4581.5022749369500161
 21
183.7423461300861049
 31
0.0
  0
LINE
  5
E62F
  8
0
 10
4581.4792263737999747
 20
183.7319712067327089
 30
0.0
 11
4581.4792162227477093
 21
183.7423235196577878
 31
0.0
  0
LINE
  5
E630
  8
0
 10
4581.4674547767317563
 20
183.7484644864850054
 30
0.0
 11
4581.4791571654322979
 21
183.7433590998849127
 31
0.0
  0
LINE
  5
E631
  8
0
 10
4581.4791571654322979
 20
183.7433590998849127
 30
0.0
 11
4581.5022504444214064
 21
183.7434596053666098
 31
0.0
  0
LINE
  5
E632
  8
0
 10
4581.5022504444214064
 20
183.7434596053666098
 30
0.0
 11
4581.5136409880324209
 21
183.7487451767848938
 31
0.0
  0
LINE
  5
E633
  8
0
 10
4581.5136409880324209
 20
183.7487451767848938
 30
0.0
 11
4581.5022057285832489
 21
183.7537340232383087
 31
0.0
  0
LINE
  5
E634
  8
0
 10
4581.5022057285832489
 20
183.7537340232383087
 30
0.0
 11
4581.4791121107318759
 21
183.7537113785849101
 31
0.0
  0
LINE
  5
E635
  8
0
 10
4581.4791121107318759
 20
183.7537113785849101
 30
0.0
 11
4581.4674547767317563
 21
183.7484644864850054
 31
0.0
  0
LINE
  5
E636
  8
0
 10
4581.5022504444214064
 20
183.7434596053666098
 30
0.0
 11
4581.5022057285832489
 21
183.7537340232383087
 31
0.0
  0
LINE
  5
E637
  8
0
 10
4581.4791571654322979
 20
183.7433590998849127
 30
0.0
 11
4581.4791470143800325
 21
183.7537114128099915
 31
0.0
  0
LINE
  5
E638
  8
0
 10
4581.4673855685641684
 20
183.7598523795822132
 30
0.0
 11
4581.4790879572638005
 21
183.754746992982092
 31
0.0
  0
LINE
  5
E639
  8
0
 10
4581.4790879572638005
 20
183.754746992982092
 30
0.0
 11
4581.5021812362519995
 21
183.7548474984637892
 31
0.0
  0
LINE
  5
E63A
  8
0
 10
4581.5021812362519995
 20
183.7548474984637892
 30
0.0
 11
4581.5135717798639234
 21
183.7601330698821869
 31
0.0
  0
LINE
  5
E63B
  8
0
 10
4581.5135717798639234
 20
183.7601330698821869
 30
0.0
 11
4581.5021365204138419
 21
183.7651219163354881
 31
0.0
  0
LINE
  5
E63C
  8
0
 10
4581.5021365204138419
 20
183.7651219163354881
 30
0.0
 11
4581.4790429025642879
 21
183.7650992716822032
 31
0.0
  0
LINE
  5
E63D
  8
0
 10
4581.4790429025642879
 20
183.7650992716822032
 30
0.0
 11
4581.4673855685641684
 21
183.7598523795822132
 31
0.0
  0
LINE
  5
E63E
  8
0
 10
4581.5021812362519995
 20
183.7548474984637892
 30
0.0
 11
4581.5021365204138419
 21
183.7651219163354881
 31
0.0
  0
LINE
  5
E63F
  8
0
 10
4581.4790879572638005
 20
183.754746992982092
 30
0.0
 11
4581.4790778062097161
 21
183.7650993059071993
 31
0.0
  0
LINE
  5
E640
  8
0
 10
4581.4673163602446948
 20
183.7712402727333085
 30
0.0
 11
4581.4790187489443269
 21
183.7661348861333011
 31
0.0
  0
LINE
  5
E641
  8
0
 10
4581.4790187489443269
 20
183.7661348861333011
 30
0.0
 11
4581.5021120279334355
 21
183.7662353916149129
 31
0.0
  0
LINE
  5
E642
  8
0
 10
4581.5021120279334355
 20
183.7662353916149129
 30
0.0
 11
4581.5135025715444499
 21
183.7715209630331969
 31
0.0
  0
LINE
  5
E643
  8
0
 10
4581.5135025715444499
 20
183.7715209630331969
 30
0.0
 11
4581.5020673120952779
 21
183.7765098094866119
 31
0.0
  0
LINE
  5
E644
  8
0
 10
4581.5020673120952779
 20
183.7765098094866119
 30
0.0
 11
4581.4789736942439049
 21
183.7764871648332985
 31
0.0
  0
LINE
  5
E645
  8
0
 10
4581.4789736942439049
 20
183.7764871648332985
 30
0.0
 11
4581.4673163602446948
 21
183.7712402727333085
 31
0.0
  0
LINE
  5
E646
  8
0
 10
4581.5021120279334355
 20
183.7662353916149129
 30
0.0
 11
4581.5020673120952779
 21
183.7765098094866119
 31
0.0
  0
LINE
  5
E647
  8
0
 10
4581.4790187489443269
 20
183.7661348861333011
 30
0.0
 11
4581.479008597891152
 21
183.7764871990582947
 31
0.0
  0
LINE
  5
E648
  8
0
 10
4581.467247151632364
 20
183.7826281658406913
 30
0.0
 11
4581.4789495403319961
 21
183.7775227792407122
 31
0.0
  0
LINE
  5
E649
  8
0
 10
4581.4789495403319961
 20
183.7775227792407122
 30
0.0
 11
4581.5020428193201951
 21
183.7776232847224094
 31
0.0
  0
LINE
  5
E64A
  8
0
 10
4581.5020428193201951
 20
183.7776232847224094
 30
0.0
 11
4581.5134333629321191
 21
183.7829088561406934
 31
0.0
  0
LINE
  5
E64B
  8
0
 10
4581.5134333629321191
 20
183.7829088561406934
 30
0.0
 11
4581.5019981034820375
 21
183.7878977025941083
 31
0.0
  0
LINE
  5
E64C
  8
0
 10
4581.5019981034820375
 20
183.7878977025941083
 30
0.0
 11
4581.4789044856315741
 21
183.7878750579407097
 31
0.0
  0
LINE
  5
E64D
  8
0
 10
4581.4789044856315741
 20
183.7878750579407097
 30
0.0
 11
4581.467247151632364
 21
183.7826281658406913
 31
0.0
  0
LINE
  5
E64E
  8
0
 10
4581.5020428193201951
 20
183.7776232847224094
 30
0.0
 11
4581.5019981034820375
 21
183.7878977025941083
 31
0.0
  0
LINE
  5
E64F
  8
0
 10
4581.4789495403319961
 20
183.7775227792407122
 30
0.0
 11
4581.4789393892779117
 21
183.7878750921657911
 31
0.0
  0
LINE
  5
E650
  8
0
 10
4581.4671779432619587
 20
183.7940160589926961
 30
0.0
 11
4581.4788803319615909
 21
183.7889106723926886
 31
0.0
  0
LINE
  5
E651
  8
0
 10
4581.4788803319615909
 20
183.7889106723926886
 30
0.0
 11
4581.5019736109497899
 21
183.7890111778743858
 31
0.0
  0
LINE
  5
E652
  8
0
 10
4581.5019736109497899
 20
183.7890111778743858
 30
0.0
 11
4581.5133641545617138
 21
183.7942967492926982
 31
0.0
  0
LINE
  5
E653
  8
0
 10
4581.5133641545617138
 20
183.7942967492926982
 30
0.0
 11
4581.5019288951134513
 21
183.7992855957461131
 31
0.0
  0
LINE
  5
E654
  8
0
 10
4581.5019288951134513
 20
183.7992855957461131
 30
0.0
 11
4581.4788352772629878
 21
183.7992629510926861
 31
0.0
  0
LINE
  5
E655
  8
0
 10
4581.4788352772629878
 20
183.7992629510926861
 30
0.0
 11
4581.4671779432619587
 21
183.7940160589926961
 31
0.0
  0
LINE
  5
E656
  8
0
 10
4581.5019736109497899
 20
183.7890111778743858
 30
0.0
 11
4581.5019288951134513
 21
183.7992855957461131
 31
0.0
  0
LINE
  5
E657
  8
0
 10
4581.4788803319615909
 20
183.7889106723926886
 30
0.0
 11
4581.4788701809093254
 21
183.7992629853177959
 31
0.0
  0
LINE
  5
E658
  8
0
 10
4581.4671087348970104
 20
183.8054039521445873
 30
0.0
 11
4581.4788111235975521
 21
183.8002985655446082
 31
0.0
  0
LINE
  5
E659
  8
0
 10
4581.4788111235975521
 20
183.8002985655446082
 30
0.0
 11
4581.5019044025848416
 21
183.8003990710261917
 31
0.0
  0
LINE
  5
E65A
  8
0
 10
4581.5019044025848416
 20
183.8003990710261917
 30
0.0
 11
4581.5132949461967655
 21
183.8056846424445894
 31
0.0
  0
LINE
  5
E65B
  8
0
 10
4581.5132949461967655
 20
183.8056846424445894
 30
0.0
 11
4581.501859686746684
 21
183.8106734888978906
 31
0.0
  0
LINE
  5
E65C
  8
0
 10
4581.501859686746684
 20
183.8106734888978906
 30
0.0
 11
4581.4787660688962205
 21
183.8106508442446057
 31
0.0
  0
LINE
  5
E65D
  8
0
 10
4581.4787660688962205
 20
183.8106508442446057
 30
0.0
 11
4581.4671087348970104
 21
183.8054039521445873
 31
0.0
  0
LINE
  5
E65E
  8
0
 10
4581.5019044025848416
 20
183.8003990710261917
 30
0.0
 11
4581.501859686746684
 21
183.8106734888978906
 31
0.0
  0
LINE
  5
E65F
  8
0
 10
4581.4788111235975521
 20
183.8002985655446082
 30
0.0
 11
4581.4788009725443771
 21
183.8106508784696871
 31
0.0
  0
LINE
  5
E660
  8
0
 10
4581.4670395265266052
 20
183.8167918452965921
 30
0.0
 11
4581.4787419152271468
 21
183.811686458696613
 31
0.0
  0
LINE
  5
E661
  8
0
 10
4581.4787419152271468
 20
183.811686458696613
 30
0.0
 11
4581.5018351942162553
 21
183.8117869641781965
 31
0.0
  0
LINE
  5
E662
  8
0
 10
4581.5018351942162553
 20
183.8117869641781965
 30
0.0
 11
4581.5132257378272698
 21
183.8170725355965942
 31
0.0
  0
LINE
  5
E663
  8
0
 10
4581.5132257378272698
 20
183.8170725355965942
 30
0.0
 11
4581.5017904783780978
 21
183.8220613820500091
 31
0.0
  0
LINE
  5
E664
  8
0
 10
4581.5017904783780978
 20
183.8220613820500091
 30
0.0
 11
4581.4786968605276343
 21
183.8220387373966105
 31
0.0
  0
LINE
  5
E665
  8
0
 10
4581.4786968605276343
 20
183.8220387373966105
 30
0.0
 11
4581.4670395265266052
 21
183.8167918452965921
 31
0.0
  0
LINE
  5
E666
  8
0
 10
4581.5018351942162553
 20
183.8117869641781965
 30
0.0
 11
4581.5017904783780978
 21
183.8220613820500091
 31
0.0
  0
LINE
  5
E667
  8
0
 10
4581.4787419152271468
 20
183.811686458696613
 30
0.0
 11
4581.4787317641748814
 21
183.8220387716216919
 31
0.0
  0
LINE
  5
E668
  8
0
 10
4581.4283298274222034
 20
183.7196066691273018
 30
0.0
 11
4581.440032216120926
 21
183.7145012825272943
 31
0.0
  0
LINE
  5
E669
  8
0
 10
4581.440032216120926
 20
183.7145012825272943
 30
0.0
 11
4581.4631254951100345
 21
183.7146017880089062
 31
0.0
  0
LINE
  5
E66A
  8
0
 10
4581.4631254951100345
 20
183.7146017880089062
 30
0.0
 11
4581.4745160387219585
 21
183.7198873594273039
 31
0.0
  0
LINE
  5
E66B
  8
0
 10
4581.4745160387219585
 20
183.7198873594273039
 30
0.0
 11
4581.4630807792709675
 21
183.7248762058806051
 31
0.0
  0
LINE
  5
E66C
  8
0
 10
4581.4630807792709675
 20
183.7248762058806051
 30
0.0
 11
4581.4399871614214135
 21
183.7248535612272917
 31
0.0
  0
LINE
  5
E66D
  8
0
 10
4581.4399871614214135
 20
183.7248535612272917
 30
0.0
 11
4581.4283298274222034
 21
183.7196066691273018
 31
0.0
  0
LINE
  5
E66E
  8
0
 10
4581.4631254951100345
 20
183.7146017880089062
 30
0.0
 11
4581.4630807792709675
 21
183.7248762058806051
 31
0.0
  0
LINE
  5
E66F
  8
0
 10
4581.440032216120926
 20
183.7145012825272943
 30
0.0
 11
4581.4400220650686606
 21
183.7248535954524016
 31
0.0
  0
LINE
  5
E670
  8
0
 10
4581.4282602586090434
 20
183.7310538718469957
 30
0.0
 11
4581.4399626473086755
 21
183.7259484852469882
 31
0.0
  0
LINE
  5
E671
  8
0
 10
4581.4399626473086755
 20
183.7259484852469882
 30
0.0
 11
4581.4630559262968745
 21
183.7260489907286001
 31
0.0
  0
LINE
  5
E672
  8
0
 10
4581.4630559262968745
 20
183.7260489907286001
 30
0.0
 11
4581.4744464699087985
 21
183.7313345621469978
 31
0.0
  0
LINE
  5
E673
  8
0
 10
4581.4744464699087985
 20
183.7313345621469978
 30
0.0
 11
4581.4630112104578075
 21
183.736323408600299
 31
0.0
  0
LINE
  5
E674
  8
0
 10
4581.4630112104578075
 20
183.736323408600299
 30
0.0
 11
4581.4399175926082535
 21
183.736300763947014
 31
0.0
  0
LINE
  5
E675
  8
0
 10
4581.4399175926082535
 20
183.736300763947014
 30
0.0
 11
4581.4282602586090434
 21
183.7310538718469957
 31
0.0
  0
LINE
  5
E676
  8
0
 10
4581.4630559262968745
 20
183.7260489907286001
 30
0.0
 11
4581.4630112104578075
 21
183.736323408600299
 31
0.0
  0
LINE
  5
E677
  8
0
 10
4581.4399626473086755
 20
183.7259484852469882
 30
0.0
 11
4581.4399524962545911
 21
183.7363007981720102
 31
0.0
  0
LINE
  5
E678
  8
0
 10
4581.4281910502413666
 20
183.7424417649988868
 30
0.0
 11
4581.4398934389409987
 21
183.7373363783989078
 31
0.0
  0
LINE
  5
E679
  8
0
 10
4581.4398934389409987
 20
183.7373363783989078
 30
0.0
 11
4581.4629867179291978
 21
183.7374368838806049
 31
0.0
  0
LINE
  5
E67A
  8
0
 10
4581.4629867179291978
 20
183.7374368838806049
 30
0.0
 11
4581.4743772615420312
 21
183.7427224552988889
 31
0.0
  0
LINE
  5
E67B
  8
0
 10
4581.4743772615420312
 20
183.7427224552988889
 30
0.0
 11
4581.4629420020910402
 21
183.7477113017523038
 31
0.0
  0
LINE
  5
E67C
  8
0
 10
4581.4629420020910402
 20
183.7477113017523038
 30
0.0
 11
4581.4398483842396672
 21
183.7476886570989052
 31
0.0
  0
LINE
  5
E67D
  8
0
 10
4581.4398483842396672
 20
183.7476886570989052
 30
0.0
 11
4581.4281910502413666
 21
183.7424417649988868
 31
0.0
  0
LINE
  5
E67E
  8
0
 10
4581.4629867179291978
 20
183.7374368838806049
 30
0.0
 11
4581.4629420020910402
 21
183.7477113017523038
 31
0.0
  0
LINE
  5
E67F
  8
0
 10
4581.4398934389409987
 20
183.7373363783989078
 30
0.0
 11
4581.4398832878869143
 21
183.7476886913239866
 31
0.0
  0
LINE
  5
E680
  8
0
 10
4581.4281218418727804
 20
183.7538296581510906
 30
0.0
 11
4581.4398242305742315
 21
183.7487242715511968
 31
0.0
  0
LINE
  5
E681
  8
0
 10
4581.4398242305742315
 20
183.7487242715511968
 30
0.0
 11
4581.4629175095606115
 21
183.7488247770328087
 31
0.0
  0
LINE
  5
E682
  8
0
 10
4581.4629175095606115
 20
183.7488247770328087
 30
0.0
 11
4581.4743080531734449
 21
183.7541103484512064
 31
0.0
  0
LINE
  5
E683
  8
0
 10
4581.4743080531734449
 20
183.7541103484512064
 30
0.0
 11
4581.4628727937233634
 21
183.7590991949045076
 31
0.0
  0
LINE
  5
E684
  8
0
 10
4581.4628727937233634
 20
183.7590991949045076
 30
0.0
 11
4581.4397791758719904
 21
183.7590765502511942
 31
0.0
  0
LINE
  5
E685
  8
0
 10
4581.4397791758719904
 20
183.7590765502511942
 30
0.0
 11
4581.4281218418727804
 21
183.7538296581510906
 31
0.0
  0
LINE
  5
E686
  8
0
 10
4581.4629175095606115
 20
183.7488247770328087
 30
0.0
 11
4581.4628727937233634
 21
183.7590991949045076
 31
0.0
  0
LINE
  5
E687
  8
0
 10
4581.4398242305742315
 20
183.7487242715511968
 30
0.0
 11
4581.4398140795201471
 21
183.7590765844763041
 31
0.0
  0
LINE
  5
E688
  8
0
 10
4581.4280526337042829
 20
183.7652175512484121
 30
0.0
 11
4581.4397550224048246
 21
183.7601121646484046
 31
0.0
  0
LINE
  5
E689
  8
0
 10
4581.4397550224048246
 20
183.7601121646484046
 30
0.0
 11
4581.4628483013930236
 21
183.7602126701299881
 31
0.0
  0
LINE
  5
E68A
  8
0
 10
4581.4628483013930236
 20
183.7602126701299881
 30
0.0
 11
4581.4742388450049475
 21
183.7654982415484142
 31
0.0
  0
LINE
  5
E68B
  8
0
 10
4581.4742388450049475
 20
183.7654982415484142
 30
0.0
 11
4581.4628035855539565
 21
183.770487088001687
 31
0.0
  0
LINE
  5
E68C
  8
0
 10
4581.4628035855539565
 20
183.770487088001687
 30
0.0
 11
4581.4397099677044025
 21
183.770464443348402
 31
0.0
  0
LINE
  5
E68D
  8
0
 10
4581.4397099677044025
 20
183.770464443348402
 30
0.0
 11
4581.4280526337042829
 21
183.7652175512484121
 31
0.0
  0
LINE
  5
E68E
  8
0
 10
4581.4628483013930236
 20
183.7602126701299881
 30
0.0
 11
4581.4628035855539565
 21
183.770487088001687
 31
0.0
  0
LINE
  5
E68F
  8
0
 10
4581.4397550224048246
 20
183.7601121646484046
 30
0.0
 11
4581.4397448713507401
 21
183.7704644775735119
 31
0.0
  0
LINE
  5
E690
  8
0
 10
4581.4279834253838999
 20
183.7766054443995074
 30
0.0
 11
4581.439685814085351
 21
183.7715000577994999
 31
0.0
  0
LINE
  5
E691
  8
0
 10
4581.439685814085351
 20
183.7715000577994999
 30
0.0
 11
4581.4627790930726405
 21
183.7716005632811118
 31
0.0
  0
LINE
  5
E692
  8
0
 10
4581.4627790930726405
 20
183.7716005632811118
 30
0.0
 11
4581.474169636683655
 21
183.7768861346995095
 31
0.0
  0
LINE
  5
E693
  8
0
 10
4581.474169636683655
 20
183.7768861346995095
 30
0.0
 11
4581.4627343772353925
 21
183.7818749811528107
 31
0.0
  0
LINE
  5
E694
  8
0
 10
4581.4627343772353925
 20
183.7818749811528107
 30
0.0
 11
4581.4396407593840195
 21
183.7818523364994974
 31
0.0
  0
LINE
  5
E695
  8
0
 10
4581.4396407593840195
 20
183.7818523364994974
 30
0.0
 11
4581.4279834253838999
 21
183.7766054443995074
 31
0.0
  0
LINE
  5
E696
  8
0
 10
4581.4627790930726405
 20
183.7716005632811118
 30
0.0
 11
4581.4627343772353925
 21
183.7818749811528107
 31
0.0
  0
LINE
  5
E697
  8
0
 10
4581.439685814085351
 20
183.7715000577994999
 30
0.0
 11
4581.4396756630321761
 21
183.7818523707244935
 31
0.0
  0
LINE
  5
E698
  8
0
 10
4581.427914216773388
 20
183.7879933375068902
 30
0.0
 11
4581.4396166054721107
 21
183.7828879509069964
 31
0.0
  0
LINE
  5
E699
  8
0
 10
4581.4396166054721107
 20
183.7828879509069964
 30
0.0
 11
4581.4627098844603097
 21
183.7829884563886083
 31
0.0
  0
LINE
  5
E69A
  8
0
 10
4581.4627098844603097
 20
183.7829884563886083
 30
0.0
 11
4581.4741004280731431
 21
183.788274027807006
 31
0.0
  0
LINE
  5
E69B
  8
0
 10
4581.4741004280731431
 20
183.788274027807006
 30
0.0
 11
4581.4626651686230616
 21
183.7932628742603072
 31
0.0
  0
LINE
  5
E69C
  8
0
 10
4581.4626651686230616
 20
183.7932628742603072
 30
0.0
 11
4581.4395715507725981
 21
183.7932402296069085
 31
0.0
  0
LINE
  5
E69D
  8
0
 10
4581.4395715507725981
 20
183.7932402296069085
 30
0.0
 11
4581.427914216773388
 21
183.7879933375068902
 31
0.0
  0
LINE
  5
E69E
  8
0
 10
4581.4627098844603097
 20
183.7829884563886083
 30
0.0
 11
4581.4626651686230616
 21
183.7932628742603072
 31
0.0
  0
LINE
  5
E69F
  8
0
 10
4581.4396166054721107
 20
183.7828879509069964
 30
0.0
 11
4581.4396064544189358
 21
183.79324026383199
 31
0.0
  0
LINE
  5
E6A0
  8
0
 10
4581.4278450084029828
 20
183.799381230658895
 30
0.0
 11
4581.4395473971044339
 21
183.7942758440590012
 31
0.0
  0
LINE
  5
E6A1
  8
0
 10
4581.4395473971044339
 20
183.7942758440590012
 30
0.0
 11
4581.4626406760908139
 21
183.7943763495406131
 31
0.0
  0
LINE
  5
E6A2
  8
0
 10
4581.4626406760908139
 20
183.7943763495406131
 30
0.0
 11
4581.4740312197036474
 21
183.7996619209588971
 31
0.0
  0
LINE
  5
E6A3
  8
0
 10
4581.4740312197036474
 20
183.7996619209588971
 30
0.0
 11
4581.4625959602526564
 21
183.804650767412312
 31
0.0
  0
LINE
  5
E6A4
  8
0
 10
4581.4625959602526564
 20
183.804650767412312
 30
0.0
 11
4581.4395023424031024
 21
183.8046281227589134
 31
0.0
  0
LINE
  5
E6A5
  8
0
 10
4581.4395023424031024
 20
183.8046281227589134
 30
0.0
 11
4581.4278450084029828
 21
183.799381230658895
 31
0.0
  0
LINE
  5
E6A6
  8
0
 10
4581.4626406760908139
 20
183.7943763495406131
 30
0.0
 11
4581.4625959602526564
 21
183.804650767412312
 31
0.0
  0
LINE
  5
E6A7
  8
0
 10
4581.4395473971044339
 20
183.7942758440590012
 30
0.0
 11
4581.4395372460503495
 21
183.8046281569839948
 31
0.0
  0
LINE
  5
E6A8
  8
0
 10
4581.4277758000380345
 20
183.8107691238107861
 30
0.0
 11
4581.4394781887367571
 21
183.8056637372108071
 31
0.0
  0
LINE
  5
E6A9
  8
0
 10
4581.4394781887367571
 20
183.8056637372108071
 30
0.0
 11
4581.4625714677258657
 21
183.8057642426925042
 31
0.0
  0
LINE
  5
E6AA
  8
0
 10
4581.4625714677258657
 20
183.8057642426925042
 30
0.0
 11
4581.4739620113377896
 21
183.8110498141107882
 31
0.0
  0
LINE
  5
E6AB
  8
0
 10
4581.4739620113377896
 20
183.8110498141107882
 30
0.0
 11
4581.4625267518877081
 21
183.8160386605642032
 31
0.0
  0
LINE
  5
E6AC
  8
0
 10
4581.4625267518877081
 20
183.8160386605642032
 30
0.0
 11
4581.4394331340381541
 21
183.8160160159108045
 31
0.0
  0
LINE
  5
E6AD
  8
0
 10
4581.4394331340381541
 20
183.8160160159108045
 30
0.0
 11
4581.4277758000380345
 21
183.8107691238107861
 31
0.0
  0
LINE
  5
E6AE
  8
0
 10
4581.4625714677258657
 20
183.8057642426925042
 30
0.0
 11
4581.4625267518877081
 21
183.8160386605642032
 31
0.0
  0
LINE
  5
E6AF
  8
0
 10
4581.4394781887367571
 20
183.8056637372108071
 30
0.0
 11
4581.4394680376854012
 21
183.816016050135886
 31
0.0
  0
LINE
  5
E6B0
  8
0
 10
4581.4277065916667198
 20
183.822157016962791
 30
0.0
 11
4581.4394089803681709
 21
183.8170516303628119
 31
0.0
  0
LINE
  5
E6B1
  8
0
 10
4581.4394089803681709
 20
183.8170516303628119
 30
0.0
 11
4581.4625022593563699
 21
183.8171521358445091
 31
0.0
  0
LINE
  5
E6B2
  8
0
 10
4581.4625022593563699
 20
183.8171521358445091
 30
0.0
 11
4581.4738928029682938
 21
183.8224377072627931
 31
0.0
  0
LINE
  5
E6B3
  8
0
 10
4581.4738928029682938
 20
183.8224377072627931
 30
0.0
 11
4581.4624575435182123
 21
183.827426553716208
 31
0.0
  0
LINE
  5
E6B4
  8
0
 10
4581.4624575435182123
 20
183.827426553716208
 30
0.0
 11
4581.4393639256668394
 21
183.8274039090628094
 31
0.0
  0
LINE
  5
E6B5
  8
0
 10
4581.4393639256668394
 20
183.8274039090628094
 30
0.0
 11
4581.4277065916667198
 21
183.822157016962791
 31
0.0
  0
LINE
  5
E6B6
  8
0
 10
4581.4625022593563699
 20
183.8171521358445091
 30
0.0
 11
4581.4624575435182123
 21
183.827426553716208
 31
0.0
  0
LINE
  5
E6B7
  8
0
 10
4581.4394089803681709
 20
183.8170516303628119
 30
0.0
 11
4581.4393988293140865
 21
183.8274039432878908
 31
0.0
  0
LINE
  5
E6B8
  8
0
 10
4581.3904030377752861
 20
183.713743840318898
 30
0.0
 11
4581.4021054264749182
 21
183.7086384537188906
 31
0.0
  0
LINE
  5
E6B9
  8
0
 10
4581.4021054264749182
 20
183.7086384537188906
 30
0.0
 11
4581.4251987054631172
 21
183.7087389592005024
 31
0.0
  0
LINE
  5
E6BA
  8
0
 10
4581.4251987054631172
 20
183.7087389592005024
 30
0.0
 11
4581.4365892490750412
 21
183.7140245306189001
 31
0.0
  0
LINE
  5
E6BB
  8
0
 10
4581.4365892490750412
 20
183.7140245306189001
 30
0.0
 11
4581.4251539896258691
 21
183.7190133770722866
 31
0.0
  0
LINE
  5
E6BC
  8
0
 10
4581.4251539896258691
 20
183.7190133770722866
 30
0.0
 11
4581.4020603717754057
 21
183.718990732418888
 31
0.0
  0
LINE
  5
E6BD
  8
0
 10
4581.4020603717754057
 20
183.718990732418888
 30
0.0
 11
4581.3904030377752861
 21
183.713743840318898
 31
0.0
  0
LINE
  5
E6BE
  8
0
 10
4581.4251987054631172
 20
183.7087389592005024
 30
0.0
 11
4581.4251539896258691
 21
183.7190133770722866
 31
0.0
  0
LINE
  5
E6BF
  8
0
 10
4581.4021054264749182
 20
183.7086384537188906
 30
0.0
 11
4581.4020952754217433
 21
183.7189907666439979
 31
0.0
  0
LINE
  5
E6C0
  8
0
 10
4581.3903334689621261
 20
183.7251910430385919
 30
0.0
 11
4581.4020358576617582
 21
183.7200856564386129
 31
0.0
  0
LINE
  5
E6C1
  8
0
 10
4581.4020358576617582
 20
183.7200856564386129
 30
0.0
 11
4581.4251291366499572
 21
183.72018616192031
 31
0.0
  0
LINE
  5
E6C2
  8
0
 10
4581.4251291366499572
 20
183.72018616192031
 30
0.0
 11
4581.4365196802618811
 21
183.725471733338594
 31
0.0
  0
LINE
  5
E6C3
  8
0
 10
4581.4365196802618811
 20
183.725471733338594
 30
0.0
 11
4581.4250844208117996
 21
183.730460579792009
 31
0.0
  0
LINE
  5
E6C4
  8
0
 10
4581.4250844208117996
 20
183.730460579792009
 30
0.0
 11
4581.4019908029613362
 21
183.7304379351386103
 31
0.0
  0
LINE
  5
E6C5
  8
0
 10
4581.4019908029613362
 20
183.7304379351386103
 30
0.0
 11
4581.3903334689621261
 21
183.7251910430385919
 31
0.0
  0
LINE
  5
E6C6
  8
0
 10
4581.4251291366499572
 20
183.72018616192031
 30
0.0
 11
4581.4250844208117996
 21
183.730460579792009
 31
0.0
  0
LINE
  5
E6C7
  8
0
 10
4581.4020358576617582
 20
183.7200856564386129
 30
0.0
 11
4581.4020257066085833
 21
183.7304379693636918
 31
0.0
  0
LINE
  5
E6C8
  8
0
 10
4581.3902642605944493
 20
183.7365789361905968
 30
0.0
 11
4581.4019666492940814
 21
183.7314735495905893
 31
0.0
  0
LINE
  5
E6C9
  8
0
 10
4581.4019666492940814
 20
183.7314735495905893
 30
0.0
 11
4581.4250599282822805
 21
183.7315740550722012
 31
0.0
  0
LINE
  5
E6CA
  8
0
 10
4581.4250599282822805
 20
183.7315740550722012
 30
0.0
 11
4581.4364504718942044
 21
183.7368596264905989
 31
0.0
  0
LINE
  5
E6CB
  8
0
 10
4581.4364504718942044
 20
183.7368596264905989
 30
0.0
 11
4581.4250152124441229
 21
183.7418484729439001
 31
0.0
  0
LINE
  5
E6CC
  8
0
 10
4581.4250152124441229
 20
183.7418484729439001
 30
0.0
 11
4581.4019215945936594
 21
183.7418258282905867
 31
0.0
  0
LINE
  5
E6CD
  8
0
 10
4581.4019215945936594
 20
183.7418258282905867
 30
0.0
 11
4581.3902642605944493
 21
183.7365789361905968
 31
0.0
  0
LINE
  5
E6CE
  8
0
 10
4581.4250599282822805
 20
183.7315740550722012
 30
0.0
 11
4581.4250152124441229
 21
183.7418484729439001
 31
0.0
  0
LINE
  5
E6CF
  8
0
 10
4581.4019666492940814
 20
183.7314735495905893
 30
0.0
 11
4581.4019564982409065
 21
183.7418258625156113
 31
0.0
  0
LINE
  5
E6D0
  8
0
 10
4581.3901950522267725
 20
183.7479668293428006
 30
0.0
 11
4581.4018974409264047
 21
183.7428614427427931
 31
0.0
  0
LINE
  5
E6D1
  8
0
 10
4581.4018974409264047
 20
183.7428614427427931
 30
0.0
 11
4581.4249907199146037
 21
183.7429619482244902
 31
0.0
  0
LINE
  5
E6D2
  8
0
 10
4581.4249907199146037
 20
183.7429619482244902
 30
0.0
 11
4581.4363812635256181
 21
183.7482475196428879
 31
0.0
  0
LINE
  5
E6D3
  8
0
 10
4581.4363812635256181
 20
183.7482475196428879
 30
0.0
 11
4581.4249460040764461
 21
183.7532363660961892
 31
0.0
  0
LINE
  5
E6D4
  8
0
 10
4581.4249460040764461
 20
183.7532363660961892
 30
0.0
 11
4581.4018523862259826
 21
183.7532137214427905
 31
0.0
  0
LINE
  5
E6D5
  8
0
 10
4581.4018523862259826
 20
183.7532137214427905
 30
0.0
 11
4581.3901950522267725
 21
183.7479668293428006
 31
0.0
  0
LINE
  5
E6D6
  8
0
 10
4581.4249907199146037
 20
183.7429619482244902
 30
0.0
 11
4581.4249460040764461
 21
183.7532363660961892
 31
0.0
  0
LINE
  5
E6D7
  8
0
 10
4581.4018974409264047
 20
183.7428614427427931
 30
0.0
 11
4581.4018872898741392
 21
183.7532137556679004
 31
0.0
  0
LINE
  5
E6D8
  8
0
 10
4581.3901258440582751
 20
183.7593547224400083
 30
0.0
 11
4581.4018282327579072
 21
183.7542493358400009
 31
0.0
  0
LINE
  5
E6D9
  8
0
 10
4581.4018282327579072
 20
183.7542493358400009
 30
0.0
 11
4581.4249215117461063
 21
183.754349841321698
 31
0.0
  0
LINE
  5
E6DA
  8
0
 10
4581.4249215117461063
 20
183.754349841321698
 30
0.0
 11
4581.4363120553580302
 21
183.7596354127400105
 31
0.0
  0
LINE
  5
E6DB
  8
0
 10
4581.4363120553580302
 20
183.7596354127400105
 30
0.0
 11
4581.4248767959079487
 21
183.7646242591933969
 31
0.0
  0
LINE
  5
E6DC
  8
0
 10
4581.4248767959079487
 20
183.7646242591933969
 30
0.0
 11
4581.4017831780583947
 21
183.764601614540112
 31
0.0
  0
LINE
  5
E6DD
  8
0
 10
4581.4017831780583947
 20
183.764601614540112
 30
0.0
 11
4581.3901258440582751
 21
183.7593547224400083
 31
0.0
  0
LINE
  5
E6DE
  8
0
 10
4581.4249215117461063
 20
183.754349841321698
 30
0.0
 11
4581.4248767959079487
 21
183.7646242591933969
 31
0.0
  0
LINE
  5
E6DF
  8
0
 10
4581.4018282327579072
 20
183.7542493358400009
 30
0.0
 11
4581.4018180817047323
 21
183.7646016487651082
 31
0.0
  0
LINE
  5
E6E0
  8
0
 10
4581.3900566357388016
 20
183.7707426155911037
 30
0.0
 11
4581.4017590244384337
 21
183.7656372289910962
 31
0.0
  0
LINE
  5
E6E1
  8
0
 10
4581.4017590244384337
 20
183.7656372289910962
 30
0.0
 11
4581.4248523034266327
 21
183.7657377344727934
 31
0.0
  0
LINE
  5
E6E2
  8
0
 10
4581.4248523034266327
 20
183.7657377344727934
 30
0.0
 11
4581.4362428470385566
 21
183.7710233058911058
 31
0.0
  0
LINE
  5
E6E3
  8
0
 10
4581.4362428470385566
 20
183.7710233058911058
 30
0.0
 11
4581.4248075875875656
 21
183.7760121523444923
 31
0.0
  0
LINE
  5
E6E4
  8
0
 10
4581.4248075875875656
 20
183.7760121523444923
 30
0.0
 11
4581.4017139697380117
 21
183.7759895076910936
 31
0.0
  0
LINE
  5
E6E5
  8
0
 10
4581.4017139697380117
 20
183.7759895076910936
 30
0.0
 11
4581.3900566357388016
 21
183.7707426155911037
 31
0.0
  0
LINE
  5
E6E6
  8
0
 10
4581.4248523034266327
 20
183.7657377344727934
 30
0.0
 11
4581.4248075875875656
 21
183.7760121523444923
 31
0.0
  0
LINE
  5
E6E7
  8
0
 10
4581.4017590244384337
 20
183.7656372289910962
 30
0.0
 11
4581.4017488733852588
 21
183.7759895419162035
 31
0.0
  0
LINE
  5
E6E8
  8
0
 10
4581.3899874271255612
 20
183.7821305086986001
 30
0.0
 11
4581.4016898158261029
 21
183.7770251220985926
 31
0.0
  0
LINE
  5
E6E9
  8
0
 10
4581.4016898158261029
 20
183.7770251220985926
 30
0.0
 11
4581.4247830948143019
 21
183.7771256275802898
 31
0.0
  0
LINE
  5
E6EA
  8
0
 10
4581.4247830948143019
 20
183.7771256275802898
 30
0.0
 11
4581.4361736384262258
 21
183.7824111989986022
 31
0.0
  0
LINE
  5
E6EB
  8
0
 10
4581.4361736384262258
 20
183.7824111989986022
 30
0.0
 11
4581.4247383789761443
 21
183.7874000454519887
 31
0.0
  0
LINE
  5
E6EC
  8
0
 10
4581.4247383789761443
 20
183.7874000454519887
 30
0.0
 11
4581.4016447611247713
 21
183.7873774007985901
 31
0.0
  0
LINE
  5
E6ED
  8
0
 10
4581.4016447611247713
 20
183.7873774007985901
 30
0.0
 11
4581.3899874271255612
 21
183.7821305086986001
 31
0.0
  0
LINE
  5
E6EE
  8
0
 10
4581.4247830948143019
 20
183.7771256275802898
 30
0.0
 11
4581.4247383789761443
 21
183.7874000454519887
 31
0.0
  0
LINE
  5
E6EF
  8
0
 10
4581.4016898158261029
 20
183.7770251220985926
 30
0.0
 11
4581.4016796647720184
 21
183.7873774350236999
 31
0.0
  0
LINE
  5
E6F0
  8
0
 10
4581.3899182187560655
 20
183.793518401850605
 30
0.0
 11
4581.4016206074566071
 21
183.7884130152505975
 31
0.0
  0
LINE
  5
E6F1
  8
0
 10
4581.4016206074566071
 20
183.7884130152505975
 30
0.0
 11
4581.4247138864448061
 21
183.7885135207322094
 31
0.0
  0
LINE
  5
E6F2
  8
0
 10
4581.4247138864448061
 20
183.7885135207322094
 30
0.0
 11
4581.4361044300558206
 21
183.7937990921506071
 31
0.0
  0
LINE
  5
E6F3
  8
0
 10
4581.4361044300558206
 20
183.7937990921506071
 30
0.0
 11
4581.4246691706066485
 21
183.7987879386039083
 31
0.0
  0
LINE
  5
E6F4
  8
0
 10
4581.4246691706066485
 20
183.7987879386039083
 30
0.0
 11
4581.4015755527561851
 21
183.7987652939505949
 31
0.0
  0
LINE
  5
E6F5
  8
0
 10
4581.4015755527561851
 20
183.7987652939505949
 30
0.0
 11
4581.3899182187560655
 21
183.793518401850605
 31
0.0
  0
LINE
  5
E6F6
  8
0
 10
4581.4247138864448061
 20
183.7885135207322094
 30
0.0
 11
4581.4246691706066485
 21
183.7987879386039083
 31
0.0
  0
LINE
  5
E6F7
  8
0
 10
4581.4016206074566071
 20
183.7884130152505975
 30
0.0
 11
4581.4016104564034322
 21
183.7987653281757048
 31
0.0
  0
LINE
  5
E6F8
  8
0
 10
4581.3898490103911172
 20
183.8049062950024961
 30
0.0
 11
4581.4015513990916588
 21
183.7998009084024886
 31
0.0
  0
LINE
  5
E6F9
  8
0
 10
4581.4015513990916588
 20
183.7998009084024886
 30
0.0
 11
4581.4246446780789483
 21
183.7999014138841005
 31
0.0
  0
LINE
  5
E6FA
  8
0
 10
4581.4246446780789483
 20
183.7999014138841005
 30
0.0
 11
4581.4360352216908723
 21
183.8051869853024982
 31
0.0
  0
LINE
  5
E6FB
  8
0
 10
4581.4360352216908723
 20
183.8051869853024982
 30
0.0
 11
4581.4245999622407908
 21
183.8101758317557994
 31
0.0
  0
LINE
  5
E6FC
  8
0
 10
4581.4245999622407908
 20
183.8101758317557994
 30
0.0
 11
4581.4015063443903273
 21
183.8101531871024861
 31
0.0
  0
LINE
  5
E6FD
  8
0
 10
4581.4015063443903273
 20
183.8101531871024861
 30
0.0
 11
4581.3898490103911172
 21
183.8049062950024961
 31
0.0
  0
LINE
  5
E6FE
  8
0
 10
4581.4246446780789483
 20
183.7999014138841005
 30
0.0
 11
4581.4245999622407908
 21
183.8101758317557994
 31
0.0
  0
LINE
  5
E6FF
  8
0
 10
4581.4015513990916588
 20
183.7998009084024886
 30
0.0
 11
4581.4015412480375744
 21
183.8101532213275959
 31
0.0
  0
LINE
  5
E700
  8
0
 10
4581.3897798020207119
 20
183.8162941881545009
 30
0.0
 11
4581.4014821907212536
 21
183.8111888015544935
 31
0.0
  0
LINE
  5
E701
  8
0
 10
4581.4014821907212536
 20
183.8111888015544935
 30
0.0
 11
4581.4245754697103621
 21
183.8112893070361054
 31
0.0
  0
LINE
  5
E702
  8
0
 10
4581.4245754697103621
 20
183.8112893070361054
 30
0.0
 11
4581.4359660133213765
 21
183.8165748784545031
 31
0.0
  0
LINE
  5
E703
  8
0
 10
4581.4359660133213765
 20
183.8165748784545031
 30
0.0
 11
4581.424530753871295
 21
183.8215637249078043
 31
0.0
  0
LINE
  5
E704
  8
0
 10
4581.424530753871295
 20
183.8215637249078043
 30
0.0
 11
4581.401437136021741
 21
183.8215410802544909
 31
0.0
  0
LINE
  5
E705
  8
0
 10
4581.401437136021741
 20
183.8215410802544909
 30
0.0
 11
4581.3897798020207119
 21
183.8162941881545009
 31
0.0
  0
LINE
  5
E706
  8
0
 10
4581.4245754697103621
 20
183.8112893070361054
 30
0.0
 11
4581.424530753871295
 21
183.8215637249078043
 31
0.0
  0
LINE
  5
E707
  8
0
 10
4581.4014821907212536
 20
183.8111888015544935
 30
0.0
 11
4581.4014720396680787
 21
183.8215411144796008
 31
0.0
  0
LINE
  5
E708
  8
0
 10
4581.3521719523314459
 20
183.7191865765163072
 30
0.0
 11
4581.3638743410319876
 21
183.7140811899161861
 31
0.0
  0
LINE
  5
E709
  8
0
 10
4581.3638743410319876
 20
183.7140811899161861
 30
0.0
 11
4581.3869676200201866
 21
183.7141816953979117
 31
0.0
  0
LINE
  5
E70A
  8
0
 10
4581.3869676200201866
 20
183.7141816953979117
 30
0.0
 11
4581.3983581636321105
 21
183.7194672668163093
 31
0.0
  0
LINE
  5
E70B
  8
0
 10
4581.3983581636321105
 20
183.7194672668163093
 30
0.0
 11
4581.386922904182029
 21
183.7244561132696106
 31
0.0
  0
LINE
  5
E70C
  8
0
 10
4581.386922904182029
 20
183.7244561132696106
 30
0.0
 11
4581.363829286330656
 21
183.7244334686162972
 31
0.0
  0
LINE
  5
E70D
  8
0
 10
4581.363829286330656
 20
183.7244334686162972
 30
0.0
 11
4581.3521719523314459
 21
183.7191865765163072
 31
0.0
  0
LINE
  5
E70E
  8
0
 10
4581.3869676200201866
 20
183.7141816953979117
 30
0.0
 11
4581.386922904182029
 21
183.7244561132696106
 31
0.0
  0
LINE
  5
E70F
  8
0
 10
4581.3638743410319876
 20
183.7140811899161861
 30
0.0
 11
4581.3638641899779032
 21
183.7244335028412934
 31
0.0
  0
LINE
  5
E710
  8
0
 10
4581.3521023835191954
 20
183.7306337792360011
 30
0.0
 11
4581.3638047722188276
 21
183.7255283926359937
 31
0.0
  0
LINE
  5
E711
  8
0
 10
4581.3638047722188276
 20
183.7255283926359937
 30
0.0
 11
4581.3868980512061171
 21
183.7256288981176056
 31
0.0
  0
LINE
  5
E712
  8
0
 10
4581.3868980512061171
 20
183.7256288981176056
 30
0.0
 11
4581.3982885948189505
 21
183.7309144695360033
 31
0.0
  0
LINE
  5
E713
  8
0
 10
4581.3982885948189505
 20
183.7309144695360033
 30
0.0
 11
4581.386853335368869
 21
183.7359033159893045
 31
0.0
  0
LINE
  5
E714
  8
0
 10
4581.386853335368869
 20
183.7359033159893045
 30
0.0
 11
4581.3637597175184055
 21
183.7358806713359911
 31
0.0
  0
LINE
  5
E715
  8
0
 10
4581.3637597175184055
 20
183.7358806713359911
 30
0.0
 11
4581.3521023835191954
 21
183.7306337792360011
 31
0.0
  0
LINE
  5
E716
  8
0
 10
4581.3868980512061171
 20
183.7256288981176056
 30
0.0
 11
4581.386853335368869
 21
183.7359033159893045
 31
0.0
  0
LINE
  5
E717
  8
0
 10
4581.3638047722188276
 20
183.7255283926359937
 30
0.0
 11
4581.3637946211647431
 21
183.735880705561101
 31
0.0
  0
LINE
  5
E718
  8
0
 10
4581.3520331751496997
 20
183.7420216723878923
 30
0.0
 11
4581.3637355638511508
 21
183.7369162857879132
 31
0.0
  0
LINE
  5
E719
  8
0
 10
4581.3637355638511508
 20
183.7369162857879132
 30
0.0
 11
4581.3868288428393498
 21
183.7370167912696104
 31
0.0
  0
LINE
  5
E71A
  8
0
 10
4581.3868288428393498
 20
183.7370167912696104
 30
0.0
 11
4581.3982193864503643
 21
183.7423023626878944
 31
0.0
  0
LINE
  5
E71B
  8
0
 10
4581.3982193864503643
 20
183.7423023626878944
 30
0.0
 11
4581.3867841270002828
 21
183.7472912091413093
 31
0.0
  0
LINE
  5
E71C
  8
0
 10
4581.3867841270002828
 20
183.7472912091413093
 30
0.0
 11
4581.3636905091498193
 21
183.7472685644879107
 31
0.0
  0
LINE
  5
E71D
  8
0
 10
4581.3636905091498193
 20
183.7472685644879107
 30
0.0
 11
4581.3520331751496997
 21
183.7420216723878923
 31
0.0
  0
LINE
  5
E71E
  8
0
 10
4581.3868288428393498
 20
183.7370167912696104
 30
0.0
 11
4581.3867841270002828
 21
183.7472912091413093
 31
0.0
  0
LINE
  5
E71F
  8
0
 10
4581.3637355638511508
 20
183.7369162857879132
 30
0.0
 11
4581.3637254127979759
 21
183.7472685987129921
 31
0.0
  0
LINE
  5
E720
  8
0
 10
4581.3519639667829324
 20
183.7534095655402098
 30
0.0
 11
4581.3636663554843835
 21
183.7483041789402023
 31
0.0
  0
LINE
  5
E721
  8
0
 10
4581.3636663554843835
 20
183.7483041789402023
 30
0.0
 11
4581.3867596344707636
 21
183.7484046844218142
 31
0.0
  0
LINE
  5
E722
  8
0
 10
4581.3867596344707636
 20
183.7484046844218142
 30
0.0
 11
4581.398150178083597
 21
183.7536902558402119
 31
0.0
  0
LINE
  5
E723
  8
0
 10
4581.398150178083597
 20
183.7536902558402119
 30
0.0
 11
4581.386714918632606
 21
183.7586791022935131
 31
0.0
  0
LINE
  5
E724
  8
0
 10
4581.386714918632606
 20
183.7586791022935131
 30
0.0
 11
4581.363621300783052
 21
183.7586564576401997
 31
0.0
  0
LINE
  5
E725
  8
0
 10
4581.363621300783052
 20
183.7586564576401997
 30
0.0
 11
4581.3519639667829324
 21
183.7534095655402098
 31
0.0
  0
LINE
  5
E726
  8
0
 10
4581.3867596344707636
 20
183.7484046844218142
 30
0.0
 11
4581.386714918632606
 21
183.7586791022935131
 31
0.0
  0
LINE
  5
E727
  8
0
 10
4581.3636663554843835
 20
183.7483041789402023
 30
0.0
 11
4581.3636562044293896
 21
183.7586564918653096
 31
0.0
  0
LINE
  5
E728
  8
0
 10
4581.351894758614435
 20
183.7647974586373891
 30
0.0
 11
4581.3635971473149766
 21
183.7596920720374101
 31
0.0
  0
LINE
  5
E729
  8
0
 10
4581.3635971473149766
 20
183.7596920720374101
 30
0.0
 11
4581.3866904263022661
 21
183.7597925775189935
 31
0.0
  0
LINE
  5
E72A
  8
0
 10
4581.3866904263022661
 20
183.7597925775189935
 30
0.0
 11
4581.3980809699141901
 21
183.7650781489373912
 31
0.0
  0
LINE
  5
E72B
  8
0
 10
4581.3980809699141901
 20
183.7650781489373912
 30
0.0
 11
4581.3866457104650181
 21
183.7700669953908061
 31
0.0
  0
LINE
  5
E72C
  8
0
 10
4581.3866457104650181
 20
183.7700669953908061
 30
0.0
 11
4581.3635520926136451
 21
183.7700443507374075
 31
0.0
  0
LINE
  5
E72D
  8
0
 10
4581.3635520926136451
 20
183.7700443507374075
 30
0.0
 11
4581.351894758614435
 21
183.7647974586373891
 31
0.0
  0
LINE
  5
E72E
  8
0
 10
4581.3866904263022661
 20
183.7597925775189935
 30
0.0
 11
4581.3866457104650181
 21
183.7700669953908061
 31
0.0
  0
LINE
  5
E72F
  8
0
 10
4581.3635971473149766
 20
183.7596920720374101
 30
0.0
 11
4581.3635869962608922
 21
183.7700443849624889
 31
0.0
  0
LINE
  5
E730
  8
0
 10
4581.3518255502949614
 20
183.7761853517885129
 30
0.0
 11
4581.3635279389964126
 21
183.7710799651885054
 31
0.0
  0
LINE
  5
E731
  8
0
 10
4581.3635279389964126
 20
183.7710799651885054
 30
0.0
 11
4581.3866212179827926
 21
183.7711804706700889
 31
0.0
  0
LINE
  5
E732
  8
0
 10
4581.3866212179827926
 20
183.7711804706700889
 30
0.0
 11
4581.3980117615947165
 21
183.7764660420884866
 31
0.0
  0
LINE
  5
E733
  8
0
 10
4581.3980117615947165
 20
183.7764660420884866
 30
0.0
 11
4581.386576502144635
 21
183.7814548885417878
 31
0.0
  0
LINE
  5
E734
  8
0
 10
4581.386576502144635
 20
183.7814548885417878
 30
0.0
 11
4581.3634828842941715
 21
183.7814322438885029
 31
0.0
  0
LINE
  5
E735
  8
0
 10
4581.3634828842941715
 20
183.7814322438885029
 30
0.0
 11
4581.3518255502949614
 21
183.7761853517885129
 31
0.0
  0
LINE
  5
E736
  8
0
 10
4581.3866212179827926
 20
183.7711804706700889
 30
0.0
 11
4581.386576502144635
 21
183.7814548885417878
 31
0.0
  0
LINE
  5
E737
  8
0
 10
4581.3635279389964126
 20
183.7710799651885054
 30
0.0
 11
4581.3635177879423281
 21
183.7814322781136127
 31
0.0
  0
LINE
  5
E738
  8
0
 10
4581.3517563416826306
 20
183.7875732448960093
 30
0.0
 11
4581.3634587303822627
 21
183.7824678582960019
 31
0.0
  0
LINE
  5
E739
  8
0
 10
4581.3634587303822627
 20
183.7824678582960019
 30
0.0
 11
4581.3865520093695523
 21
183.7825683637776137
 31
0.0
  0
LINE
  5
E73A
  8
0
 10
4581.3865520093695523
 20
183.7825683637776137
 30
0.0
 11
4581.3979425529823857
 21
183.7878539351960114
 31
0.0
  0
LINE
  5
E73B
  8
0
 10
4581.3979425529823857
 20
183.7878539351960114
 30
0.0
 11
4581.3865072935332137
 21
183.7928427816493127
 31
0.0
  0
LINE
  5
E73C
  8
0
 10
4581.3865072935332137
 20
183.7928427816493127
 30
0.0
 11
4581.3634136756818407
 21
183.7928201369959993
 31
0.0
  0
LINE
  5
E73D
  8
0
 10
4581.3634136756818407
 20
183.7928201369959993
 30
0.0
 11
4581.3517563416826306
 21
183.7875732448960093
 31
0.0
  0
LINE
  5
E73E
  8
0
 10
4581.3865520093695523
 20
183.7825683637776137
 30
0.0
 11
4581.3865072935332137
 21
183.7928427816493127
 31
0.0
  0
LINE
  5
E73F
  8
0
 10
4581.3634587303822627
 20
183.7824678582960019
 30
0.0
 11
4581.3634485793299973
 21
183.7928201712211091
 31
0.0
  0
LINE
  5
E740
  8
0
 10
4581.3516871333131348
 20
183.7989611380479005
 30
0.0
 11
4581.363389522012767
 21
183.793855751447893
 31
0.0
  0
LINE
  5
E741
  8
0
 10
4581.363389522012767
 20
183.793855751447893
 30
0.0
 11
4581.386482801000966
 21
183.7939562569295902
 31
0.0
  0
LINE
  5
E742
  8
0
 10
4581.386482801000966
 20
183.7939562569295902
 30
0.0
 11
4581.3978733446119804
 21
183.7992418283479026
 31
0.0
  0
LINE
  5
E743
  8
0
 10
4581.3978733446119804
 20
183.7992418283479026
 30
0.0
 11
4581.3864380851628084
 21
183.8042306748012891
 31
0.0
  0
LINE
  5
E744
  8
0
 10
4581.3864380851628084
 20
183.8042306748012891
 30
0.0
 11
4581.3633444673132544
 21
183.8042080301480041
 31
0.0
  0
LINE
  5
E745
  8
0
 10
4581.3633444673132544
 20
183.8042080301480041
 30
0.0
 11
4581.3516871333131348
 21
183.7989611380479005
 31
0.0
  0
LINE
  5
E746
  8
0
 10
4581.386482801000966
 20
183.7939562569295902
 30
0.0
 11
4581.3864380851628084
 21
183.8042306748012891
 31
0.0
  0
LINE
  5
E747
  8
0
 10
4581.363389522012767
 20
183.793855751447893
 30
0.0
 11
4581.3633793709595921
 21
183.8042080643730003
 31
0.0
  0
LINE
  5
E748
  8
0
 10
4581.3516179249481866
 20
183.8103490311997916
 30
0.0
 11
4581.3633203136478187
 21
183.8052436445998126
 31
0.0
  0
LINE
  5
E749
  8
0
 10
4581.3633203136478187
 20
183.8052436445998126
 30
0.0
 11
4581.3864135926351082
 21
183.8053441500815097
 31
0.0
  0
LINE
  5
E74A
  8
0
 10
4581.3864135926351082
 20
183.8053441500815097
 30
0.0
 11
4581.3978041362479416
 21
183.8106297214997937
 31
0.0
  0
LINE
  5
E74B
  8
0
 10
4581.3978041362479416
 20
183.8106297214997937
 30
0.0
 11
4581.3863688767978601
 21
183.8156185679532086
 31
0.0
  0
LINE
  5
E74C
  8
0
 10
4581.3863688767978601
 20
183.8156185679532086
 30
0.0
 11
4581.3632752589483061
 21
183.8155959232998953
 31
0.0
  0
LINE
  5
E74D
  8
0
 10
4581.3632752589483061
 20
183.8155959232998953
 30
0.0
 11
4581.3516179249481866
 21
183.8103490311997916
 31
0.0
  0
LINE
  5
E74E
  8
0
 10
4581.3864135926351082
 20
183.8053441500815097
 30
0.0
 11
4581.3863688767978601
 21
183.8156185679532086
 31
0.0
  0
LINE
  5
E74F
  8
0
 10
4581.3633203136478187
 20
183.8052436445998126
 30
0.0
 11
4581.3633101625946438
 21
183.8155959575248914
 31
0.0
  0
LINE
  5
E750
  8
0
 10
4581.3523382812936688
 20
183.8213924619323905
 30
0.0
 11
4581.3632511052783229
 21
183.816631537751789
 31
0.0
  0
LINE
  5
E751
  8
0
 10
4581.3632511052783229
 20
183.816631537751789
 30
0.0
 11
4581.3863443842656125
 21
183.8167320432334861
 31
0.0
  0
LINE
  5
E752
  8
0
 10
4581.3863443842656125
 20
183.8167320432334861
 30
0.0
 11
4581.3977349278784459
 21
183.8220176146517986
 31
0.0
  0
LINE
  5
E753
  8
0
 10
4581.3977349278784459
 20
183.8220176146517986
 30
0.0
 11
4581.3879175463853244
 21
183.8263006314957977
 31
0.0
  0
LINE
  5
E754
  8
0
 10
4581.3863443842656125
 20
183.8167320432334861
 30
0.0
 11
4581.3863035922631752
 21
183.8261048764169061
 31
0.0
  0
LINE
  5
E755
  8
0
 10
4581.3632511052783229
 20
183.816631537751789
 30
0.0
 11
4581.3632448317739545
 21
183.8230294223573082
 31
0.0
  0
LINE
  5
E756
  8
0
 10
4581.3140289118646251
 20
183.7246166768877913
 30
0.0
 11
4581.3257313005651667
 21
183.7195112902876986
 31
0.0
  0
LINE
  5
E757
  8
0
 10
4581.3257313005651667
 20
183.7195112902876986
 30
0.0
 11
4581.3488245795533658
 21
183.7196117957693104
 31
0.0
  0
LINE
  5
E758
  8
0
 10
4581.3488245795533658
 20
183.7196117957693104
 30
0.0
 11
4581.3602151231652897
 21
183.7248973671877081
 31
0.0
  0
LINE
  5
E759
  8
0
 10
4581.3602151231652897
 20
183.7248973671877081
 30
0.0
 11
4581.3487798637161177
 21
183.7298862136410946
 31
0.0
  0
LINE
  5
E75A
  8
0
 10
4581.3487798637161177
 20
183.7298862136410946
 30
0.0
 11
4581.3256862458656542
 21
183.729863568987696
 31
0.0
  0
LINE
  5
E75B
  8
0
 10
4581.3256862458656542
 20
183.729863568987696
 30
0.0
 11
4581.3140289118646251
 21
183.7246166768877913
 31
0.0
  0
LINE
  5
E75C
  8
0
 10
4581.3488245795533658
 20
183.7196117957693104
 30
0.0
 11
4581.3487798637161177
 21
183.7298862136410946
 31
0.0
  0
LINE
  5
E75D
  8
0
 10
4581.3257313005651667
 20
183.7195112902876986
 30
0.0
 11
4581.3257211495119918
 21
183.7298636032128059
 31
0.0
  0
LINE
  5
E75E
  8
0
 10
4581.3139593430523746
 20
183.7360638796073999
 30
0.0
 11
4581.3256617317520067
 21
183.7309584930073925
 31
0.0
  0
LINE
  5
E75F
  8
0
 10
4581.3256617317520067
 20
183.7309584930073925
 30
0.0
 11
4581.3487550107402058
 21
183.7310589984890896
 31
0.0
  0
LINE
  5
E760
  8
0
 10
4581.3487550107402058
 20
183.7310589984890896
 30
0.0
 11
4581.3601455543512202
 21
183.736344569907402
 31
0.0
  0
LINE
  5
E761
  8
0
 10
4581.3601455543512202
 20
183.736344569907402
 30
0.0
 11
4581.3487102949020482
 21
183.7413334163607885
 31
0.0
  0
LINE
  5
E762
  8
0
 10
4581.3487102949020482
 20
183.7413334163607885
 30
0.0
 11
4581.3256166770534037
 21
183.7413107717073899
 31
0.0
  0
LINE
  5
E763
  8
0
 10
4581.3256166770534037
 20
183.7413107717073899
 30
0.0
 11
4581.3139593430523746
 21
183.7360638796073999
 31
0.0
  0
LINE
  5
E764
  8
0
 10
4581.3487550107402058
 20
183.7310589984890896
 30
0.0
 11
4581.3487102949020482
 21
183.7413334163607885
 31
0.0
  0
LINE
  5
E765
  8
0
 10
4581.3256617317520067
 20
183.7309584930073925
 30
0.0
 11
4581.3256515806988318
 21
183.7413108059324998
 31
0.0
  0
LINE
  5
E766
  8
0
 10
4581.3138901346828789
 20
183.7474517727594048
 30
0.0
 11
4581.32559252338433
 21
183.7423463861593973
 31
0.0
  0
LINE
  5
E767
  8
0
 10
4581.32559252338433
 20
183.7423463861593973
 30
0.0
 11
4581.3486858023734385
 21
183.7424468916410092
 31
0.0
  0
LINE
  5
E768
  8
0
 10
4581.3486858023734385
 20
183.7424468916410092
 30
0.0
 11
4581.3600763459844529
 21
183.7477324630594069
 31
0.0
  0
LINE
  5
E769
  8
0
 10
4581.3600763459844529
 20
183.7477324630594069
 30
0.0
 11
4581.3486410865343714
 21
183.7527213095127081
 31
0.0
  0
LINE
  5
E76A
  8
0
 10
4581.3486410865343714
 20
183.7527213095127081
 30
0.0
 11
4581.3255474686839079
 21
183.7526986648593947
 31
0.0
  0
LINE
  5
E76B
  8
0
 10
4581.3255474686839079
 20
183.7526986648593947
 30
0.0
 11
4581.3138901346828789
 21
183.7474517727594048
 31
0.0
  0
LINE
  5
E76C
  8
0
 10
4581.3486858023734385
 20
183.7424468916410092
 30
0.0
 11
4581.3486410865343714
 21
183.7527213095127081
 31
0.0
  0
LINE
  5
E76D
  8
0
 10
4581.32559252338433
 20
183.7423463861593973
 30
0.0
 11
4581.3255823723311551
 21
183.7526986990845046
 31
0.0
  0
LINE
  5
E76E
  8
0
 10
4581.3138209263170211
 20
183.7588396659116086
 30
0.0
 11
4581.3255233150157437
 21
183.7537342793116011
 31
0.0
  0
LINE
  5
E76F
  8
0
 10
4581.3255233150157437
 20
183.7537342793116011
 30
0.0
 11
4581.3486165940048522
 21
183.7538347847932982
 31
0.0
  0
LINE
  5
E770
  8
0
 10
4581.3486165940048522
 20
183.7538347847932982
 30
0.0
 11
4581.3600071376167762
 21
183.7591203562116107
 31
0.0
  0
LINE
  5
E771
  8
0
 10
4581.3600071376167762
 20
183.7591203562116107
 30
0.0
 11
4581.3485718781666947
 21
183.7641092026649972
 31
0.0
  0
LINE
  5
E772
  8
0
 10
4581.3485718781666947
 20
183.7641092026649972
 30
0.0
 11
4581.3254782603162312
 21
183.7640865580115985
 31
0.0
  0
LINE
  5
E773
  8
0
 10
4581.3254782603162312
 20
183.7640865580115985
 30
0.0
 11
4581.3138209263170211
 21
183.7588396659116086
 31
0.0
  0
LINE
  5
E774
  8
0
 10
4581.3486165940048522
 20
183.7538347847932982
 30
0.0
 11
4581.3485718781666947
 21
183.7641092026649972
 31
0.0
  0
LINE
  5
E775
  8
0
 10
4581.3255233150157437
 20
183.7537342793116011
 30
0.0
 11
4581.3255131639625688
 21
183.7640865922367084
 31
0.0
  0
LINE
  5
E776
  8
0
 10
4581.3137517181467047
 20
183.7702275590087879
 30
0.0
 11
4581.3254541068481558
 21
183.7651221724088941
 31
0.0
  0
LINE
  5
E777
  8
0
 10
4581.3254541068481558
 20
183.7651221724088941
 30
0.0
 11
4581.3485473858363548
 21
183.765222677890506
 31
0.0
  0
LINE
  5
E778
  8
0
 10
4581.3485473858363548
 20
183.765222677890506
 30
0.0
 11
4581.3599379294473692
 21
183.7705082493089037
 31
0.0
  0
LINE
  5
E779
  8
0
 10
4581.3599379294473692
 20
183.7705082493089037
 30
0.0
 11
4581.3485026699991067
 21
183.7754970957622049
 31
0.0
  0
LINE
  5
E77A
  8
0
 10
4581.3485026699991067
 20
183.7754970957622049
 30
0.0
 11
4581.3254090521468243
 21
183.7754744511088916
 31
0.0
  0
LINE
  5
E77B
  8
0
 10
4581.3254090521468243
 20
183.7754744511088916
 30
0.0
 11
4581.3137517181467047
 21
183.7702275590087879
 31
0.0
  0
LINE
  5
E77C
  8
0
 10
4581.3485473858363548
 20
183.765222677890506
 30
0.0
 11
4581.3485026699991067
 21
183.7754970957622049
 31
0.0
  0
LINE
  5
E77D
  8
0
 10
4581.3254541068481558
 20
183.7651221724088941
 30
0.0
 11
4581.3254439557949809
 21
183.7754744853340014
 31
0.0
  0
LINE
  5
E77E
  8
0
 10
4581.3136825098281406
 20
183.7816154521599117
 30
0.0
 11
4581.3253848985286822
 21
183.7765100655599895
 31
0.0
  0
LINE
  5
E77F
  8
0
 10
4581.3253848985286822
 20
183.7765100655599895
 30
0.0
 11
4581.3484781775159718
 21
183.7766105710416014
 31
0.0
  0
LINE
  5
E780
  8
0
 10
4581.3484781775159718
 20
183.7766105710416014
 30
0.0
 11
4581.3598687211278957
 21
183.7818961424599138
 31
0.0
  0
LINE
  5
E781
  8
0
 10
4581.3598687211278957
 20
183.7818961424599138
 30
0.0
 11
4581.3484334616787237
 21
183.7868849889133003
 31
0.0
  0
LINE
  5
E782
  8
0
 10
4581.3484334616787237
 20
183.7868849889133003
 30
0.0
 11
4581.3253398438282602
 21
183.7868623442599016
 31
0.0
  0
LINE
  5
E783
  8
0
 10
4581.3253398438282602
 20
183.7868623442599016
 30
0.0
 11
4581.3136825098281406
 21
183.7816154521599117
 31
0.0
  0
LINE
  5
E784
  8
0
 10
4581.3484781775159718
 20
183.7766105710416014
 30
0.0
 11
4581.3484334616787237
 21
183.7868849889133003
 31
0.0
  0
LINE
  5
E785
  8
0
 10
4581.3253848985286822
 20
183.7765100655599895
 30
0.0
 11
4581.3253747474745978
 21
183.7868623784850115
 31
0.0
  0
LINE
  5
E786
  8
0
 10
4581.3136133012149003
 20
183.7930033452674081
 30
0.0
 11
4581.3253156899163514
 21
183.7878979586674006
 31
0.0
  0
LINE
  5
E787
  8
0
 10
4581.3253156899163514
 20
183.7878979586674006
 30
0.0
 11
4581.3484089689045504
 21
183.7879984641490978
 31
0.0
  0
LINE
  5
E788
  8
0
 10
4581.3484089689045504
 20
183.7879984641490978
 30
0.0
 11
4581.3597995125155649
 21
183.7932840355674102
 31
0.0
  0
LINE
  5
E789
  8
0
 10
4581.3597995125155649
 20
183.7932840355674102
 30
0.0
 11
4581.3483642530663928
 21
183.7982728820207967
 31
0.0
  0
LINE
  5
E78A
  8
0
 10
4581.3483642530663928
 20
183.7982728820207967
 30
0.0
 11
4581.3252706352159294
 21
183.7982502373673981
 31
0.0
  0
LINE
  5
E78B
  8
0
 10
4581.3252706352159294
 20
183.7982502373673981
 30
0.0
 11
4581.3136133012149003
 21
183.7930033452674081
 31
0.0
  0
LINE
  5
E78C
  8
0
 10
4581.3484089689045504
 20
183.7879984641490978
 30
0.0
 11
4581.3483642530663928
 21
183.7982728820207967
 31
0.0
  0
LINE
  5
E78D
  8
0
 10
4581.3253156899163514
 20
183.7878979586674006
 30
0.0
 11
4581.325305538864086
 21
183.7982502715925079
 31
0.0
  0
LINE
  5
E78E
  8
0
 10
4581.313544092846314
 20
183.804391238419413
 30
0.0
 11
4581.3252464815459462
 21
183.7992858518194055
 31
0.0
  0
LINE
  5
E78F
  8
0
 10
4581.3252464815459462
 20
183.7992858518194055
 30
0.0
 11
4581.3483397605350547
 21
183.7993863573009889
 31
0.0
  0
LINE
  5
E790
  8
0
 10
4581.3483397605350547
 20
183.7993863573009889
 30
0.0
 11
4581.3597303041460691
 21
183.8046719287193866
 31
0.0
  0
LINE
  5
E791
  8
0
 10
4581.3597303041460691
 20
183.8046719287193866
 30
0.0
 11
4581.3482950446968971
 21
183.8096607751728016
 31
0.0
  0
LINE
  5
E792
  8
0
 10
4581.3482950446968971
 20
183.8096607751728016
 30
0.0
 11
4581.3252014268464336
 21
183.8096381305194029
 31
0.0
  0
LINE
  5
E793
  8
0
 10
4581.3252014268464336
 20
183.8096381305194029
 30
0.0
 11
4581.313544092846314
 21
183.804391238419413
 31
0.0
  0
LINE
  5
E794
  8
0
 10
4581.3483397605350547
 20
183.7993863573009889
 30
0.0
 11
4581.3482950446968971
 21
183.8096607751728016
 31
0.0
  0
LINE
  5
E795
  8
0
 10
4581.3252464815459462
 20
183.7992858518194055
 30
0.0
 11
4581.3252363304936807
 21
183.8096381647445128
 31
0.0
  0
LINE
  5
E796
  8
0
 10
4581.3155297645116661
 20
183.8148826516097927
 30
0.0
 11
4581.3251772731809979
 21
183.8106737449712966
 31
0.0
  0
LINE
  5
E797
  8
0
 10
4581.3251772731809979
 20
183.8106737449712966
 30
0.0
 11
4581.3482705521691969
 21
183.8107742504529085
 31
0.0
  0
LINE
  5
E798
  8
0
 10
4581.3482705521691969
 20
183.8107742504529085
 30
0.0
 11
4581.3596610957802113
 21
183.8160598218713062
 31
0.0
  0
LINE
  5
E799
  8
0
 10
4581.3596610957802113
 20
183.8160598218713062
 30
0.0
 11
4581.3487362679989019
 21
183.8208259829345081
 31
0.0
  0
LINE
  5
E79A
  8
0
 10
4581.3482705521691969
 20
183.8107742504529085
 30
0.0
 11
4581.3482271584698537
 21
183.8207448788589886
 31
0.0
  0
LINE
  5
E79B
  8
0
 10
4581.3251772731809979
 20
183.8106737449712966
 30
0.0
 11
4581.3251712780311209
 21
183.8167877582384904
 31
0.0
  0
LINE
  5
E79C
  8
0
 10
4581.2758951392906965
 20
183.7301074292234091
 30
0.0
 11
4581.2875975279921477
 21
183.7250020426234016
 31
0.0
  0
LINE
  5
E79D
  8
0
 10
4581.2875975279921477
 20
183.7250020426234016
 30
0.0
 11
4581.3106908069794372
 21
183.7251025481050135
 31
0.0
  0
LINE
  5
E79E
  8
0
 10
4581.3106908069794372
 20
183.7251025481050135
 30
0.0
 11
4581.3220813505913611
 21
183.7303881195234112
 31
0.0
  0
LINE
  5
E79F
  8
0
 10
4581.3220813505913611
 20
183.7303881195234112
 30
0.0
 11
4581.3106460911412796
 21
183.7353769659767124
 31
0.0
  0
LINE
  5
E7A0
  8
0
 10
4581.3106460911412796
 20
183.7353769659767124
 30
0.0
 11
4581.2875524732899066
 21
183.7353543213233991
 31
0.0
  0
LINE
  5
E7A1
  8
0
 10
4581.2875524732899066
 20
183.7353543213233991
 30
0.0
 11
4581.2758951392906965
 21
183.7301074292234091
 31
0.0
  0
LINE
  5
E7A2
  8
0
 10
4581.3106908069794372
 20
183.7251025481050135
 30
0.0
 11
4581.3106460911412796
 21
183.7353769659767124
 31
0.0
  0
LINE
  5
E7A3
  8
0
 10
4581.2875975279921477
 20
183.7250020426234016
 30
0.0
 11
4581.2875873769371537
 21
183.7353543555485089
 31
0.0
  0
LINE
  5
E7A4
  8
0
 10
4581.275825570478446
 20
183.741554631943103
 30
0.0
 11
4581.2875279591780782
 21
183.7364492453430955
 31
0.0
  0
LINE
  5
E7A5
  8
0
 10
4581.2875279591780782
 20
183.7364492453430955
 30
0.0
 11
4581.3106212381662772
 21
183.7365497508247927
 31
0.0
  0
LINE
  5
E7A6
  8
0
 10
4581.3106212381662772
 20
183.7365497508247927
 30
0.0
 11
4581.3220117817782011
 21
183.7418353222431051
 31
0.0
  0
LINE
  5
E7A7
  8
0
 10
4581.3220117817782011
 20
183.7418353222431051
 30
0.0
 11
4581.3105765223281196
 21
183.7468241686964916
 31
0.0
  0
LINE
  5
E7A8
  8
0
 10
4581.3105765223281196
 20
183.7468241686964916
 30
0.0
 11
4581.2874829044767466
 21
183.746801524043093
 31
0.0
  0
LINE
  5
E7A9
  8
0
 10
4581.2874829044767466
 20
183.746801524043093
 30
0.0
 11
4581.275825570478446
 21
183.741554631943103
 31
0.0
  0
LINE
  5
E7AA
  8
0
 10
4581.3106212381662772
 20
183.7365497508247927
 30
0.0
 11
4581.3105765223281196
 21
183.7468241686964916
 31
0.0
  0
LINE
  5
E7AB
  8
0
 10
4581.2875279591780782
 20
183.7364492453430955
 30
0.0
 11
4581.2875178081239937
 21
183.7468015582682028
 31
0.0
  0
LINE
  5
E7AC
  8
0
 10
4581.2757563621089503
 20
183.7529425250951078
 30
0.0
 11
4581.2874587508104014
 21
183.7478371384951004
 31
0.0
  0
LINE
  5
E7AD
  8
0
 10
4581.2874587508104014
 20
183.7478371384951004
 30
0.0
 11
4581.3105520297976909
 21
183.7479376439767123
 31
0.0
  0
LINE
  5
E7AE
  8
0
 10
4581.3105520297976909
 20
183.7479376439767123
 30
0.0
 11
4581.3219425734087054
 21
183.7532232153951099
 31
0.0
  0
LINE
  5
E7AF
  8
0
 10
4581.3219425734087054
 20
183.7532232153951099
 30
0.0
 11
4581.3105073139604428
 21
183.7582120618484112
 31
0.0
  0
LINE
  5
E7B0
  8
0
 10
4581.3105073139604428
 20
183.7582120618484112
 30
0.0
 11
4581.2874136961090699
 21
183.7581894171950978
 31
0.0
  0
LINE
  5
E7B1
  8
0
 10
4581.2874136961090699
 20
183.7581894171950978
 30
0.0
 11
4581.2757563621089503
 21
183.7529425250951078
 31
0.0
  0
LINE
  5
E7B2
  8
0
 10
4581.3105520297976909
 20
183.7479376439767123
 30
0.0
 11
4581.3105073139604428
 21
183.7582120618484112
 31
0.0
  0
LINE
  5
E7B3
  8
0
 10
4581.2874587508104014
 20
183.7478371384951004
 30
0.0
 11
4581.2874485997572265
 21
183.758189451420094
 31
0.0
  0
LINE
  5
E7B4
  8
0
 10
4581.275687153742183
 20
183.7643304182473116
 30
0.0
 11
4581.2873895424427246
 21
183.7592250316473041
 31
0.0
  0
LINE
  5
E7B5
  8
0
 10
4581.2873895424427246
 20
183.7592250316473041
 30
0.0
 11
4581.3104828214300142
 21
183.7593255371290013
 31
0.0
  0
LINE
  5
E7B6
  8
0
 10
4581.3104828214300142
 20
183.7593255371290013
 30
0.0
 11
4581.3218733650419381
 21
183.7646111085473137
 31
0.0
  0
LINE
  5
E7B7
  8
0
 10
4581.3218733650419381
 20
183.7646111085473137
 30
0.0
 11
4581.3104381055918566
 21
183.7695999550007002
 31
0.0
  0
LINE
  5
E7B8
  8
0
 10
4581.3104381055918566
 20
183.7695999550007002
 30
0.0
 11
4581.2873444877423026
 21
183.7695773103473016
 31
0.0
  0
LINE
  5
E7B9
  8
0
 10
4581.2873444877423026
 20
183.7695773103473016
 30
0.0
 11
4581.275687153742183
 21
183.7643304182473116
 31
0.0
  0
LINE
  5
E7BA
  8
0
 10
4581.3104828214300142
 20
183.7593255371290013
 30
0.0
 11
4581.3104381055918566
 21
183.7695999550007002
 31
0.0
  0
LINE
  5
E7BB
  8
0
 10
4581.2873895424427246
 20
183.7592250316473041
 30
0.0
 11
4581.2873793913886402
 21
183.7695773445724114
 31
0.0
  0
LINE
  5
E7BC
  8
0
 10
4581.2756179455736856
 20
183.775718311344491
 30
0.0
 11
4581.2873203342733177
 21
183.7706129247445119
 31
0.0
  0
LINE
  5
E7BD
  8
0
 10
4581.2873203342733177
 20
183.7706129247445119
 30
0.0
 11
4581.3104136132624262
 21
183.7707134302260954
 31
0.0
  0
LINE
  5
E7BE
  8
0
 10
4581.3104136132624262
 20
183.7707134302260954
 30
0.0
 11
4581.3218041568743502
 21
183.7759990016444931
 31
0.0
  0
LINE
  5
E7BF
  8
0
 10
4581.3218041568743502
 20
183.7759990016444931
 30
0.0
 11
4581.3103688974242687
 21
183.780987848097908
 31
0.0
  0
LINE
  5
E7C0
  8
0
 10
4581.3103688974242687
 20
183.780987848097908
 30
0.0
 11
4581.2872752795728957
 21
183.7809652034445946
 31
0.0
  0
LINE
  5
E7C1
  8
0
 10
4581.2872752795728957
 20
183.7809652034445946
 30
0.0
 11
4581.2756179455736856
 21
183.775718311344491
 31
0.0
  0
LINE
  5
E7C2
  8
0
 10
4581.3104136132624262
 20
183.7707134302260954
 30
0.0
 11
4581.3103688974242687
 21
183.780987848097908
 31
0.0
  0
LINE
  5
E7C3
  8
0
 10
4581.2873203342733177
 20
183.7706129247445119
 30
0.0
 11
4581.2873101832201428
 21
183.7809652376695908
 31
0.0
  0
LINE
  5
E7C4
  8
0
 10
4581.275548737254212
 20
183.7871062044955863
 30
0.0
 11
4581.2872511259538442
 21
183.7820008178956073
 31
0.0
  0
LINE
  5
E7C5
  8
0
 10
4581.2872511259538442
 20
183.7820008178956073
 30
0.0
 11
4581.3103444049429527
 21
183.7821013233773044
 31
0.0
  0
LINE
  5
E7C6
  8
0
 10
4581.3103444049429527
 20
183.7821013233773044
 30
0.0
 11
4581.3217349485539671
 21
183.7873868947955884
 31
0.0
  0
LINE
  5
E7C7
  8
0
 10
4581.3217349485539671
 20
183.7873868947955884
 30
0.0
 11
4581.3102996891038856
 21
183.7923757412490033
 31
0.0
  0
LINE
  5
E7C8
  8
0
 10
4581.3102996891038856
 20
183.7923757412490033
 30
0.0
 11
4581.2872060712543316
 21
183.7923530965956047
 31
0.0
  0
LINE
  5
E7C9
  8
0
 10
4581.2872060712543316
 20
183.7923530965956047
 30
0.0
 11
4581.275548737254212
 21
183.7871062044955863
 31
0.0
  0
LINE
  5
E7CA
  8
0
 10
4581.3103444049429527
 20
183.7821013233773044
 30
0.0
 11
4581.3102996891038856
 21
183.7923757412490033
 31
0.0
  0
LINE
  5
E7CB
  8
0
 10
4581.2872511259538442
 20
183.7820008178956073
 30
0.0
 11
4581.2872409749006692
 21
183.7923531308206861
 31
0.0
  0
LINE
  5
E7CC
  8
0
 10
4581.2754795286409717
 20
183.7984940976031112
 30
0.0
 11
4581.2871819173424228
 21
183.7933887110031037
 31
0.0
  0
LINE
  5
E7CD
  8
0
 10
4581.2871819173424228
 20
183.7933887110031037
 30
0.0
 11
4581.3102751963288028
 21
183.7934892164846872
 31
0.0
  0
LINE
  5
E7CE
  8
0
 10
4581.3102751963288028
 20
183.7934892164846872
 30
0.0
 11
4581.3216657399407268
 21
183.7987747879031133
 31
0.0
  0
LINE
  5
E7CF
  8
0
 10
4581.3216657399407268
 20
183.7987747879031133
 30
0.0
 11
4581.3102304804915548
 21
183.8037636343563861
 31
0.0
  0
LINE
  5
E7D0
  8
0
 10
4581.3102304804915548
 20
183.8037636343563861
 30
0.0
 11
4581.2871368626410913
 21
183.8037409897031011
 31
0.0
  0
LINE
  5
E7D1
  8
0
 10
4581.2871368626410913
 20
183.8037409897031011
 30
0.0
 11
4581.2754795286409717
 21
183.7984940976031112
 31
0.0
  0
LINE
  5
E7D2
  8
0
 10
4581.3102751963288028
 20
183.7934892164846872
 30
0.0
 11
4581.3102304804915548
 21
183.8037636343563861
 31
0.0
  0
LINE
  5
E7D3
  8
0
 10
4581.2871819173424228
 20
183.7933887110031037
 30
0.0
 11
4581.2871717662892479
 21
183.803741023928211
 31
0.0
  0
LINE
  5
E7D4
  8
0
 10
4581.2822081219201209
 20
183.806916322263703
 30
0.0
 11
4581.2871127089720176
 21
183.8047766041551085
 31
0.0
  0
LINE
  5
E7D5
  8
0
 10
4581.2871127089720176
 20
183.8047766041551085
 30
0.0
 11
4581.3102059879602166
 21
183.804877109636692
 31
0.0
  0
LINE
  5
E7D6
  8
0
 10
4581.3102059879602166
 20
183.804877109636692
 30
0.0
 11
4581.3215965315721405
 21
183.8101626810550897
 31
0.0
  0
LINE
  5
E7D7
  8
0
 10
4581.3215965315721405
 20
183.8101626810550897
 30
0.0
 11
4581.3123210199210007
 21
183.8142092970159922
 31
0.0
  0
LINE
  5
E7D8
  8
0
 10
4581.3102059879602166
 20
183.804877109636692
 30
0.0
 11
4581.3101673879718874
 21
183.8137462807601139
 31
0.0
  0
LINE
  5
E7D9
  8
0
 10
4581.2871127089720176
 20
183.8047766041551085
 30
0.0
 11
4581.2871093278508852
 21
183.8082247611363016
 31
0.0
  0
LINE
  5
E7DA
  8
0
 10
4581.2667782508387972
 20
183.7305192501009969
 30
0.0
 11
4581.2723134947909784
 21
183.7305433403292056
 31
0.0
  0
LINE
  5
E7DB
  8
0
 10
4581.2723134947909784
 20
183.7305433403292056
 30
0.0
 11
4581.2837040384029024
 21
183.7358289117474897
 31
0.0
  0
LINE
  5
E7DC
  8
0
 10
4581.2837040384029024
 20
183.7358289117474897
 30
0.0
 11
4581.2722687789528209
 21
183.7408177582009046
 31
0.0
  0
LINE
  5
E7DD
  8
0
 10
4581.2722687789528209
 20
183.7408177582009046
 30
0.0
 11
4581.2491939194678707
 21
183.740795131941212
 31
0.0
  0
LINE
  5
E7DE
  8
0
 10
4581.2723134947909784
 20
183.7305433403292056
 30
0.0
 11
4581.2722687789528209
 21
183.7408177582009046
 31
0.0
  0
LINE
  5
E7DF
  8
0
 10
4581.2492100764520728
 20
183.7407832134460079
 30
0.0
 11
4581.2492100647496045
 21
183.7407951477725874
 31
0.0
  0
LINE
  5
E7E0
  8
0
 10
4581.2460976060310713
 20
183.7432219839585059
 30
0.0
 11
4581.2491506469887099
 21
183.7418900375672024
 31
0.0
  0
LINE
  5
E7E1
  8
0
 10
4581.2491506469887099
 20
183.7418900375672024
 30
0.0
 11
4581.2722439259778184
 21
183.7419905430487859
 31
0.0
  0
LINE
  5
E7E2
  8
0
 10
4581.2722439259778184
 20
183.7419905430487859
 30
0.0
 11
4581.2836344695888329
 21
183.747276114467212
 31
0.0
  0
LINE
  5
E7E3
  8
0
 10
4581.2836344695888329
 20
183.747276114467212
 30
0.0
 11
4581.2721992101387514
 21
183.7522649609205985
 31
0.0
  0
LINE
  5
E7E4
  8
0
 10
4581.2721992101387514
 20
183.7522649609205985
 30
0.0
 11
4581.2491055922891974
 21
183.7522423162671998
 31
0.0
  0
LINE
  5
E7E5
  8
0
 10
4581.2491055922891974
 20
183.7522423162671998
 30
0.0
 11
4581.2405482171861877
 21
183.7483906960059983
 31
0.0
  0
LINE
  5
E7E6
  8
0
 10
4581.2722439259778184
 20
183.7419905430487859
 30
0.0
 11
4581.2721992101387514
 21
183.7522649609205985
 31
0.0
  0
LINE
  5
E7E7
  8
0
 10
4581.2491506469887099
 20
183.7418900375672024
 30
0.0
 11
4581.249140495937354
 21
183.7522423504923097
 31
0.0
  0
LINE
  5
E7E8
  8
0
 10
4581.237379049921401
 20
183.7583833173191863
 30
0.0
 11
4581.2490814386219427
 21
183.7532779307192072
 31
0.0
  0
LINE
  5
E7E9
  8
0
 10
4581.2490814386219427
 20
183.7532779307192072
 30
0.0
 11
4581.2721747176101417
 21
183.7533784362007907
 31
0.0
  0
LINE
  5
E7EA
  8
0
 10
4581.2721747176101417
 20
183.7533784362007907
 30
0.0
 11
4581.2835652612211561
 21
183.7586640076191884
 31
0.0
  0
LINE
  5
E7EB
  8
0
 10
4581.2835652612211561
 20
183.7586640076191884
 30
0.0
 11
4581.2721300017719841
 21
183.7636528540724896
 31
0.0
  0
LINE
  5
E7EC
  8
0
 10
4581.2721300017719841
 20
183.7636528540724896
 30
0.0
 11
4581.2490363839224301
 21
183.7636302094192047
 31
0.0
  0
LINE
  5
E7ED
  8
0
 10
4581.2490363839224301
 20
183.7636302094192047
 30
0.0
 11
4581.237379049921401
 21
183.7583833173191863
 31
0.0
  0
LINE
  5
E7EE
  8
0
 10
4581.2721747176101417
 20
183.7533784362007907
 30
0.0
 11
4581.2721300017719841
 21
183.7636528540724896
 31
0.0
  0
LINE
  5
E7EF
  8
0
 10
4581.2490814386219427
 20
183.7532779307192072
 30
0.0
 11
4581.2490712875678582
 21
183.7636302436442861
 31
0.0
  0
LINE
  5
E7F0
  8
0
 10
4581.2373098415528148
 20
183.7697712104713901
 30
0.0
 11
4581.2490122302542659
 21
183.764665823871411
 31
0.0
  0
LINE
  5
E7F1
  8
0
 10
4581.2490122302542659
 20
183.764665823871411
 30
0.0
 11
4581.2721055092415554
 21
183.7647663293529945
 31
0.0
  0
LINE
  5
E7F2
  8
0
 10
4581.2721055092415554
 20
183.7647663293529945
 30
0.0
 11
4581.2834960528543888
 21
183.7700519007713922
 31
0.0
  0
LINE
  5
E7F3
  8
0
 10
4581.2834960528543888
 20
183.7700519007713922
 30
0.0
 11
4581.2720607934052168
 21
183.7750407472248071
 31
0.0
  0
LINE
  5
E7F4
  8
0
 10
4581.2720607934052168
 20
183.7750407472248071
 30
0.0
 11
4581.2489671755529343
 21
183.7750181025714085
 31
0.0
  0
LINE
  5
E7F5
  8
0
 10
4581.2489671755529343
 20
183.7750181025714085
 30
0.0
 11
4581.2373098415528148
 21
183.7697712104713901
 31
0.0
  0
LINE
  5
E7F6
  8
0
 10
4581.2721055092415554
 20
183.7647663293529945
 30
0.0
 11
4581.2720607934052168
 21
183.7750407472248071
 31
0.0
  0
LINE
  5
E7F7
  8
0
 10
4581.2490122302542659
 20
183.764665823871411
 30
0.0
 11
4581.249002079201091
 21
183.7750181367964899
 31
0.0
  0
LINE
  5
E7F8
  8
0
 10
4581.2372406333843173
 20
183.7811591035685979
 30
0.0
 11
4581.248943022084859
 21
183.7760537169685904
 31
0.0
  0
LINE
  5
E7F9
  8
0
 10
4581.248943022084859
 20
183.7760537169685904
 30
0.0
 11
4581.2720363010739675
 21
183.7761542224502875
 31
0.0
  0
LINE
  5
E7FA
  8
0
 10
4581.2720363010739675
 20
183.7761542224502875
 30
0.0
 11
4581.2834268446840724
 21
183.7814397938686
 31
0.0
  0
LINE
  5
E7FB
  8
0
 10
4581.2834268446840724
 20
183.7814397938686
 30
0.0
 11
4581.2719915852358099
 21
183.7864286403219864
 31
0.0
  0
LINE
  5
E7FC
  8
0
 10
4581.2719915852358099
 20
183.7864286403219864
 30
0.0
 11
4581.2488979673853464
 21
183.7864059956685878
 31
0.0
  0
LINE
  5
E7FD
  8
0
 10
4581.2488979673853464
 20
183.7864059956685878
 30
0.0
 11
4581.2372406333843173
 21
183.7811591035685979
 31
0.0
  0
LINE
  5
E7FE
  8
0
 10
4581.2720363010739675
 20
183.7761542224502875
 30
0.0
 11
4581.2719915852358099
 21
183.7864286403219864
 31
0.0
  0
LINE
  5
E7FF
  8
0
 10
4581.248943022084859
 20
183.7760537169685904
 30
0.0
 11
4581.2489328710325935
 21
183.7864060298936977
 31
0.0
  0
LINE
  5
E800
  8
0
 10
4581.2452028678007991
 20
183.7890431291612003
 30
0.0
 11
4581.2488738137662949
 21
183.7874416101197141
 31
0.0
  0
LINE
  5
E801
  8
0
 10
4581.2488738137662949
 20
183.7874416101197141
 30
0.0
 11
4581.2719670927526749
 21
183.7875421156012976
 31
0.0
  0
LINE
  5
E802
  8
0
 10
4581.2719670927526749
 20
183.7875421156012976
 30
0.0
 11
4581.2833576363645989
 21
183.7928276870196953
 31
0.0
  0
LINE
  5
E803
  8
0
 10
4581.2833576363645989
 20
183.7928276870196953
 30
0.0
 11
4581.2719223769163364
 21
183.7978165334731102
 31
0.0
  0
LINE
  5
E804
  8
0
 10
4581.2719223769163364
 20
183.7978165334731102
 30
0.0
 11
4581.2581231524936811
 21
183.7978030025203111
 31
0.0
  0
LINE
  5
E805
  8
0
 10
4581.2719670927526749
 20
183.7875421156012976
 30
0.0
 11
4581.2719223769163364
 21
183.7978165334731102
 31
0.0
  0
LINE
  5
E806
  8
0
 10
4581.2488738137662949
 20
183.7874416101197141
 30
0.0
 11
4581.2488694058783949
 21
183.7919368915090104
 31
0.0
  0
LINE
  5
E807
  8
0
 10
4581.2599939445017299
 20
183.7988782009431077
 30
0.0
 11
4581.2718978841412536
 21
183.798930008708794
 31
0.0
  0
LINE
  5
E808
  8
0
 10
4581.2718978841412536
 20
183.798930008708794
 30
0.0
 11
4581.2832884277531775
 21
183.8042155801271917
 31
0.0
  0
LINE
  5
E809
  8
0
 10
4581.2832884277531775
 20
183.8042155801271917
 30
0.0
 11
4581.2790736005308645
 21
183.806054377570689
 31
0.0
  0
LINE
  5
E80A
  8
0
 10
4581.2718978841412536
 20
183.798930008708794
 30
0.0
 11
4581.2718758175733456
 21
183.8040002737496934
 31
0.0
  0
ARC
  5
E80B
  8
0
 10
4581.5216215905729769
 20
184.7832976867260015
 30
0.0
 40
1.0920746252997371
 50
265.439944380075417
 51
269.539276708074226
  0
ARC
  5
E80C
  8
0
 10
4581.5000064662053774
 20
184.5122835799309939
 30
0.0
 40
0.8201999120891847
 50
258.3058355597710261
 51
265.439944380075417
  0
ARC
  5
E80D
  8
0
 10
4581.4036324062763015
 20
184.0466720372110103
 30
0.0
 40
0.3447190311472255
 50
248.278678258085705
 51
258.3058355597710261
  0
ARC
  5
E80E
  8
0
 10
4581.3280143350666549
 20
183.8568578569395982
 30
0.0
 40
0.1403969429497297
 50
237.9059445965856128
 51
248.278678258085705
  0
ARC
  5
E80F
  8
0
 10
4581.2893805583844369
 20
183.795256142734786
 30
0.0
 40
0.0676828460096408
 50
219.6540595363632065
 51
237.9059445965856128
  0
ARC
  5
E810
  8
0
 10
4581.2548705261833675
 20
183.7666520736603957
 30
0.0
 40
0.0228594694062675
 50
182.1719058567481966
 51
219.6540595363618991
  0
ARC
  5
E811
  8
0
 10
4581.2527858068469868
 20
183.7665730105227055
 30
0.0
 40
0.0207732513711193
 50
146.0771043107276057
 51
182.171905856743308
  0
ARC
  5
E812
  8
0
 10
4581.2807622341779279
 20
183.747757399576102
 30
0.0
 40
0.0544883474196069
 50
123.2238249601539053
 51
146.077104310726213
  0
ARC
  5
E813
  8
0
 10
4581.3408996124608166
 20
183.6559412036075116
 30
0.0
 40
0.1642458897977892
 50
116.8821553419029016
 51
123.2238249601539053
  0
LINE
  5
E814
  8
0
 10
4581.4639989198531111
 20
183.8280583630659066
 30
0.0
 11
4581.4757013085536528
 21
183.8229529764658992
 31
0.0
  0
LINE
  5
E815
  8
0
 10
4581.4757013085536528
 20
183.8229529764658992
 30
0.0
 11
4581.4987945875418518
 21
183.823053481947511
 31
0.0
  0
LINE
  5
E816
  8
0
 10
4581.4987945875418518
 20
183.823053481947511
 30
0.0
 11
4581.5101851311528662
 21
183.8283390533659087
 31
0.0
  0
LINE
  5
E817
  8
0
 10
4581.5101851311528662
 20
183.8283390533659087
 30
0.0
 11
4581.4987498717036942
 21
183.83332789981921
 31
0.0
  0
LINE
  5
E818
  8
0
 10
4581.4987498717036942
 20
183.83332789981921
 30
0.0
 11
4581.4806267415233378
 21
183.83331012902201
 31
0.0
  0
LINE
  5
E819
  8
0
 10
4581.4751811851947423
 20
183.8330914297756067
 30
0.0
 11
4581.4639989198531111
 21
183.8280583630659066
 31
0.0
  0
LINE
  5
E81A
  8
0
 10
4581.4757013085536528
 20
183.8229529764658992
 30
0.0
 11
4581.4756913465971593
 21
183.8331124437825963
 31
0.0
  0
LINE
  5
E81B
  8
0
 10
4581.3904156719963794
 20
183.8265986117656894
 30
0.0
 11
4581.39972951368145
 21
183.8225352736610034
 31
0.0
  0
LINE
  5
E81C
  8
0
 10
4581.39972951368145
 20
183.8225352736610034
 30
0.0
 11
4581.4228227927696935
 21
183.8226357789164922
 31
0.0
  0
LINE
  5
E81D
  8
0
 10
4581.4228227927696935
 20
183.8226357789164922
 30
0.0
 11
4581.4342133363816174
 21
183.827921350561013
 31
0.0
  0
LINE
  5
E81E
  8
0
 10
4581.4342133363816174
 20
183.827921350561013
 30
0.0
 11
4581.4285458606300381
 21
183.8303938932237998
 31
0.0
  0
LINE
  5
E81F
  8
0
 10
4581.4325095883450558
 20
183.8307076717944994
 30
0.0
 11
4581.4376617185807845
 21
183.8284599582609928
 31
0.0
  0
LINE
  5
E820
  8
0
 10
4581.4376617185807845
 20
183.8284599582609928
 30
0.0
 11
4581.460754824281139
 21
183.8286003034610019
 31
0.0
  0
LINE
  5
E821
  8
0
 10
4581.460754824281139
 20
183.8286003034610019
 30
0.0
 11
4581.4700333326718464
 21
183.8328733062417939
 31
0.0
  0
LINE
  5
E822
  8
0
 10
4581.39972951368145
 20
183.8225352736610034
 30
0.0
 11
4581.3991752871588687
 21
183.8275953975200991
 31
0.0
  0
LINE
  5
E823
  8
0
 10
4581.4228227927696935
 20
183.8226357789164922
 30
0.0
 11
4581.4230510441238948
 21
183.8299338277259096
 31
0.0
  0
LINE
  5
E824
  8
0
 10
4581.4376617185807845
 20
183.8284599582609928
 30
0.0
 11
4581.4376457243452023
 21
183.8310917303290921
 31
0.0
  0
LINE
  5
E825
  8
0
 10
4581.460754824281139
 20
183.8286003034610019
 30
0.0
 11
4581.4608635720060192
 21
183.8324573594551055
 31
0.0
  0
LINE
  5
E826
  8
0
 10
4581.4294245269884414
 20
183.708261115404099
 30
0.0
 11
4581.4411269156880735
 21
183.7031557288040915
 31
0.0
  0
LINE
  5
E827
  8
0
 10
4581.4411269156880735
 20
183.7031557288040915
 30
0.0
 11
4581.4642201946762725
 21
183.7032562342857034
 31
0.0
  0
LINE
  5
E828
  8
0
 10
4581.4642201946762725
 20
183.7032562342857034
 30
0.0
 11
4581.4756107382881964
 21
183.7085418057041011
 31
0.0
  0
LINE
  5
E829
  8
0
 10
4581.4756107382881964
 20
183.7085418057041011
 30
0.0
 11
4581.4641754788381149
 21
183.7135306521574023
 31
0.0
  0
LINE
  5
E82A
  8
0
 10
4581.4641754788381149
 20
183.7135306521574023
 30
0.0
 11
4581.4410818609876515
 21
183.7135080075040889
 31
0.0
  0
LINE
  5
E82B
  8
0
 10
4581.4410818609876515
 20
183.7135080075040889
 30
0.0
 11
4581.4294245269884414
 21
183.708261115404099
 31
0.0
  0
LINE
  5
E82C
  8
0
 10
4581.4642201946762725
 20
183.7032562342857034
 30
0.0
 11
4581.4641754788381149
 21
183.7135306521574023
 31
0.0
  0
LINE
  5
E82D
  8
0
 10
4581.4411269156880735
 20
183.7031557288040915
 30
0.0
 11
4581.4411167646358081
 21
183.7135080417291988
 31
0.0
  0
ARC
  5
E82E
  8
0
 10
4581.5148401325050145
 20
183.7044671503601876
 30
0.0
 40
0.0794743678091865
 50
250.1942069429435946
 51
268.5579826460513004
  0
ARC
  5
E82F
  8
0
 10
4581.4958332491105466
 20
183.6479787002768944
 30
0.0
 40
0.0199269692052262
 50
208.1302161028513069
 51
246.5758577740739099
  0
ARC
  5
E830
  8
0
 10
4581.5158488786846647
 20
183.6772443492955063
 30
0.0
 40
0.0496771318497591
 50
248.2923779165926135
 51
266.5277035658978093
  0
ARC
  5
E831
  8
0
 10
4581.4996778907907355
 20
183.6361654192299966
 30
0.0
 40
0.0055328143252556
 50
209.1636829220767027
 51
246.5349330770229983
  0
ARC
  5
E832
  8
0
 10
4581.4966083875915501
 20
183.6344524842936892
 30
0.0
 40
0.0020177046569497
 50
136.4240036092278103
 51
209.1636829221347966
  0
ARC
  5
E833
  8
0
 10
4581.5025645987716416
 20
183.6287852173227861
 30
0.0
 40
0.0102392839785539
 50
119.0936553473899977
 51
136.4240036092255082
  0
LINE
  5
E834
  8
0
 10
4583.796407240381086
 20
176.626757006577094
 30
0.0
 11
4583.796407240381086
 21
178.0843847331940992
 31
0.0
  0
LINE
  5
E835
  8
0
 10
4583.9022736599308701
 20
178.1028352177270051
 30
0.0
 11
4583.9022736599308701
 21
177.516087559726202
 31
0.0
  0
ARC
  5
E836
  8
0
 10
4583.756730795113981
 20
182.1526710209489011
 30
0.0
 40
4.048635332479213
 50
259.1478335012812977
 51
270.2813363475053166
  0
ARC
  5
E837
  8
0
 10
4583.7767072403812563
 20
178.0843847331940992
 30
0.0
 40
0.0197
 50
0.0
 51
90.2813363475052171
  0
ARC
  5
E838
  8
0
 10
4583.2365773639075996
 20
179.4393551894899872
 30
0.0
 40
1.2859116052055219
 50
232.7140839482100887
 51
259.1478335012812977
  0
ARC
  5
E839
  8
0
 10
4582.8326208172702536
 20
178.9088159370720916
 30
0.0
 40
0.6190886977348259
 50
202.4876885115257039
 51
232.7140839482100887
  0
ARC
  5
E83A
  8
0
 10
4583.1171529031744285
 20
179.0266013634241062
 30
0.0
 40
0.9270366065931614
 50
185.7722180126372962
 51
202.4876885115257039
  0
LINE
  5
E83B
  8
0
 10
4580.9617173489814377
 20
181.5296405937650945
 30
0.0
 11
4582.0641680244370946
 21
181.5296405937648956
 31
0.0
  0
ARC
  5
E83C
  8
0
 10
4639.617917995593416
 20
182.9808558231347888
 30
0.0
 40
57.5655689890898898
 50
183.1317328020286936
 51
184.0318476318958858
  0
ARC
  5
E83D
  8
0
 10
4662.4530201541410861
 20
184.2302452618334883
 30
0.0
 40
80.4348248703134061
 50
182.0355712074830024
 51
183.1317328020286936
  0
ARC
  5
E83E
  8
0
 10
4566.6273923592070787
 20
180.8243748813193861
 30
0.0
 40
15.4513101823742591
 50
2.035571207483085
 51
2.4259304430631898
  0
ARC
  5
E83F
  8
0
 10
4582.0450724525226178
 20
181.4775571291600897
 30
0.0
 40
0.0198
 50
2.4259304430631898
 51
89.9999999999478888
  0
LINE
  5
E840
  8
0
 10
4582.0444387628804179
 20
181.4973571282239959
 30
0.0
 11
4582.0444387629377161
 21
181.5296405928239949
 31
0.0
  0
LINE
  5
E841
  8
0
 10
4582.0641680293665559
 20
187.7284201519022133
 30
0.0
 11
4582.0641680320213709
 21
189.2337388308862955
 31
0.0
  0
ARC
  5
E842
  8
0
 10
4581.4972280638648954
 20
189.2181381058902048
 30
0.0
 40
0.5671545733901996
 50
1.5762342535758751
 51
88.4223808590955542
  0
ARC
  5
E843
  8
0
 10
4572.2113678287505536
 20
183.988614965504695
 30
0.0
 40
10.1880539296167392
 50
359.4339416490715848
 51
3.474960093101771
  0
ARC
  5
E844
  8
0
 10
4570.0285713190532988
 20
183.8560668997465086
 30
0.0
 40
12.3748711584878492
 50
3.474960093101771
 51
6.2121362663214867
  0
ARC
  5
E845
  8
0
 10
4555.6261943878544116
 20
182.2883813220545903
 30
0.0
 40
26.862317425475819
 50
6.2121362663214867
 51
7.4916969252739936
  0
ARC
  5
E846
  8
0
 10
4515.5066239000379937
 20
177.0124542896471098
 30
0.0
 40
67.3273065170107401
 50
7.4916969252739936
 51
7.9138585628924609
  0
ARC
  5
E847
  8
0
 10
4606.3439969396786182
 20
189.6395767460097943
 30
0.0
 40
24.3835028909916289
 50
186.7396321504076013
 51
187.9138585628923863
  0
ARC
  5
E848
  8
0
 10
4590.5485185106363133
 20
187.7729568936740066
 30
0.0
 40
8.4781136007064184
 50
182.9855681053122964
 51
186.7396321504076013
  0
ARC
  5
E849
  8
0
 10
4585.9233534442737437
 20
187.5317304535533083
 30
0.0
 40
3.846662198986134
 50
181.1933734320477072
 51
182.9855681053122964
  0
ARC
  5
E84A
  8
0
 10
4572.5112420488603675
 20
187.1287053659941932
 30
0.0
 40
9.5717319547443758
 50
1.933294343606615
 51
3.5922075104281102
  0
LINE
  5
E84B
  8
0
 10
4582.0641680244370946
 20
181.5296405927892067
 30
0.0
 11
4582.0641672689644111
 21
183.6750833253456108
 31
0.0
  0
ARC
  5
E84C
  8
0
 10
4582.2686473149033191
 20
183.890820920001687
 30
0.0
 40
0.1303085852715969
 50
302.5861708829315262
 51
358.7432427938277897
  0
ARC
  5
E84D
  8
0
 10
4581.9663538051390788
 20
184.3637555601588076
 30
0.0
 40
0.6916004344070853
 50
288.3981302639649016
 51
302.5861708829315262
  0
ARC
  5
E84E
  8
0
 10
4581.8461932508989776
 20
184.7250108722627999
 30
0.0
 40
1.072315497569218
 50
279.3995372772675978
 51
288.3981302639649016
  0
ARC
  5
E84F
  8
0
 10
4581.3646324334386009
 20
187.634029764119191
 30
0.0
 40
4.020923937849056
 50
276.324751398904084
 51
279.3995372772675978
  0
ARC
  5
E850
  8
0
 10
4581.6163610089997746
 20
185.3628964217539021
 30
0.0
 40
1.7358825958691779
 50
271.6726134077013057
 51
276.324751398904084
  0
ARC
  5
E851
  8
0
 10
4581.4136505268788824
 20
189.7790226755857077
 30
0.0
 40
6.156485501649799
 50
270.9231552468294808
 51
272.358749116469312
  0
ARC
  5
E852
  8
0
 10
4581.4038656095290207
 20
186.6904524947858874
 30
0.0
 40
3.0552494598743851
 50
272.0440574502674167
 51
274.8290732190674248
  0
ARC
  5
E853
  8
0
 10
4581.582455827117883
 20
184.5060211688530956
 30
0.0
 40
0.863558335200688
 50
275.2229707783372987
 51
283.8095218087609055
  0
ARC
  5
E854
  8
0
 10
4581.6789219895581482
 20
184.1135628724431115
 30
0.0
 40
0.4594182172750769
 50
283.8095218087609055
 51
295.3360039954687863
  0
ARC
  5
E855
  8
0
 10
4581.8319029980875712
 20
183.7904547072479886
 30
0.0
 40
0.1019240559427895
 50
295.3360039954695253
 51
325.4241357828389027
  0
ARC
  5
E856
  8
0
 10
4581.8809395903199402
 20
183.7536513482666862
 30
0.0
 40
0.0407379780610049
 50
328.9070487994616201
 51
359.0995274063216129
  0
ARC
  5
E857
  8
0
 10
4563.2832347955300065
 20
183.9495114153031068
 30
0.0
 40
18.6394735392095114
 50
359.3959676131511856
 51
359.5997004944517812
  0
ARC
  5
E858
  8
0
 10
4581.4935823725809314
 20
182.3204325010196101
 30
0.0
 40
1.5317876098440619
 50
84.6572167404751355
 51
89.2719844240363329
  0
ARC
  5
E859
  8
0
 10
4581.5337223546739551
 20
182.7496435577544958
 30
0.0
 40
1.100703686012684
 50
77.0352430938801263
 51
84.6572167404751355
  0
ARC
  5
E85A
  8
0
 10
4581.6891684296324456
 20
183.4248490648600978
 30
0.0
 40
0.4078357627793001
 50
63.0179880881204681
 51
77.0352430938801263
  0
ARC
  5
E85B
  8
0
 10
4581.8326658323958327
 20
183.7066972910498066
 30
0.0
 40
0.0915606812342273
 50
38.1521396059795634
 51
63.0179880881204681
  0
ARC
  5
E85C
  8
0
 10
4581.8788579304009545
 20
183.7429844498271905
 30
0.0
 40
0.0328199984810578
 50
6.8458017661352022
 51
38.1521396059782774
  0
ARC
  5
E85D
  8
0
 10
4581.8829665409812151
 20
183.7434777033847126
 30
0.0
 40
0.028681885389092
 50
328.6847571025115826
 51
6.8458017661384361
  0
ARC
  5
E85E
  8
0
 10
4581.8164235928070411
 20
183.7839607013351042
 30
0.0
 40
0.1065717889366271
 50
313.2217461699095225
 51
328.6847571025115826
  0
ARC
  5
E85F
  8
0
 10
4581.5045441681932061
 20
184.9580334839135105
 30
0.0
 40
1.3018019140811901
 50
270.3651307302263831
 51
272.9675548562980794
  0
ARC
  5
E860
  8
0
 10
4581.5142956514237085
 20
184.7704092160167022
 30
0.0
 40
1.113924409845656
 50
272.9662682400459062
 51
278.824516773401001
  0
ARC
  5
E861
  8
0
 10
4581.5952098764000766
 20
184.2492103664160084
 30
0.0
 40
0.5864821356310822
 50
278.824516773401001
 51
287.5244136735501002
  0
ARC
  5
E862
  8
0
 10
4581.7051329405458091
 20
183.9010962317346127
 30
0.0
 40
0.2214252485629645
 50
287.5244136735501002
 51
300.214256909576477
  0
ARC
  5
E863
  8
0
 10
4581.7791313775069284
 20
183.7740269265379993
 30
0.0
 40
0.0743797556163209
 50
300.214256909576477
 51
321.4197562791222254
  0
ARC
  5
E864
  8
0
 10
4581.8168628303001242
 20
183.743927598893606
 30
0.0
 40
0.0261134935431304
 50
321.419756279120918
 51
19.651228766107991
  0
ARC
  5
E865
  8
0
 10
4581.8077276206922761
 20
183.7406654905977916
 30
0.0
 40
0.0358136690628969
 50
19.6512287661064491
 51
56.0671609435533185
  0
ARC
  5
E866
  8
0
 10
4581.6856527736481439
 20
183.5592236786690989
 30
0.0
 40
0.2544992867810963
 50
56.0671609435533185
 51
68.7716802258094901
  0
ARC
  5
E867
  8
0
 10
4581.5975830645502356
 20
183.2695042889916976
 30
0.0
 40
0.5569157976767791
 50
71.1189806497047385
 51
80.4051450593129147
  0
ARC
  5
E868
  8
0
 10
4581.512779049027813
 20
182.7873976660067967
 30
0.0
 40
1.046418464284715
 50
80.2266427680426233
 51
86.5924864549328959
  0
ARC
  5
E869
  8
0
 10
4581.452971201038963
 20
181.4637935971009881
 30
0.0
 40
2.3713131463728589
 50
87.0508287796727558
 51
88.553288311497127
  0
ARC
  5
E86A
  8
0
 10
4581.504331496427767
 20
184.9126621488256887
 30
0.0
 40
1.2292065711060991
 50
270.3966089687860972
 51
272.5971236098192207
  0
ARC
  5
E86B
  8
0
 10
4581.5077269033427001
 20
184.8385856466373127
 30
0.0
 40
1.155052301921571
 50
272.5953724315593263
 51
274.0220536401724871
  0
ARC
  5
E86C
  8
0
 10
4582.5643081136513501
 20
184.7647525113526115
 30
0.0
 40
1.4541729981366831
 50
227.8655244316308881
 51
227.9389451998233938
  0
ARC
  5
E86D
  8
0
 10
4581.5190903591937968
 20
184.7103223227396995
 30
0.0
 40
1.0276515114442291
 50
273.9636576755340798
 51
277.5472506628861993
  0
ARC
  5
E86E
  8
0
 10
4581.6439539936882284
 20
183.6739021040492048
 30
0.0
 40
0.0203600053090703
 50
60.2207561581115129
 51
67.5941129276833408
  0
ARC
  5
E86F
  8
0
 10
4581.5475038298627624
 20
184.474944912306114
 30
0.0
 40
0.7891310105958393
 50
277.5885053744333959
 51
281.1168136197084095
  0
ARC
  5
E870
  8
0
 10
4581.6195804237231641
 20
184.1192970201379069
 30
0.0
 40
0.4262647991949184
 50
280.8275925957686923
 51
292.5815852661650069
  0
ARC
  5
E871
  8
0
 10
4581.6658764129861083
 20
182.9131069804014089
 30
0.0
 40
0.8210406349591542
 50
81.4712896226943144
 51
81.7799097328141471
  0
ARC
  5
E872
  8
0
 10
4581.7340300965106508
 20
183.8436621533622031
 30
0.0
 40
0.1301484433172142
 50
294.3254956278328223
 51
308.2124930760197117
  0
ARC
  5
E873
  8
0
 10
4581.8328076152629365
 20
183.9907610549794867
 30
0.0
 40
0.2500278302095773
 50
264.7096756103389907
 51
265.8094800066929224
  0
ARC
  5
E874
  8
0
 10
4581.7836620235048031
 20
183.7749722521363083
 30
0.0
 40
0.0422057711258391
 50
308.1862046868315019
 51
335.9886317201734869
  0
ARC
  5
E875
  8
0
 10
4581.8009770450598808
 20
183.7663348828363894
 30
0.0
 40
0.0228899798321826
 50
338.1020734117269058
 51
359.5685720312438889
  0
ARC
  5
E876
  8
0
 10
-101888.8622912269929657
 20
647.1473738764010477
 30
0.0
 40
106471.6945155745052034
 50
359.750639156709326
 51
359.7506427839105072
  0
ARC
  5
E877
  8
0
 10
4581.5029216683742561
 20
181.9511644846438116
 30
0.0
 40
2.0413611609785929
 50
83.5530734998681339
 51
89.715860022263854
  0
ARC
  5
E878
  8
0
 10
4581.5685135073854326
 20
182.5316367211661941
 30
0.0
 40
1.457194826174727
 50
78.8930046873367132
 51
83.5530734998681339
  0
ARC
  5
E879
  8
0
 10
4581.6442840032568711
 20
182.9175927331446019
 30
0.0
 40
1.0638715351952619
 50
72.2946762570956452
 51
78.8930046873367132
  0
ARC
  5
E87A
  8
0
 10
4581.8582759776827515
 20
183.5879031617108126
 30
0.0
 40
0.3602319713818324
 50
57.9804602569761585
 51
72.2946762570956452
  0
ARC
  5
E87B
  8
0
 10
4581.9926001671638005
 20
183.8027037602506084
 30
0.0
 40
0.1068897423468172
 50
41.1841810459389635
 51
57.9804602569761585
  0
ARC
  5
E87C
  8
0
 10
4582.0305037812140654
 20
183.8358673854037022
 30
0.0
 40
0.0565259657665498
 50
13.6336443370477607
 51
41.1841810459389635
  0
ARC
  5
E87D
  8
0
 10
4582.0608779985068395
 20
183.8432345643809072
 30
0.0
 40
0.0252710717139903
 50
340.2963676581189816
 51
13.6336443370446005
  0
ARC
  5
E87E
  8
0
 10
4582.0070007055619499
 20
183.8625292817098966
 30
0.0
 40
0.0824991138945444
 50
315.2836015758534245
 51
340.2963676581189816
  0
ARC
  5
E87F
  8
0
 10
4581.9991343981782848
 20
183.876589281448986
 30
0.0
 40
0.1090632944693726
 50
306.8836175298728222
 51
324.6863166736579842
  0
ARC
  5
E880
  8
0
 10
4582.0500037563915612
 20
183.8359814120165936
 30
0.0
 40
0.0442380414799391
 50
329.5241388550066972
 51
30.475860942969959
  0
ARC
  5
E881
  8
0
 10
4581.99663082153711
 20
183.8003786201863932
 30
0.0
 40
0.1083542900131965
 50
32.3875393689396134
 51
60.7316177779038497
  0
ARC
  5
E882
  8
0
 10
4581.9028785918171707
 20
183.6614223408934947
 30
0.0
 40
0.2757547967731793
 50
57.8531261101341983
 51
71.0804795782942165
  0
ARC
  5
E883
  8
0
 10
4581.4929930018151936
 20
181.2031370162590918
 30
0.0
 40
2.84986825796953
 50
83.6790881372337338
 51
89.6009725610982031
  0
ARC
  5
E884
  8
0
 10
4581.5943932825739466
 20
182.1184605959869032
 30
0.0
 40
1.928945203413307
 50
76.14746789262216
 51
83.6793672941151669
  0
ARC
  5
E885
  8
0
 10
4581.87511172881932
 20
183.2568347065611079
 30
0.0
 40
0.7564698468758579
 50
66.1407932516106882
 51
76.14746789262216
  0
ARC
  5
E886
  8
0
 10
4582.0661170294470139
 20
183.6886925091986882
 30
0.0
 40
0.284257832451198
 50
47.5578861758754599
 51
66.1407932516106882
  0
ARC
  5
E887
  8
0
 10
4582.2257952669624501
 20
183.863304570155492
 30
0.0
 40
0.0476431427811686
 50
15.5684544804812806
 51
47.5578861758754599
  0
ARC
  5
E888
  8
0
 10
4582.2289369279533275
 20
183.8641798733966937
 30
0.0
 40
0.0443818256320126
 50
321.6950820197545227
 51
15.5684544804812806
  0
ARC
  5
E889
  8
0
 10
4581.488353436628131
 20
181.0716694167354888
 30
0.0
 40
2.982232026672281
 50
89.0235943042473252
 51
89.5295437392670408
  0
ARC
  5
E88A
  8
0
 10
4581.4873204504992827
 20
180.999477089025504
 30
0.0
 40
3.0544314810097002
 50
88.0039093069012921
 51
89.0272966091540354
  0
ARC
  5
E88B
  8
0
 10
4581.4918087886153444
 20
181.1282582025370971
 30
0.0
 40
2.925572176431722
 50
85.0732327842997762
 51
88.0039093069012921
  0
ARC
  5
E88C
  8
0
 10
4581.5399029279951719
 20
181.6861892212577914
 30
0.0
 40
2.365572115812538
 50
80.1283202518100808
 51
85.0732327842997762
  0
ARC
  5
E88D
  8
0
 10
4581.7139977975202783
 20
182.686627244416286
 30
0.0
 40
1.350099190631219
 50
71.7118954799474722
 51
80.1283202518100808
  0
ARC
  5
E88E
  8
0
 10
4581.9883519726363375
 20
183.5167757361253962
 30
0.0
 40
0.4757899022836246
 50
57.4094029964910177
 51
71.7118954799474722
  0
ARC
  5
E88F
  8
0
 10
4582.1535605221852165
 20
183.7802376704719904
 30
0.0
 40
0.1648481209320281
 50
39.7451568294455768
 51
56.4659863982606325
  0
ARC
  5
E890
  8
0
 10
4582.2273456213251848
 20
183.8422390659299026
 30
0.0
 40
0.0684747802142257
 50
339.7063729534829122
 51
39.329841891707531
  0
ARC
  5
E891
  8
0
 10
4582.1343759533610864
 20
183.9280559938482043
 30
0.0
 40
0.1916108167503461
 50
296.5369285475865127
 51
325.1230431186808119
  0
ARC
  5
E892
  8
0
 10
4581.9006654505674305
 20
184.3862459258232036
 30
0.0
 40
0.7059583686187584
 50
282.1531668681043925
 51
296.892470804263894
  0
ARC
  5
E893
  8
0
 10
4581.5885518591749133
 20
185.7071574027914096
 30
0.0
 40
2.0631510461368978
 50
278.3524351580898042
 51
282.903912480839324
  0
ARC
  5
E894
  8
0
 10
4581.5885518591749133
 20
185.7071574027914096
 30
0.0
 40
2.0631510461368978
 50
275.6324152158036895
 51
277.2460830584277005
  0
ARC
  5
E895
  8
0
 10
4581.5885518591749133
 20
185.7071574027914096
 30
0.0
 40
2.0631510461368978
 50
272.1553390553477243
 51
273.7703829766708736
  0
ARC
  5
E896
  8
0
 10
4581.5525617901739679
 20
185.9351543807686937
 30
0.0
 40
2.2916883550272109
 50
278.5564795971375815
 51
278.9062126417551895
  0
ARC
  5
E897
  8
0
 10
4581.5525617901739679
 20
185.9351543807686937
 30
0.0
 40
2.2916883550272109
 50
275.9842359353746133
 51
277.283609367863221
  0
ARC
  5
E898
  8
0
 10
4581.5525617901739679
 20
185.9351543807686937
 30
0.0
 40
2.2916883550272109
 50
272.8462776307312083
 51
274.2820676682886187
  0
ARC
  5
E899
  8
0
 10
4581.696367715750057
 20
185.0174799597928939
 30
0.0
 40
1.3628145815015
 50
278.9062126417551895
 51
287.9016553151988091
  0
ARC
  5
E89A
  8
0
 10
4581.9929702596218704
 20
184.0992715099694124
 30
0.0
 40
0.3978898039364271
 50
287.9016553151988091
 51
307.1416840662271852
  0
ARC
  5
E89B
  8
0
 10
4582.1823529301263989
 20
183.8492410328458959
 30
0.0
 40
0.0842322910694873
 50
307.1416840662262757
 51
328.4791408034147935
  0
ARC
  5
E89C
  8
0
 10
4582.1684786060668557
 20
183.8577501790410054
 30
0.0
 40
0.100508114767667
 50
328.4791408034162146
 51
341.2024760872105844
  0
ARC
  5
E89D
  8
0
 10
4573.6696529969285621
 20
183.9172654574460921
 30
0.0
 40
8.5951977686993928
 50
359.6101434285707228
 51
359.8225782590092194
  0
ARC
  5
E89E
  8
0
 10
4582.2567366784405749
 20
183.8588356272433941
 30
0.0
 40
0.007915299934882
 50
272.2834339622507969
 51
359.6101434285707228
  0
ARC
  5
E89F
  8
0
 10
4582.2620800495024014
 20
183.7248310924169061
 30
0.0
 40
0.126195724848108
 50
92.2834339622508253
 51
105.5085644544709993
  0
ARC
  5
E8A0
  8
0
 10
4582.2417322291576056
 20
183.798160396186006
 30
0.0
 40
0.0500956553082428
 50
105.5085644544709993
 51
121.747076555809997
  0
ARC
  5
E8A1
  8
0
 10
4582.2392552596866153
 20
183.8631988373373929
 30
0.0
 40
0.0327691150834622
 50
223.2147320534770927
 51
263.3812639160195772
  0
ARC
  5
E8A2
  8
0
 10
4582.2695784468187412
 20
183.9831149586657091
 30
0.0
 40
0.1562336731584695
 50
257.3928974620520762
 51
265.7614051211419905
  0
ARC
  5
E8A3
  8
0
 10
4582.2577272476319195
 20
183.8174136995397134
 30
0.0
 40
0.0098995659172392
 50
53.4265027391834124
 51
88.2404247696703834
  0
LINE
  5
E8A4
  8
0
 10
4582.2636259382352364
 20
183.825363973403995
 30
0.0
 11
4582.2639971846665503
 21
183.8556833229444862
 31
0.0
  0
ARC
  5
E8A5
  8
0
 10
4582.0186304773933443
 20
183.8486096383481083
 30
0.0
 40
0.0616769175500769
 50
320.0820834460935203
 51
340.4900339704801127
  0
ARC
  5
E8A6
  8
0
 10
4582.0368009002340841
 20
183.8421715970318076
 30
0.0
 40
0.0423996604263433
 50
340.4900339704785779
 51
0.2109397280185496
  0
ARC
  5
E8A7
  8
0
 10
4583.2568950714039602
 20
183.8466635072144015
 30
0.0
 40
1.1777027794450849
 50
179.1391755033031075
 51
180.2109397280169105
  0
ARC
  5
E8A8
  8
0
 10
4581.6342685038780473
 20
183.9784384480774122
 30
0.0
 40
0.099379385505591
 50
251.4118289888805862
 51
290.2524505901253065
  0
ARC
  5
E8A9
  8
0
 10
4581.6368597765103914
 20
183.8000326704934082
 30
0.0
 40
0.0909166851549042
 50
69.5202358113648557
 51
112.1440437676532014
  0
ARC
  5
E8AA
  8
0
 10
4581.6348914886357306
 20
183.933316434245512
 30
0.0
 40
0.0515644762375409
 50
250.3341885648802077
 51
291.1930515091527241
  0
ARC
  5
E8AB
  8
0
 10
4581.6361815618693072
 20
183.8365256594588004
 30
0.0
 40
0.0517115744698613
 50
70.3948847559341715
 51
111.1323553181301946
  0
ARC
  5
E8AC
  8
0
 10
4581.7595065620726018
 20
183.9645882219170971
 30
0.0
 40
0.099379385505591
 50
251.4118289888805862
 51
290.2524505901253065
  0
ARC
  5
E8AD
  8
0
 10
4581.7620978347058553
 20
183.7861824443330931
 30
0.0
 40
0.0909166851549042
 50
69.5202358113648557
 51
112.1440437676532014
  0
ARC
  5
E8AE
  8
0
 10
4581.7601295468302851
 20
183.9194662080853107
 30
0.0
 40
0.0515644762375409
 50
250.3341885648802077
 51
291.1930515091527241
  0
ARC
  5
E8AF
  8
0
 10
4581.7614196200638617
 20
183.822675433298599
 30
0.0
 40
0.0517115744698613
 50
70.3948847559341715
 51
111.1323553181301946
  0
ARC
  5
E8B0
  8
0
 10
4581.8625311334562866
 20
183.9334660785395954
 30
0.0
 40
0.0897055694702476
 50
253.2540599910207959
 51
296.3473513772227079
  0
ARC
  5
E8B1
  8
0
 10
4581.875608359711805
 20
183.7777565440474916
 30
0.0
 40
0.0799265990478785
 50
70.4580706526528786
 51
119.1433407155845998
  0
ARC
  5
E8B2
  8
0
 10
4581.8658530354559844
 20
183.893827929480409
 30
0.0
 40
0.0468683289910712
 50
252.2232274008123909
 51
297.3928782783282827
  0
ARC
  5
E8B3
  8
0
 10
4581.8732104728524064
 20
183.808520647410802
 30
0.0
 40
0.0459455860964054
 50
71.9892236666690053
 51
118.096450189468996
  0
ARC
  5
E8B4
  8
0
 10
4581.9444727685186081
 20
183.9046601594992865
 30
0.0
 40
0.0882172402847857
 50
254.6808854776224962
 51
298.4332215903040719
  0
ARC
  5
E8B5
  8
0
 10
4581.9612146679155558
 20
183.7590080332614093
 30
0.0
 40
0.0726121053885108
 50
69.6414201243869257
 51
123.4726869435236978
  0
ARC
  5
E8B6
  8
0
 10
4581.9492722009963472
 20
183.8624609220406114
 30
0.0
 40
0.0425349852436163
 50
251.8011782262813938
 51
301.8370525101134945
  0
ARC
  5
E8B7
  8
0
 10
4581.9587809608638054
 20
183.784686208302503
 30
0.0
 40
0.043600004844462
 50
72.750748251319564
 51
121.5182325393899987
  0
ARC
  5
E8B8
  8
0
 10
4581.9967048176768003
 20
183.864956302692292
 30
0.0
 40
0.080078259431567
 50
255.2714393495670038
 51
305.0294408099753127
  0
ARC
  5
E8B9
  8
0
 10
4582.0213728340368107
 20
183.7271735203551088
 30
0.0
 40
0.0752851286342994
 50
73.5678094285962345
 51
126.7330707309070021
  0
ARC
  5
E8BA
  8
0
 10
4582.0012337753323663
 20
183.8326620540358931
 30
0.0
 40
0.0440031037408087
 50
256.5949084880084001
 51
305.1119236637966878
  0
ARC
  5
E8BB
  8
0
 10
4582.0151574099936624
 20
183.7600397070702058
 30
0.0
 40
0.038355411622276
 50
72.7313878502026085
 51
128.9754443016092011
  0
ARC
  5
E8BC
  8
0
 10
4582.0175614145728105
 20
183.8256541327143907
 30
0.0
 40
0.0739004284471121
 50
255.3548131812030988
 51
308.0407253922667792
  0
ARC
  5
E8BD
  8
0
 10
4582.042174252629593
 20
183.7067799264038115
 30
0.0
 40
0.0641796282149913
 50
70.9704004484225948
 51
132.4251381250552129
  0
ARC
  5
E8BE
  8
0
 10
4582.0236169712898118
 20
183.7941715743787086
 30
0.0
 40
0.0380815088639204
 50
254.2647221038533019
 51
310.8978359230757178
  0
ARC
  5
E8BF
  8
0
 10
4582.0383481644594212
 20
183.7281667077552925
 30
0.0
 40
0.0385925516069286
 50
74.6727493491410854
 51
130.4898086778310926
  0
ARC
  5
E8C0
  8
0
 10
4581.999997552728928
 20
183.7827614535208056
 30
0.0
 40
0.0648450507464964
 50
249.7890830661640962
 51
310.8122271416943931
  0
ARC
  5
E8C1
  8
0
 10
4582.0198367553221033
 20
183.6736004678951133
 30
0.0
 40
0.0641722879586443
 50
69.4344479985147416
 51
131.1668622093247052
  0
ARC
  5
E8C2
  8
0
 10
4582.00539777575068
 20
183.7547581542104922
 30
0.0
 40
0.0322137413730178
 50
247.550204621193302
 51
313.6357452348298125
  0
ARC
  5
E8C3
  8
0
 10
4582.0159204043693535
 20
183.6984928322461883
 30
0.0
 40
0.0349688311354335
 50
70.4403505160056937
 51
130.7455993400409966
  0
ARC
  5
E8C4
  8
0
 10
4581.960253823867788
 20
183.6553973256459926
 30
0.0
 40
0.0516523256941631
 50
60.4257380276437601
 51
138.5088414342461931
  0
ARC
  5
E8C5
  8
0
 10
4581.943844937834001
 20
183.7537980313744868
 30
0.0
 40
0.0679385782602494
 50
250.8544943222443067
 51
308.0800851396339795
  0
ARC
  5
E8C6
  8
0
 10
4581.9489612362922344
 20
183.7237372040247863
 30
0.0
 40
0.0329101003378223
 50
245.7584514198831016
 51
312.0724227232536236
  0
ARC
  5
E8C7
  8
0
 10
4581.957550383740454
 20
183.6689845731519029
 30
0.0
 40
0.0331777837819213
 50
66.0599409333560033
 51
131.7709332097836921
  0
ARC
  5
E8C8
  8
0
 10
4581.6830389402148285
 20
183.9604510843643936
 30
0.0
 40
0.0062360408632602
 50
337.710094076091309
 51
50.2972435660990769
  0
ARC
  5
E8C9
  8
0
 10
4581.6342136150296938
 20
183.8412884495452033
 30
0.0
 40
0.1347404066352614
 50
66.9252965584793742
 51
113.5871357345025956
  0
ARC
  5
E8CA
  8
0
 10
4581.5827569066323122
 20
183.9618636598488024
 30
0.0
 40
0.0038081326818824
 50
130.2151887269081953
 51
201.7696718626498864
  0
ARC
  5
E8CB
  8
0
 10
4581.7061212485723445
 20
183.9481630724802983
 30
0.0
 40
0.0047318239006903
 50
124.6018722393706071
 51
197.1081665548302908
  0
ARC
  5
E8CC
  8
0
 10
4581.7542246258117302
 20
183.8308994237488889
 30
0.0
 40
0.1313737050166809
 50
64.288709348496937
 51
112.7437525327618033
  0
ARC
  5
E8CD
  8
0
 10
4581.807598857289122
 20
183.947061951760702
 30
0.0
 40
0.0042386213696581
 50
347.1858474394838936
 51
31.3320401407171687
  0
ARC
  5
E8CE
  8
0
 10
4581.8364767548400778
 20
183.8848641582414984
 30
0.0
 40
0.0542117389059538
 50
96.0434649822879152
 51
121.5049920161530963
  0
ARC
  5
E8CF
  8
0
 10
4581.856193518065993
 20
183.6986308142799089
 30
0.0
 40
0.2414858939706828
 50
79.0164962195118648
 51
96.0434649822879152
  0
ARC
  5
E8D0
  8
0
 10
4581.8969608867455463
 20
183.9086836092222939
 30
0.0
 40
0.0275135709658461
 50
47.7422278006412384
 51
79.0164962195118648
  0
ARC
  5
E8D1
  8
0
 10
4581.911976053134822
 20
183.9252095134723959
 30
0.0
 40
0.0051850973732357
 50
335.8851238921840832
 51
47.7422278006412384
  0
ARC
  5
E8D2
  8
0
 10
4581.9375717937573427
 20
183.7385002487039003
 30
0.0
 40
0.1748752971454402
 50
72.0928610529069829
 51
97.6373492034359458
  0
ARC
  5
E8D3
  8
0
 10
4581.9880270811509035
 20
183.8946463030302994
 30
0.0
 40
0.0107798179031682
 50
34.8668782792949372
 51
72.0928610529074945
  0
ARC
  5
E8D4
  8
0
 10
4581.992068076088799
 20
183.8974618686634983
 30
0.0
 40
0.0058546732430171
 50
342.3748992474988881
 51
34.8668782793447676
  0
ARC
  5
E8D5
  8
0
 10
4582.000301019030303
 20
183.7819737127254029
 30
0.0
 40
0.0995266658664818
 50
61.630067671596322
 51
91.8332518111957654
  0
ARC
  5
E8D6
  8
0
 10
4582.0441615501677006
 20
183.8658574198937004
 30
0.0
 40
0.0050382235816094
 50
357.6104195476224845
 51
47.081578276974561
  0
ARC
  5
E8D7
  8
0
 10
4582.0400573555471055
 20
183.8001524000389963
 30
0.0
 40
0.043908871880115
 50
54.6575792074972
 51
79.2073209723183851
  0
ARC
  5
E8D8
  8
0
 10
4582.0626420259150109
 20
183.8319998503255022
 30
0.0
 40
0.004866235885778
 50
350.9598074683473214
 51
54.6575792074868474
  0
ARC
  5
E8D9
  8
0
 10
4581.9403510612401078
 20
183.8009402636469929
 30
0.0
 40
0.0047102082510423
 50
118.4740871425106974
 51
204.3310641651777928
  0
ARC
  5
E8DA
  8
0
 10
4581.968458126175392
 20
183.7491176113119025
 30
0.0
 40
0.0636643802355119
 50
94.0014336128156032
 51
118.4740871425106974
  0
ARC
  5
E8DB
  8
0
 10
4581.629310329771215
 20
183.6858751903180007
 30
0.0
 40
0.0591393494235422
 50
238.7863590996622918
 51
306.2170742633763894
  0
ARC
  5
E8DC
  8
0
 10
4581.6334388569966904
 20
183.5913813395283967
 30
0.0
 40
0.0560175165167829
 50
115.0043734292501938
 51
128.3754599649311103
  0
ARC
  5
E8DD
  8
0
 10
4581.6334388569966904
 20
183.5913813395283967
 30
0.0
 40
0.0560175165167829
 50
56.6279733981008278
 51
73.4688729481370331
  0
ARC
  5
E8DE
  8
0
 10
4581.6303962891270203
 20
183.6609281648098033
 30
0.0
 40
0.0292760843000129
 50
234.5775108713893928
 51
310.4443298484322895
  0
ARC
  5
E8DF
  8
0
 10
4581.6320163571635931
 20
183.6239840896905946
 30
0.0
 40
0.0227332825407993
 50
124.1135888932412996
 51
144.8530801397359937
  0
ARC
  5
E8E0
  8
0
 10
4581.6320163571635931
 20
183.6239840896905946
 30
0.0
 40
0.0227332825407993
 50
40.1687605800814609
 51
64.396548696692733
  0
ARC
  5
E8E1
  8
0
 10
4581.7538181670270205
 20
183.6993614095842133
 30
0.0
 40
0.0602721861517792
 50
241.47014695992209
 51
307.494468448079374
  0
ARC
  5
E8E2
  8
0
 10
4581.7605742338273558
 20
183.6131772087601064
 30
0.0
 40
0.0486580546296943
 50
116.4069273442359957
 51
136.9254888933643883
  0
ARC
  5
E8E3
  8
0
 10
4581.7605742338273558
 20
183.6131772087601064
 30
0.0
 40
0.0486580546296943
 50
52.0391265146656181
 51
86.1573510131823781
  0
ARC
  5
E8E4
  8
0
 10
4581.7557750596170081
 20
183.6744897580032898
 30
0.0
 40
0.0304194336974727
 50
238.189144985331609
 51
310.7420288185699064
  0
ARC
  5
E8E5
  8
0
 10
4581.759596756335668
 20
183.6255547479862003
 30
0.0
 40
0.0304496301022006
 50
58.230835821494189
 51
130.7003379823873104
  0
ARC
  5
E8E6
  8
0
 10
4581.8608987707102642
 20
183.7187852408677031
 30
0.0
 40
0.0595479930444658
 50
243.9943506013565013
 51
311.1344177217159199
  0
ARC
  5
E8E7
  8
0
 10
4581.8733366533178923
 20
183.6251235660554073
 30
0.0
 40
0.0556537754889718
 50
61.2903850779487129
 51
133.8383832451335991
  0
ARC
  5
E8E8
  8
0
 10
4581.8643116934208592
 20
183.6956985972632026
 30
0.0
 40
0.0314956695709863
 50
241.8030316763909866
 51
311.4564718239282115
  0
ARC
  5
E8E9
  8
0
 10
4581.8702825104001022
 20
183.644327979866091
 30
0.0
 40
0.0315021800296975
 50
61.811269265259547
 51
131.4482342350711974
  0
LINE
  5
E8EA
  8
0
 10
4581.5792203613227684
 20
183.9604513136441994
 30
0.0
 11
4581.6025899700907758
 21
183.8842432636961917
 31
0.0
  0
LINE
  5
E8EB
  8
0
 10
4581.6888090026195641
 20
183.9580857967509928
 30
0.0
 11
4581.6686693921137703
 21
183.8852030408972098
 31
0.0
  0
LINE
  5
E8EC
  8
0
 10
4581.7278280282862397
 20
183.870393037535905
 30
0.0
 11
4581.7015988026987543
 21
183.9467710808283982
 31
0.0
  0
LINE
  5
E8ED
  8
0
 10
4581.7939074503083248
 20
183.8713528147370937
 30
0.0
 11
4581.8117319140983454
 21
183.9461218706343004
 31
0.0
  0
LINE
  5
E8EE
  8
0
 10
4581.9167086373581697
 20
183.9230910514492052
 30
0.0
 11
4581.9023435353192326
 21
183.8530791277831895
 31
0.0
  0
LINE
  5
E8EF
  8
0
 10
4581.8366844100237358
 20
183.8475647625901956
 30
0.0
 11
4581.8067142370427973
 21
183.9250740017781993
 31
0.0
  0
LINE
  5
E8F0
  8
0
 10
4581.9976479199103778
 20
183.8956891471065092
 30
0.0
 11
4581.9864760112068325
 21
183.8270843315164882
 31
0.0
  0
LINE
  5
E8F1
  8
0
 10
4581.9211662303741832
 20
183.8195773365374919
 30
0.0
 11
4581.9037268337751811
 21
183.8598209793586022
 31
0.0
  0
LINE
  5
E8F2
  8
0
 10
4582.0491953926566566
 20
183.8656473564155931
 30
0.0
 11
4582.0426695202122573
 21
183.7993836425781069
 31
0.0
  0
LINE
  5
E8F3
  8
0
 10
4581.976345715061143
 20
183.7875093235755912
 30
0.0
 11
4581.9613429599521623
 21
183.8180710255130919
 31
0.0
  0
LINE
  5
E8F4
  8
0
 10
4582.0674478151713629
 20
183.8312352319073
 30
0.0
 11
4582.063100442389441
 21
183.7674521544817026
 31
0.0
  0
LINE
  5
E8F5
  8
0
 10
4581.9988769865603899
 20
183.7541547238043051
 30
0.0
 11
4581.9854279294322623
 21
183.7856760439572952
 31
0.0
  0
LINE
  5
E8F6
  8
0
 10
4581.9775950784942324
 20
183.7219090932177892
 30
0.0
 11
4581.9360592135381012
 21
183.79899961811509
 31
0.0
  0
LINE
  5
E8F7
  8
0
 10
4582.0423791194270962
 20
183.7336831139953972
 30
0.0
 11
4582.0444715897629067
 21
183.7568274242657083
 31
0.0
  0
LINE
  5
E8F8
  8
0
 10
4581.921563238041017
 20
183.6896172221684083
 30
0.0
 11
4581.9063042022053196
 21
183.7207914170170113
 31
0.0
  0
LINE
  5
E8F9
  8
0
 10
4581.9857468926447837
 20
183.7003202172926137
 30
0.0
 11
4581.9883611236509751
 21
183.7189690235261992
 31
0.0
  0
LINE
  5
E8FA
  8
0
 10
4581.8347893715972532
 20
183.665266433392901
 30
0.0
 11
4581.8287147992150494
 21
183.679250527995805
 31
0.0
  0
LINE
  5
E8FB
  8
0
 10
4581.9000710956479452
 20
183.6739355760471142
 30
0.0
 11
4581.9081333604490283
 21
183.7170544485659889
 31
0.0
  0
LINE
  5
E8FC
  8
0
 10
4581.7250311710704409
 20
183.6464081727870905
 30
0.0
 11
4581.722116259204995
 21
183.6538310715133946
 31
0.0
  0
LINE
  5
E8FD
  8
0
 10
4581.7905049325790969
 20
183.6515407272717937
 30
0.0
 11
4581.7943408099836233
 21
183.6688791710826081
 31
0.0
  0
LINE
  5
E8FE
  8
0
 10
4581.5986625069508591
 20
183.6352967996099039
 30
0.0
 11
4581.596540186211314
 21
183.6412844493079888
 31
0.0
  0
LINE
  5
E8FF
  8
0
 10
4581.6642525847546494
 20
183.6381624931941872
 30
0.0
 11
4581.6664268528320463
 21
183.6465551339597937
 31
0.0
  0
ARC
  5
E900
  8
0
 10
4582.8184637505828505
 20
221.4962236523356012
 30
0.0
 40
37.3993454079217713
 50
267.9993790193462928
 51
268.2589984651136206
  0
ARC
  5
E901
  8
0
 10
4581.1366705469799854
 20
177.4858865999462125
 30
0.0
 40
6.6506689363474596
 50
82.9930108872476211
 51
85.2948320681980192
  0
ARC
  5
E902
  8
0
 10
4581.7910667252854182
 20
182.8101464485935139
 30
0.0
 40
1.286344440747043
 50
72.6400691783532011
 51
82.9930108872476211
  0
ARC
  5
E903
  8
0
 10
4581.8045095417710399
 20
182.8531478910184944
 30
0.0
 40
1.2412907686914281
 50
66.7875391172906632
 51
72.6400691783532011
  0
ARC
  5
E904
  8
0
 10
4582.199272185927839
 20
183.7736452080775962
 30
0.0
 40
0.2397155813317458
 50
42.4640560926911519
 51
66.7875391172900237
  0
ARC
  5
E905
  8
0
 10
4582.3047721480133987
 20
183.8701964253407084
 30
0.0
 40
0.0967037651938461
 50
19.3493912070019789
 51
42.4640560926911519
  0
ARC
  5
E906
  8
0
 10
4582.3455241486080922
 20
183.8845070229270959
 30
0.0
 40
0.0535121137349278
 50
3.7027957920517589
 51
19.3493912070004512
  0
ARC
  5
E907
  8
0
 10
4581.4909788877675965
 20
181.2208834811737859
 30
0.0
 40
2.814746371008686
 50
85.6764704730511255
 51
88.3901650265673595
  0
ARC
  5
E908
  8
0
 10
4581.5244370636191888
 20
181.6634321592443087
 30
0.0
 40
2.3709347195244561
 50
80.7939807032449835
 51
85.6764704730511255
  0
ARC
  5
E909
  8
0
 10
4581.6758777414570432
 20
182.5978331441332045
 30
0.0
 40
1.4243411005592801
 50
74.2627741544606437
 51
80.7939807032449835
  0
ARC
  5
E90A
  8
0
 10
4581.8790652829966348
 20
183.3188971422844133
 30
0.0
 40
0.6751959434186839
 50
62.8735711951929517
 51
74.2627741544606437
  0
ARC
  5
E90B
  8
0
 10
4582.1030193205779142
 20
183.7560443576664966
 30
0.0
 40
0.1840207212574624
 50
38.1220959131900017
 51
62.8735711951929517
  0
ARC
  5
E90C
  8
0
 10
4582.2075877876313825
 20
183.8381016486044928
 30
0.0
 40
0.0510998301314576
 50
14.5354282019511594
 51
38.1220959131900017
  0
ARC
  5
E90D
  8
0
 10
4581.5450263456123139
 20
184.0686040456718047
 30
0.0
 40
0.0418925471058225
 50
283.3994487095727095
 51
305.5901781995424926
  0
ARC
  5
E90E
  8
0
 10
4581.5058866746176136
 20
184.2329022004198009
 30
0.0
 40
0.2107883655829108
 50
276.8927261940424955
 51
283.3994487095727095
  0
ARC
  5
E90F
  8
0
 10
4581.5118188229516818
 20
184.1837238144354103
 30
0.0
 40
0.1612534907747827
 50
270.3629444939878113
 51
276.8972257162945994
  0
LINE
  5
E910
  8
0
 10
4581.5618902507358143
 20
184.0429521066469931
 30
0.0
 11
4581.5619303465082339
 21
184.0521721654106955
 31
0.0
  0
ARC
  5
E911
  8
0
 10
4581.5702901713093524
 20
184.0429155774552896
 30
0.0
 40
0.0084
 50
179.7508362961650903
 51
268.3901650265672743
  0
ARC
  5
E912
  8
0
 10
4581.5322723027129541
 20
182.7673533325842925
 30
0.0
 40
1.1802598296431011
 50
81.5498728789359149
 51
82.6513159225583962
  0
ARC
  5
E913
  8
0
 10
4581.4941802540088247
 20
182.3686487149321067
 30
0.0
 40
1.58090405266224
 50
86.7671391266375451
 51
87.5372856918245361
  0
ARC
  5
E914
  8
0
 10
4581.6491008478269578
 20
183.3466550690691861
 30
0.0
 40
0.588866115653784
 50
73.9907991628853097
 51
74.724381150072773
  0
LINE
  5
E915
  8
0
 10
4581.5531006449737106
 20
183.7085732710876869
 30
0.0
 11
4581.5413982562649835
 21
183.7034678845083988
 31
0.0
  0
LINE
  5
E916
  8
0
 10
4581.5413982562649835
 20
183.7034678845083988
 30
0.0
 11
4581.518304977277694
 21
183.7035683900307106
 31
0.0
  0
LINE
  5
E917
  8
0
 10
4581.518304977277694
 20
183.7035683900307106
 30
0.0
 11
4581.5069144336757745
 21
183.7088539614692024
 31
0.0
  0
LINE
  5
E918
  8
0
 10
4581.5069144336757745
 20
183.7088539614692024
 30
0.0
 11
4581.518349693133132
 21
183.7138428079024095
 31
0.0
  0
LINE
  5
E919
  8
0
 10
4581.518349693133132
 20
183.7138428079024095
 30
0.0
 11
4581.5414433109835954
 21
183.713820163208311
 31
0.0
  0
LINE
  5
E91A
  8
0
 10
4581.5414433109835954
 20
183.713820163208311
 30
0.0
 11
4581.5531006449737106
 21
183.7085732710876869
 31
0.0
  0
LINE
  5
E91B
  8
0
 10
4581.518304977277694
 20
183.7035683900307106
 30
0.0
 11
4581.518349693133132
 21
183.7138428079024095
 31
0.0
  0
LINE
  5
E91C
  8
0
 10
4581.5413982562649835
 20
183.7034678845083988
 30
0.0
 11
4581.5414084073372578
 21
183.7138201974333924
 31
0.0
  0
LINE
  5
E91D
  8
0
 10
4581.5531702138068795
 20
183.7200204738072955
 30
0.0
 11
4581.5414678250990619
 21
183.7149150872280075
 31
0.0
  0
LINE
  5
E91E
  8
0
 10
4581.5414678250990619
 20
183.7149150872280075
 30
0.0
 11
4581.5183745461108629
 21
183.7150155927502908
 31
0.0
  0
LINE
  5
E91F
  8
0
 10
4581.5183745461108629
 20
183.7150155927502908
 30
0.0
 11
4581.5069840025080339
 21
183.7203011641888111
 31
0.0
  0
LINE
  5
E920
  8
0
 10
4581.5069840025080339
 20
183.7203011641888111
 30
0.0
 11
4581.5184192619672103
 21
183.7252900106219045
 31
0.0
  0
LINE
  5
E921
  8
0
 10
4581.5184192619672103
 20
183.7252900106219045
 30
0.0
 11
4581.5415128798176738
 21
183.7252673659278912
 31
0.0
  0
LINE
  5
E922
  8
0
 10
4581.5415128798176738
 20
183.7252673659278912
 30
0.0
 11
4581.5531702138068795
 21
183.7200204738072955
 31
0.0
  0
LINE
  5
E923
  8
0
 10
4581.5183745461108629
 20
183.7150155927502908
 30
0.0
 11
4581.5184192619672103
 21
183.7252900106219045
 31
0.0
  0
LINE
  5
E924
  8
0
 10
4581.5414678250990619
 20
183.7149150872280075
 30
0.0
 11
4581.5414779761704267
 21
183.7252674001530011
 31
0.0
  0
LINE
  5
E925
  8
0
 10
4581.5532394221972936
 20
183.7314083669591867
 30
0.0
 11
4581.541537033485838
 21
183.7263029803798133
 31
0.0
  0
LINE
  5
E926
  8
0
 10
4581.541537033485838
 20
183.7263029803798133
 30
0.0
 11
4581.5184437544985485
 21
183.7264034859020967
 31
0.0
  0
LINE
  5
E927
  8
0
 10
4581.5184437544985485
 20
183.7264034859020967
 30
0.0
 11
4581.507053210896629
 21
183.7316890573405885
 31
0.0
  0
LINE
  5
E928
  8
0
 10
4581.507053210896629
 20
183.7316890573405885
 30
0.0
 11
4581.5184884703539865
 21
183.7366779037737956
 31
0.0
  0
LINE
  5
E929
  8
0
 10
4581.5184884703539865
 20
183.7366779037737956
 30
0.0
 11
4581.5415820882053595
 21
183.7366552590796971
 31
0.0
  0
LINE
  5
E92A
  8
0
 10
4581.5415820882053595
 20
183.7366552590796971
 30
0.0
 11
4581.5532394221972936
 21
183.7314083669591867
 31
0.0
  0
LINE
  5
E92B
  8
0
 10
4581.5184437544985485
 20
183.7264034859020967
 30
0.0
 11
4581.5184884703539865
 21
183.7366779037737956
 31
0.0
  0
LINE
  5
E92C
  8
0
 10
4581.541537033485838
 20
183.7263029803798133
 30
0.0
 11
4581.5415471845581123
 21
183.7366552933048069
 31
0.0
  0
LINE
  5
E92D
  8
0
 10
4581.5533086305840698
 20
183.7427962601113052
 30
0.0
 11
4581.5416062418753427
 21
183.7376908735319034
 31
0.0
  0
LINE
  5
E92E
  8
0
 10
4581.5416062418753427
 20
183.7376908735319034
 30
0.0
 11
4581.5185129628871437
 21
183.7377913790543005
 31
0.0
  0
LINE
  5
E92F
  8
0
 10
4581.5185129628871437
 20
183.7377913790543005
 30
0.0
 11
4581.5071224192843147
 21
183.7430769504927071
 31
0.0
  0
LINE
  5
E930
  8
0
 10
4581.5071224192843147
 20
183.7430769504927071
 30
0.0
 11
4581.5185576787425816
 21
183.7480657969259141
 31
0.0
  0
LINE
  5
E931
  8
0
 10
4581.5185576787425816
 20
183.7480657969259141
 30
0.0
 11
4581.5416512965930451
 21
183.7480431522317872
 31
0.0
  0
LINE
  5
E932
  8
0
 10
4581.5416512965930451
 20
183.7480431522317872
 30
0.0
 11
4581.5533086305840698
 21
183.7427962601113052
 31
0.0
  0
LINE
  5
E933
  8
0
 10
4581.5185129628871437
 20
183.7377913790543005
 30
0.0
 11
4581.5185576787425816
 21
183.7480657969259141
 31
0.0
  0
LINE
  5
E934
  8
0
 10
4581.5416062418753427
 20
183.7376908735319034
 30
0.0
 11
4581.541616392945798
 21
183.7480431864570107
 31
0.0
  0
LINE
  5
E935
  8
0
 10
4581.5533778387716666
 20
183.7541841532083993
 30
0.0
 11
4581.541675450063849
 21
183.7490787666289975
 31
0.0
  0
LINE
  5
E936
  8
0
 10
4581.541675450063849
 20
183.7490787666289975
 30
0.0
 11
4581.5185821710747405
 21
183.7491792721513946
 31
0.0
  0
LINE
  5
E937
  8
0
 10
4581.5185821710747405
 20
183.7491792721513946
 30
0.0
 11
4581.507191627472821
 21
183.7544648435898011
 31
0.0
  0
LINE
  5
E938
  8
0
 10
4581.507191627472821
 20
183.7544648435898011
 30
0.0
 11
4581.5186268869310879
 21
183.7594536900230082
 31
0.0
  0
LINE
  5
E939
  8
0
 10
4581.5186268869310879
 20
183.7594536900230082
 30
0.0
 11
4581.5417205047806419
 21
183.7594310453289097
 31
0.0
  0
LINE
  5
E93A
  8
0
 10
4581.5417205047806419
 20
183.7594310453289097
 30
0.0
 11
4581.5533778387716666
 21
183.7541841532083993
 31
0.0
  0
LINE
  5
E93B
  8
0
 10
4581.5185821710747405
 20
183.7491792721513946
 30
0.0
 11
4581.5186268869310879
 21
183.7594536900230082
 31
0.0
  0
LINE
  5
E93C
  8
0
 10
4581.541675450063849
 20
183.7490787666289975
 30
0.0
 11
4581.5416856011343043
 21
183.7594310795541048
 31
0.0
  0
LINE
  5
E93D
  8
0
 10
4581.5534470471120585
 20
183.7655720463592957
 30
0.0
 11
4581.5417446584033314
 21
183.7604666597800076
 31
0.0
  0
LINE
  5
E93E
  8
0
 10
4581.5417446584033314
 20
183.7604666597800076
 30
0.0
 11
4581.5186513794151324
 21
183.760567165302291
 31
0.0
  0
LINE
  5
E93F
  8
0
 10
4581.5186513794151324
 20
183.760567165302291
 30
0.0
 11
4581.5072608358123034
 21
183.7658527367406975
 31
0.0
  0
LINE
  5
E940
  8
0
 10
4581.5072608358123034
 20
183.7658527367406975
 30
0.0
 11
4581.5186960952723894
 21
183.7708415831739899
 31
0.0
  0
LINE
  5
E941
  8
0
 10
4581.5186960952723894
 20
183.7708415831739899
 30
0.0
 11
4581.5417897131210339
 21
183.7708189384798914
 31
0.0
  0
LINE
  5
E942
  8
0
 10
4581.5417897131210339
 20
183.7708189384798914
 30
0.0
 11
4581.5534470471120585
 21
183.7655720463592957
 31
0.0
  0
LINE
  5
E943
  8
0
 10
4581.5186513794151324
 20
183.760567165302291
 30
0.0
 11
4581.5186960952723894
 21
183.7708415831739899
 31
0.0
  0
LINE
  5
E944
  8
0
 10
4581.5417446584033314
 20
183.7604666597800076
 30
0.0
 11
4581.5417548094746962
 21
183.7708189727050012
 31
0.0
  0
LINE
  5
E945
  8
0
 10
4581.5535162557443982
 20
183.7769599394667068
 30
0.0
 11
4581.5418138670356711
 21
183.7718545528873051
 31
0.0
  0
LINE
  5
E946
  8
0
 10
4581.5418138670356711
 20
183.7718545528873051
 30
0.0
 11
4581.5187205880465626
 21
183.7719550584097021
 31
0.0
  0
LINE
  5
E947
  8
0
 10
4581.5187205880465626
 20
183.7719550584097021
 30
0.0
 11
4581.5073300444437336
 21
183.7772406298481087
 31
0.0
  0
LINE
  5
E948
  8
0
 10
4581.5073300444437336
 20
183.7772406298481087
 30
0.0
 11
4581.5187653039029101
 21
183.7822294762812874
 31
0.0
  0
LINE
  5
E949
  8
0
 10
4581.5187653039029101
 20
183.7822294762812874
 30
0.0
 11
4581.5418589217533736
 21
183.7822068315873025
 31
0.0
  0
LINE
  5
E94A
  8
0
 10
4581.5418589217533736
 20
183.7822068315873025
 30
0.0
 11
4581.5535162557443982
 21
183.7769599394667068
 31
0.0
  0
LINE
  5
E94B
  8
0
 10
4581.5187205880465626
 20
183.7719550584097021
 30
0.0
 11
4581.5187653039029101
 21
183.7822294762812874
 31
0.0
  0
LINE
  5
E94C
  8
0
 10
4581.5418138670356711
 20
183.7718545528873051
 30
0.0
 11
4581.541824018107036
 21
183.7822068658124124
 31
0.0
  0
LINE
  5
E94D
  8
0
 10
4581.5535854641339029
 20
183.7883478326185127
 30
0.0
 11
4581.5418830754251758
 21
183.7832424460391962
 31
0.0
  0
LINE
  5
E94E
  8
0
 10
4581.5418830754251758
 20
183.7832424460391962
 30
0.0
 11
4581.5187897964369768
 21
183.783342951561508
 31
0.0
  0
LINE
  5
E94F
  8
0
 10
4581.5187897964369768
 20
183.783342951561508
 30
0.0
 11
4581.5073992528341478
 21
183.7886285229999999
 31
0.0
  0
LINE
  5
E950
  8
0
 10
4581.5073992528341478
 20
183.7886285229999999
 30
0.0
 11
4581.5188345122933242
 21
183.7936173694332069
 31
0.0
  0
LINE
  5
E951
  8
0
 10
4581.5188345122933242
 20
183.7936173694332069
 30
0.0
 11
4581.5419281301428782
 21
183.7935947247391084
 31
0.0
  0
LINE
  5
E952
  8
0
 10
4581.5419281301428782
 20
183.7935947247391084
 30
0.0
 11
4581.5535854641339029
 21
183.7883478326185127
 31
0.0
  0
LINE
  5
E953
  8
0
 10
4581.5187897964369768
 20
183.783342951561508
 30
0.0
 11
4581.5188345122933242
 21
183.7936173694332069
 31
0.0
  0
LINE
  5
E954
  8
0
 10
4581.5418830754251758
 20
183.7832424460391962
 30
0.0
 11
4581.5418932264956311
 21
183.7935947589643035
 31
0.0
  0
LINE
  5
E955
  8
0
 10
4581.5536546725197695
 20
183.7997357257702902
 30
0.0
 11
4581.5419522838101329
 21
183.7946303391908884
 31
0.0
  0
LINE
  5
E956
  8
0
 10
4581.5419522838101329
 20
183.7946303391908884
 30
0.0
 11
4581.5188590048219339
 21
183.7947308447133139
 31
0.0
  0
LINE
  5
E957
  8
0
 10
4581.5188590048219339
 20
183.7947308447133139
 30
0.0
 11
4581.5074684612200144
 21
183.8000164161518057
 31
0.0
  0
LINE
  5
E958
  8
0
 10
4581.5074684612200144
 20
183.8000164161518057
 30
0.0
 11
4581.5189037206782814
 21
183.8050052625850128
 31
0.0
  0
LINE
  5
E959
  8
0
 10
4581.5189037206782814
 20
183.8050052625850128
 30
0.0
 11
4581.5419973385278354
 21
183.8049826178908859
 31
0.0
  0
LINE
  5
E95A
  8
0
 10
4581.5419973385278354
 20
183.8049826178908859
 30
0.0
 11
4581.5536546725197695
 21
183.7997357257702902
 31
0.0
  0
LINE
  5
E95B
  8
0
 10
4581.5188590048219339
 20
183.7947308447133139
 30
0.0
 11
4581.5189037206782814
 21
183.8050052625850128
 31
0.0
  0
LINE
  5
E95C
  8
0
 10
4581.5419522838101329
 20
183.7946303391908884
 30
0.0
 11
4581.5419624348805883
 21
183.8049826521159957
 31
0.0
  0
LINE
  5
E95D
  8
0
 10
4581.5537238809092742
 20
183.8111236189222097
 30
0.0
 11
4581.5420214921996376
 21
183.806018232342808
 31
0.0
  0
LINE
  5
E95E
  8
0
 10
4581.5420214921996376
 20
183.806018232342808
 30
0.0
 11
4581.5189282132123481
 21
183.806118737865205
 31
0.0
  0
LINE
  5
E95F
  8
0
 10
4581.5189282132123481
 20
183.806118737865205
 30
0.0
 11
4581.5075376696086096
 21
183.8114043093036116
 31
0.0
  0
LINE
  5
E960
  8
0
 10
4581.5075376696086096
 20
183.8114043093036116
 30
0.0
 11
4581.518972929067786
 21
183.8163931557367903
 31
0.0
  0
LINE
  5
E961
  8
0
 10
4581.518972929067786
 20
183.8163931557367903
 30
0.0
 11
4581.5420665469182495
 21
183.8163705110428054
 31
0.0
  0
LINE
  5
E962
  8
0
 10
4581.5420665469182495
 20
183.8163705110428054
 30
0.0
 11
4581.5537238809092742
 21
183.8111236189222097
 31
0.0
  0
LINE
  5
E963
  8
0
 10
4581.5189282132123481
 20
183.806118737865205
 30
0.0
 11
4581.518972929067786
 21
183.8163931557367903
 31
0.0
  0
LINE
  5
E964
  8
0
 10
4581.5420214921996376
 20
183.806018232342808
 30
0.0
 11
4581.5420316432719119
 21
183.8163705452678869
 31
0.0
  0
LINE
  5
E965
  8
0
 10
4581.7766753008645537
 20
183.740783212981114
 30
0.0
 11
4581.7766753125679315
 21
183.7407951473076082
 31
0.0
  0
ARC
  5
E966
  8
0
 10
4581.5043416244470791
 20
184.7820377926765048
 30
0.0
 40
1.090812531341212
 50
270.446396834614518
 51
274.5612413998641728
  0
ARC
  5
E967
  8
0
 10
4581.5258789124718533
 20
184.5122835799081997
 30
0.0
 40
0.8201999120891847
 50
274.5600555189278111
 51
281.6941643391758134
  0
ARC
  5
E968
  8
0
 10
4581.6222529715796554
 20
184.0466720370181974
 30
0.0
 40
0.3447190311472255
 50
281.6941643391758134
 51
291.7213216409397774
  0
ARC
  5
E969
  8
0
 10
4581.697871042454608
 20
183.8568578566136011
 30
0.0
 40
0.1403969429497297
 50
291.7213216409397774
 51
302.0940553024091741
  0
ARC
  5
E96A
  8
0
 10
4581.7365048190285961
 20
183.7952561423406053
 30
0.0
 40
0.0676828460096408
 50
302.0940553024091741
 51
320.3459403626220023
  0
ARC
  5
E96B
  8
0
 10
4581.7710148511796433
 20
183.7666520732053925
 30
0.0
 40
0.0228594694062675
 50
320.3459403626243898
 51
357.8280940422361027
  0
ARC
  5
E96C
  8
0
 10
4581.773099570516024
 20
183.7665730100640076
 30
0.0
 40
0.0207732513711193
 50
357.8280940422425829
 51
33.9228955882525511
  0
ARC
  5
E96D
  8
0
 10
4581.7451231431514316
 20
183.747757399166801
 30
0.0
 40
0.0544883474196069
 50
33.9228955882525511
 51
56.7761749388577783
  0
ARC
  5
E96E
  8
0
 10
4581.6849857647048339
 20
183.6559412033041951
 30
0.0
 40
0.1642458897977892
 50
56.7761749388577783
 51
63.1178445570826625
  0
LINE
  5
E96F
  8
0
 10
4581.5534607950730788
 20
183.8223901366860957
 30
0.0
 11
4581.5417584063643517
 21
183.8172847501068077
 31
0.0
  0
LINE
  5
E970
  8
0
 10
4581.5417584063643517
 20
183.8172847501068077
 30
0.0
 11
4581.5186651273770622
 21
183.817385255629091
 31
0.0
  0
LINE
  5
E971
  8
0
 10
4581.5186651273770622
 20
183.817385255629091
 30
0.0
 11
4581.5072745837742332
 21
183.8226708270674976
 31
0.0
  0
LINE
  5
E972
  8
0
 10
4581.5072745837742332
 20
183.8226708270674976
 30
0.0
 11
4581.5187098432334096
 21
183.8276596735007047
 31
0.0
  0
LINE
  5
E973
  8
0
 10
4581.5187098432334096
 20
183.8276596735007047
 30
0.0
 11
4581.5418034610829636
 21
183.8276370288066914
 31
0.0
  0
LINE
  5
E974
  8
0
 10
4581.5418034610829636
 20
183.8276370288066914
 30
0.0
 11
4581.5534607950730788
 21
183.8223901366860957
 31
0.0
  0
LINE
  5
E975
  8
0
 10
4581.5417584063643517
 20
183.8172847501068077
 30
0.0
 11
4581.5418034610829636
 21
183.8276370288066914
 31
0.0
  0
ARC
  5
E976
  8
0
 10
4581.5110942548699313
 20
183.7042869477434124
 30
0.0
 40
0.07928821996218
 50
271.261722677389514
 51
289.8165944906806999
  0
ARC
  5
E977
  8
0
 10
4581.5300521280432804
 20
183.6479787002467106
 30
0.0
 40
0.0199269692052262
 50
293.4241421248980259
 51
331.8815003156481112
  0
ARC
  5
E978
  8
0
 10
4581.5101205867758836
 20
183.6770365163222039
 30
0.0
 40
0.0494529359474581
 50
273.1524404349788142
 51
291.7061694063539221
  0
ARC
  5
E979
  8
0
 10
4581.5262074863430826
 20
183.6361654192066055
 30
0.0
 40
0.0055328143252556
 50
293.4650668219708791
 51
330.8363169768990133
  0
ARC
  5
E97A
  8
0
 10
4581.529276989536811
 20
183.634452484264898
 30
0.0
 40
0.0020177046569497
 50
330.8363169768649072
 51
43.5759962897648165
  0
ARC
  5
E97B
  8
0
 10
4581.5233207783467151
 20
183.628785217304511
 30
0.0
 40
0.0102392839785539
 50
43.5759962897671826
 51
60.9651755865399068
  0
ARC
  5
E97C
  8
0
 10
4706.8215317901212984
 20
190.0238660138165869
 30
0.0
 40
125.1367498745988058
 50
186.6166844545680021
 51
186.9755498053893916
  0
ARC
  5
E97D
  8
0
 10
4582.5914815280611947
 20
174.8241437433609917
 30
0.0
 40
0.0197
 50
270.0
 51
6.9755498054717924
  0
ARC
  5
E97E
  8
0
 10
4580.4337190239994015
 20
174.8240437433609884
 30
0.0
 40
0.0196
 50
172.9271383389159098
 51
270.0
  0
LINE
  5
E97F
  8
0
 10
4580.4151424665305967
 20
174.7944437433610005
 30
0.0
 11
4580.4151424665305967
 21
174.7934437433609958
 31
0.0
  0
ARC
  5
E980
  8
0
 10
4580.425142466530815
 20
174.7944437433610005
 30
0.0
 40
0.01
 50
90.0
 51
179.999999999985306
  0
LINE
  5
E981
  8
0
 10
4582.6108343253790736
 20
174.7944437433791904
 30
0.0
 11
4582.6108343253808926
 21
174.7934437433609958
 31
0.0
  0
ARC
  5
E982
  8
0
 10
4582.6008343253788553
 20
174.7944437433610005
 30
0.0
 40
0.01
 50
0.0000001043572051
 51
90.0
  0
ARC
  5
E983
  8
0
 10
4583.4887683281540376
 20
175.6548091872126918
 30
0.0
 40
0.9717695765150864
 50
150.4762688799270904
 51
182.9494433899511137
  0
ARC
  5
E984
  8
0
 10
4583.2193341384054293
 20
175.8073950694655139
 30
0.0
 40
0.6621290848662169
 50
118.2659163912726967
 51
150.4762688799270904
  0
ARC
  5
E985
  8
0
 10
4583.7250765303733715
 20
174.8667894898464965
 30
0.0
 40
1.730077690110768
 50
103.9252953087945031
 51
118.2659163912726967
  0
ARC
  5
E986
  8
0
 10
4583.7229140718463896
 20
174.8755110656597935
 30
0.0
 40
1.7210920286690119
 50
95.1953247234837789
 51
103.9252953087945031
  0
ARC
  5
E987
  8
0
 10
4584.8297686673386124
 20
162.7022214352315927
 30
0.0
 40
13.9445983800338098
 50
94.3248366031816943
 51
95.1953247234837789
  0
ARC
  5
E988
  8
0
 10
4583.7767072403812563
 20
176.626757006577094
 30
0.0
 40
0.0197
 50
274.3248366031817227
 51
0.0
  0
ARC
  5
E989
  8
0
 10
4583.456407240380031
 20
177.3560493584610924
 30
0.0
 40
0.8125762826000199
 50
296.4296404183972982
 51
319.4009546444866032
  0
ARC
  5
E98A
  8
0
 10
4583.8516472649016578
 20
177.4541312210550075
 30
0.0
 40
0.8627240195860828
 50
289.7460729792492771
 51
299.8935064441155873
  0
ARC
  5
E98B
  8
0
 10
4583.9834705977636986
 20
177.2248232837793864
 30
0.0
 40
0.5982253973130569
 50
299.8935064441155873
 51
311.0889170824980283
  0
ARC
  5
E98C
  8
0
 10
4583.1522946917439185
 20
178.1779902428860964
 30
0.0
 40
1.862891613624519
 50
311.0889170824980283
 51
318.3401566827085958
  0
ARC
  5
E98D
  8
0
 10
4583.6250345957796526
 20
177.6492456418359893
 30
0.0
 40
1.161059928851466
 50
322.330382291409876
 51
331.8505465155067782
  0
ARC
  5
E98E
  8
0
 10
4581.7200028718816611
 20
178.4152221324881964
 30
0.0
 40
3.2099126223413621
 50
335.8407721242194839
 51
352.6606954399853748
  0
ARC
  5
E98F
  8
0
 10
4574.9371657859610423
 20
179.2888533617806104
 30
0.0
 40
10.0487802522155807
 50
352.6606954399853748
 51
356.5316565936724942
  0
ARC
  5
E990
  8
0
 10
4505.3842901124953642
 20
181.8238840058959909
 30
0.0
 40
79.6452878903194943
 50
357.7384140234580059
 51
358.9594599552567047
  0
ARC
  5
E991
  8
0
 10
4585.1765551761118331
 20
180.3780018944987091
 30
0.0
 40
0.1601116497072058
 50
177.186852594702799
 51
180.166217385043808
  0
ARC
  5
E992
  8
0
 10
4584.9436322790743361
 20
180.3894473009009971
 30
0.0
 40
0.0730922809897272
 50
357.186852594701179
 51
10.4549893124665303
  0
ARC
  5
E993
  8
0
 10
4584.9817889626119722
 20
180.3964882237175971
 30
0.0
 40
0.0342914164030635
 50
10.4549893124665303
 51
63.7424449867425835
  0
ARC
  5
E994
  8
0
 10
4584.968701607697767
 20
180.36995851260329
 30
0.0
 40
0.0638735804623417
 50
63.742444986741873
 51
81.7100020131722715
  0
ARC
  5
E995
  8
0
 10
4584.7320918508612522
 20
179.452651558504499
 30
0.0
 40
1.0108576003063079
 50
75.9257602849886553
 51
104.4990983427924931
  0
ARC
  5
E996
  8
0
 10
4584.4907326502534488
 20
180.3847711341593083
 30
0.0
 40
0.0479976721502492
 50
104.1381271499606953
 51
126.5386484614228948
  0
ARC
  5
E997
  8
0
 10
4584.483428149388601
 20
180.3996789892256913
 30
0.0
 40
0.0318134392513883
 50
131.961918996714104
 51
182.4340935902706065
  0
ARC
  5
E998
  8
0
 10
4583.8509210963838996
 20
180.3727920481921956
 30
0.0
 40
0.6012648179171859
 50
0.7181258112057468
 51
2.4340935902689762
  0
ARC
  5
E999
  8
0
 10
4650.8023369819156869
 20
184.7848347673696878
 30
0.0
 40
66.4962291744354985
 50
183.7978777702151092
 51
184.3289521402572007
  0
ARC
  5
E99A
  8
0
 10
4570.0996279867658814
 20
178.6364215810928044
 30
0.0
 40
14.4403960812646996
 50
1.500040715273012
 51
4.484574295013986
  0
ARC
  5
E99B
  8
0
 10
4581.6303710768934252
 20
178.9158468329978859
 30
0.0
 40
2.906377040920193
 50
353.9838556776484779
 51
1.9439679866955359
  0
ARC
  5
E99C
  8
0
 10
4583.2791469716557913
 20
178.7456183640748861
 30
0.0
 40
1.248845464422681
 50
343.2039916814600815
 51
353.8225853789226107
  0
ARC
  5
E99D
  8
0
 10
4584.0711246661667246
 20
178.5342415774782978
 30
0.0
 40
0.4303895841167888
 50
312.969861484151977
 51
339.6746643070613914
  0
ARC
  5
E99E
  8
0
 10
4584.1410323452373632
 20
178.4945076442095058
 30
0.0
 40
0.3544838321876829
 50
285.8417434342654815
 51
309.0765356547944975
  0
ARC
  5
E99F
  8
0
 10
4584.0195965131988487
 20
178.971949022535
 30
0.0
 40
0.8470491124024077
 50
270.5670989004217972
 51
284.9279405668146978
  0
ARC
  5
E9A0
  8
0
 10
4583.9414056604609868
 20
180.8657221625944942
 30
0.0
 40
2.7421477614248269
 50
269.6198429873371083
 51
271.8092325801346192
  0
ARC
  5
E9A1
  8
0
 10
4583.9230736599311058
 20
178.1028352177270051
 30
0.0
 40
0.0208
 50
89.6198429873371225
 51
180.0000000000048885
  0
LINE
  5
E9A2
  8
0
 10
4584.1159110040689484
 20
176.6566810541011137
 30
0.0
 11
4583.9028915088238136
 21
177.5110555842987878
 31
0.0
  0
ARC
  5
E9A3
  8
0
 10
4584.1360931551762405
 20
176.6617130295284994
 30
0.0
 40
0.0208
 50
193.9999999969259932
 51
289.7460729791965264
  0
ARC
  5
E9A4
  8
0
 10
4583.9230736599311058
 20
177.516087559726202
 30
0.0
 40
0.0208
 50
180.0
 51
193.9999999968960935
  0
ARC
  5
E9A5
  8
0
 10
4587.2200704821671025
 20
173.8698299277824901
 30
0.0
 40
4.0771069955263277
 50
130.9094420882757106
 51
135.6391909456148142
  0
ARC
  5
E9A6
  8
0
 10
4584.5375124880147268
 20
176.9518811291517011
 30
0.0
 40
0.0126269241589271
 50
325.4334928294172755
 51
356.387094498009219
  0
ARC
  5
E9A7
  8
0
 10
4583.8114072403814134
 20
176.6418344562320044
 30
0.0
 40
0.015
 50
179.9999999999787974
 51
296.4296403756306972
  0
ARC
  5
E9A8
  8
0
 10
4583.4564072455023052
 20
177.3560493670132132
 30
0.0
 40
0.8125762726361948
 50
56.7216364925979093
 51
63.5703596784348974
  0
ARC
  5
E9A9
  8
0
 10
4583.8114072403814134
 20
178.070264260661105
 30
0.0
 40
0.015
 50
63.5703596794202568
 51
180.0000000000277112
  0
LINE
  5
E9AA
  8
0
 10
4581.5186651273770622
 20
183.817385255629091
 30
0.0
 11
4581.5187098432334096
 21
183.8276596735007047
 31
0.0
  0
LINE
  5
E9AB
  8
0
 10
4581.5900562221813743
 20
183.7149853268610116
 30
0.0
 11
4581.5783538334726472
 21
183.7098799402816951
 31
0.0
  0
LINE
  5
E9AC
  8
0
 10
4581.5783538334726472
 20
183.7098799402816951
 30
0.0
 11
4581.5552605544844482
 21
183.7099804458040069
 31
0.0
  0
LINE
  5
E9AD
  8
0
 10
4581.5552605544844482
 20
183.7099804458040069
 30
0.0
 11
4581.5438700108807097
 21
183.7152660172424987
 31
0.0
  0
LINE
  5
E9AE
  8
0
 10
4581.5438700108807097
 20
183.7152660172424987
 30
0.0
 11
4581.5553052703398862
 21
183.7202548636757058
 31
0.0
  0
LINE
  5
E9AF
  8
0
 10
4581.5553052703398862
 20
183.7202548636757058
 30
0.0
 11
4581.5783988881903497
 21
183.7202322189816073
 31
0.0
  0
LINE
  5
E9B0
  8
0
 10
4581.5783988881903497
 20
183.7202322189816073
 30
0.0
 11
4581.5900562221813743
 21
183.7149853268610116
 31
0.0
  0
LINE
  5
E9B1
  8
0
 10
4581.5552605544844482
 20
183.7099804458040069
 30
0.0
 11
4581.5553052703398862
 21
183.7202548636757058
 31
0.0
  0
LINE
  5
E9B2
  8
0
 10
4581.5783538334726472
 20
183.7098799402816951
 30
0.0
 11
4581.5783639845431026
 21
183.7202322532066887
 31
0.0
  0
LINE
  5
E9B3
  8
0
 10
4581.5901257910154527
 20
183.7264325295805918
 30
0.0
 11
4581.5784234023049066
 21
183.7213271430013037
 31
0.0
  0
LINE
  5
E9B4
  8
0
 10
4581.5784234023049066
 20
183.7213271430013037
 30
0.0
 11
4581.5553301233167076
 21
183.7214276485235871
 31
0.0
  0
LINE
  5
E9B5
  8
0
 10
4581.5553301233167076
 20
183.7214276485235871
 30
0.0
 11
4581.5439395797147881
 21
183.7267132199619937
 31
0.0
  0
LINE
  5
E9B6
  8
0
 10
4581.5439395797147881
 20
183.7267132199619937
 30
0.0
 11
4581.5553748391739646
 21
183.7317020663952007
 31
0.0
  0
LINE
  5
E9B7
  8
0
 10
4581.5553748391739646
 20
183.7317020663952007
 30
0.0
 11
4581.5784684570226091
 21
183.7316794217011875
 31
0.0
  0
LINE
  5
E9B8
  8
0
 10
4581.5784684570226091
 20
183.7316794217011875
 30
0.0
 11
4581.5901257910154527
 21
183.7264325295805918
 31
0.0
  0
LINE
  5
E9B9
  8
0
 10
4581.5553301233167076
 20
183.7214276485235871
 30
0.0
 11
4581.5553748391739646
 21
183.7317020663952007
 31
0.0
  0
LINE
  5
E9BA
  8
0
 10
4581.5784234023049066
 20
183.7213271430013037
 30
0.0
 11
4581.5784335533771809
 21
183.7316794559262974
 31
0.0
  0
LINE
  5
E9BB
  8
0
 10
4581.5901949994022289
 20
183.7378204227325114
 30
0.0
 11
4581.5784926106925923
 21
183.7327150361531096
 31
0.0
  0
LINE
  5
E9BC
  8
0
 10
4581.5784926106925923
 20
183.7327150361531096
 30
0.0
 11
4581.5553993317053028
 21
183.732815541675393
 31
0.0
  0
LINE
  5
E9BD
  8
0
 10
4581.5553993317053028
 20
183.732815541675393
 30
0.0
 11
4581.5440087881033833
 21
183.7381011131139132
 31
0.0
  0
LINE
  5
E9BE
  8
0
 10
4581.5440087881033833
 20
183.7381011131139132
 30
0.0
 11
4581.5554440475616502
 21
183.7430899595470919
 31
0.0
  0
LINE
  5
E9BF
  8
0
 10
4581.5554440475616502
 20
183.7430899595470919
 30
0.0
 11
4581.5785376654121137
 21
183.7430673148529934
 31
0.0
  0
LINE
  5
E9C0
  8
0
 10
4581.5785376654121137
 20
183.7430673148529934
 30
0.0
 11
4581.5901949994022289
 21
183.7378204227325114
 31
0.0
  0
LINE
  5
E9C1
  8
0
 10
4581.5553993317053028
 20
183.732815541675393
 30
0.0
 11
4581.5554440475616502
 21
183.7430899595470919
 31
0.0
  0
LINE
  5
E9C2
  8
0
 10
4581.5784926106925923
 20
183.7327150361531096
 30
0.0
 11
4581.5785027617648666
 21
183.7430673490781032
 31
0.0
  0
LINE
  5
E9C3
  8
0
 10
4581.5902642077899145
 20
183.7492083158846015
 30
0.0
 11
4581.5785618190811874
 21
183.7441029293051997
 31
0.0
  0
LINE
  5
E9C4
  8
0
 10
4581.5785618190811874
 20
183.7441029293051997
 30
0.0
 11
4581.5554685400929884
 21
183.7442034348275968
 31
0.0
  0
LINE
  5
E9C5
  8
0
 10
4581.5554685400929884
 20
183.7442034348275968
 30
0.0
 11
4581.5440779964910689
 21
183.7494890062660033
 31
0.0
  0
LINE
  5
E9C6
  8
0
 10
4581.5440779964910689
 20
183.7494890062660033
 30
0.0
 11
4581.5555132559493359
 21
183.7544778526992104
 31
0.0
  0
LINE
  5
E9C7
  8
0
 10
4581.5555132559493359
 20
183.7544778526992104
 30
0.0
 11
4581.5786068737997994
 21
183.7544552080051119
 31
0.0
  0
LINE
  5
E9C8
  8
0
 10
4581.5786068737997994
 20
183.7544552080051119
 30
0.0
 11
4581.5902642077899145
 21
183.7492083158846015
 31
0.0
  0
LINE
  5
E9C9
  8
0
 10
4581.5554685400929884
 20
183.7442034348275968
 30
0.0
 11
4581.5555132559493359
 21
183.7544778526992104
 31
0.0
  0
LINE
  5
E9CA
  8
0
 10
4581.5785618190811874
 20
183.7441029293051997
 30
0.0
 11
4581.5785719701516427
 21
183.754455242230307
 31
0.0
  0
LINE
  5
E9CB
  8
0
 10
4581.5903334159793303
 20
183.7605962089816956
 30
0.0
 11
4581.5786310272687842
 21
183.7554908224022938
 31
0.0
  0
LINE
  5
E9CC
  8
0
 10
4581.5786310272687842
 20
183.7554908224022938
 30
0.0
 11
4581.5555377482824042
 21
183.7555913279246909
 31
0.0
  0
LINE
  5
E9CD
  8
0
 10
4581.5555377482824042
 20
183.7555913279246909
 30
0.0
 11
4581.5441472046795752
 21
183.7608768993630974
 31
0.0
  0
LINE
  5
E9CE
  8
0
 10
4581.5441472046795752
 20
183.7608768993630974
 30
0.0
 11
4581.5555824641378422
 21
183.7658657457963045
 31
0.0
  0
LINE
  5
E9CF
  8
0
 10
4581.5555824641378422
 20
183.7658657457963045
 30
0.0
 11
4581.5786760819883057
 21
183.765843101102206
 31
0.0
  0
LINE
  5
E9D0
  8
0
 10
4581.5786760819883057
 20
183.765843101102206
 30
0.0
 11
4581.5903334159793303
 21
183.7605962089816956
 31
0.0
  0
LINE
  5
E9D1
  8
0
 10
4581.5555377482824042
 20
183.7555913279246909
 30
0.0
 11
4581.5555824641378422
 21
183.7658657457963045
 31
0.0
  0
LINE
  5
E9D2
  8
0
 10
4581.5786310272687842
 20
183.7554908224022938
 30
0.0
 11
4581.5786411783410585
 21
183.7658431353274011
 31
0.0
  0
LINE
  5
E9D3
  8
0
 10
4581.5904026243188127
 20
183.7719841021325919
 30
0.0
 11
4581.5787002356091762
 21
183.7668787155531902
 31
0.0
  0
LINE
  5
E9D4
  8
0
 10
4581.5787002356091762
 20
183.7668787155531902
 30
0.0
 11
4581.5556069566218866
 21
183.7669792210755872
 31
0.0
  0
LINE
  5
E9D5
  8
0
 10
4581.5556069566218866
 20
183.7669792210755872
 30
0.0
 11
4581.5442164130190577
 21
183.7722647925139938
 31
0.0
  0
LINE
  5
E9D6
  8
0
 10
4581.5442164130190577
 20
183.7722647925139938
 30
0.0
 11
4581.5556516724773246
 21
183.7772536389472009
 31
0.0
  0
LINE
  5
E9D7
  8
0
 10
4581.5556516724773246
 20
183.7772536389472009
 30
0.0
 11
4581.5787452903277881
 21
183.7772309942531876
 31
0.0
  0
LINE
  5
E9D8
  8
0
 10
4581.5787452903277881
 20
183.7772309942531876
 30
0.0
 11
4581.5904026243188127
 21
183.7719841021325919
 31
0.0
  0
LINE
  5
E9D9
  8
0
 10
4581.5556069566218866
 20
183.7669792210755872
 30
0.0
 11
4581.5556516724773246
 21
183.7772536389472009
 31
0.0
  0
LINE
  5
E9DA
  8
0
 10
4581.5787002356091762
 20
183.7668787155531902
 30
0.0
 11
4581.5787103866796315
 21
183.7772310284782975
 31
0.0
  0
LINE
  5
E9DB
  8
0
 10
4581.5904718329511525
 20
183.7833719952400031
 30
0.0
 11
4581.5787694442424254
 21
183.7782666086606014
 31
0.0
  0
LINE
  5
E9DC
  8
0
 10
4581.5787694442424254
 20
183.7782666086606014
 30
0.0
 11
4581.5556761652542264
 21
183.7783671141829984
 31
0.0
  0
LINE
  5
E9DD
  8
0
 10
4581.5556761652542264
 20
183.7783671141829984
 30
0.0
 11
4581.5442856216513974
 21
183.783652685621405
 31
0.0
  0
LINE
  5
E9DE
  8
0
 10
4581.5442856216513974
 20
183.783652685621405
 30
0.0
 11
4581.5557208811096643
 21
183.7886415320546121
 31
0.0
  0
LINE
  5
E9DF
  8
0
 10
4581.5557208811096643
 20
183.7886415320546121
 30
0.0
 11
4581.5788144989601278
 21
183.7886188873605136
 31
0.0
  0
LINE
  5
E9E0
  8
0
 10
4581.5788144989601278
 20
183.7886188873605136
 30
0.0
 11
4581.5904718329511525
 21
183.7833719952400031
 31
0.0
  0
LINE
  5
E9E1
  8
0
 10
4581.5556761652542264
 20
183.7783671141829984
 30
0.0
 11
4581.5557208811096643
 21
183.7886415320546121
 31
0.0
  0
LINE
  5
E9E2
  8
0
 10
4581.5787694442424254
 20
183.7782666086606014
 30
0.0
 11
4581.5787795953128807
 21
183.7886189215857087
 31
0.0
  0
LINE
  5
E9E3
  8
0
 10
4581.5905410413397476
 20
183.794759888391809
 30
0.0
 11
4581.57883865263193
 21
183.7896545018124925
 31
0.0
  0
LINE
  5
E9E4
  8
0
 10
4581.57883865263193
 20
183.7896545018124925
 30
0.0
 11
4581.555745373643731
 21
183.7897550073348043
 31
0.0
  0
LINE
  5
E9E5
  8
0
 10
4581.555745373643731
 20
183.7897550073348043
 30
0.0
 11
4581.5443548300399925
 21
183.7950405787732961
 31
0.0
  0
LINE
  5
E9E6
  8
0
 10
4581.5443548300399925
 20
183.7950405787732961
 30
0.0
 11
4581.555790089499169
 21
183.8000294252065032
 31
0.0
  0
LINE
  5
E9E7
  8
0
 10
4581.555790089499169
 20
183.8000294252065032
 30
0.0
 11
4581.5788837073496325
 21
183.8000067805124047
 31
0.0
  0
LINE
  5
E9E8
  8
0
 10
4581.5788837073496325
 20
183.8000067805124047
 30
0.0
 11
4581.5905410413397476
 21
183.794759888391809
 31
0.0
  0
LINE
  5
E9E9
  8
0
 10
4581.555745373643731
 20
183.7897550073348043
 30
0.0
 11
4581.555790089499169
 21
183.8000294252065032
 31
0.0
  0
LINE
  5
E9EA
  8
0
 10
4581.57883865263193
 20
183.7896545018124925
 30
0.0
 11
4581.5788488037023853
 21
183.8000068147374861
 31
0.0
  0
LINE
  5
E9EB
  8
0
 10
4581.5906102497247048
 20
183.8061477815435865
 30
0.0
 11
4581.5789078610168872
 21
183.8010423949642131
 31
0.0
  0
LINE
  5
E9EC
  8
0
 10
4581.5789078610168872
 20
183.8010423949642131
 30
0.0
 11
4581.5558145820286882
 21
183.8011429004866102
 31
0.0
  0
LINE
  5
E9ED
  8
0
 10
4581.5558145820286882
 20
183.8011429004866102
 30
0.0
 11
4581.5444240384249497
 21
183.8064284719249883
 31
0.0
  0
LINE
  5
E9EE
  8
0
 10
4581.5444240384249497
 20
183.8064284719249883
 30
0.0
 11
4581.5558592978850356
 21
183.8114173183583091
 31
0.0
  0
LINE
  5
E9EF
  8
0
 10
4581.5558592978850356
 20
183.8114173183583091
 30
0.0
 11
4581.5789529157364086
 21
183.8113946736642106
 31
0.0
  0
LINE
  5
E9F0
  8
0
 10
4581.5789529157364086
 20
183.8113946736642106
 30
0.0
 11
4581.5906102497247048
 21
183.8061477815435865
 31
0.0
  0
LINE
  5
E9F1
  8
0
 10
4581.5558145820286882
 20
183.8011429004866102
 30
0.0
 11
4581.5558592978850356
 21
183.8114173183583091
 31
0.0
  0
LINE
  5
E9F2
  8
0
 10
4581.5789078610168872
 20
183.8010423949642131
 30
0.0
 11
4581.578918012088252
 21
183.811394707889292
 31
0.0
  0
LINE
  5
E9F3
  8
0
 10
4581.5906794581151189
 20
183.817535674695506
 30
0.0
 11
4581.5789770694073013
 21
183.8124302881161043
 31
0.0
  0
LINE
  5
E9F4
  8
0
 10
4581.5789770694073013
 20
183.8124302881161043
 30
0.0
 11
4581.5558837904191023
 21
183.8125307936385013
 31
0.0
  0
LINE
  5
E9F5
  8
0
 10
4581.5558837904191023
 20
183.8125307936385013
 30
0.0
 11
4581.5444932468153638
 21
183.8178163650769079
 31
0.0
  0
LINE
  5
E9F6
  8
0
 10
4581.5444932468153638
 20
183.8178163650769079
 30
0.0
 11
4581.5559285062754498
 21
183.8228052115100866
 31
0.0
  0
LINE
  5
E9F7
  8
0
 10
4581.5559285062754498
 20
183.8228052115100866
 30
0.0
 11
4581.5790221241250038
 21
183.8227825668161017
 31
0.0
  0
LINE
  5
E9F8
  8
0
 10
4581.5790221241250038
 20
183.8227825668161017
 30
0.0
 11
4581.5906794581151189
 21
183.817535674695506
 31
0.0
  0
LINE
  5
E9F9
  8
0
 10
4581.5558837904191023
 20
183.8125307936385013
 30
0.0
 11
4581.5559285062754498
 21
183.8228052115100866
 31
0.0
  0
LINE
  5
E9FA
  8
0
 10
4581.5789770694073013
 20
183.8124302881161043
 30
0.0
 11
4581.5789872204777566
 21
183.8227826010412116
 31
0.0
  0
LINE
  5
E9FB
  8
0
 10
4581.590416372279833
 20
183.828802192459392
 30
0.0
 11
4581.5787139835711059
 21
183.823696805880104
 31
0.0
  0
LINE
  5
E9FC
  8
0
 10
4581.5787139835711059
 20
183.823696805880104
 30
0.0
 11
4581.5556207045829069
 21
183.8237973114023873
 31
0.0
  0
LINE
  5
E9FD
  8
0
 10
4581.5556207045829069
 20
183.8237973114023873
 30
0.0
 11
4581.5442301609809874
 21
183.8290828828407939
 31
0.0
  0
LINE
  5
E9FE
  8
0
 10
4581.5442301609809874
 20
183.8290828828407939
 30
0.0
 11
4581.5531821493123061
 21
183.8329883556650088
 31
0.0
  0
LINE
  5
E9FF
  8
0
 10
4581.5847878253307499
 20
183.8313355657552961
 30
0.0
 11
4581.590416372279833
 21
183.828802192459392
 31
0.0
  0
LINE
  5
EA00
  8
0
 10
4581.5787139835711059
 20
183.823696805880104
 30
0.0
 11
4581.5787489651711439
 21
183.8317345716843079
 31
0.0
  0
LINE
  5
EA01
  8
0
 10
4581.5556207045829069
 20
183.8237973114023873
 30
0.0
 11
4581.5556602435981404
 21
183.8328822401657874
 31
0.0
  0
LINE
  5
EA02
  8
0
 10
4581.6283312659816147
 20
183.709523781260998
 30
0.0
 11
4581.6166288772719781
 21
183.70441839468171
 31
0.0
  0
LINE
  5
EA03
  8
0
 10
4581.6166288772719781
 20
183.70441839468171
 30
0.0
 11
4581.5935355982837791
 21
183.7045189002039933
 31
0.0
  0
LINE
  5
EA04
  8
0
 10
4581.5935355982837791
 20
183.7045189002039933
 30
0.0
 11
4581.5821450546818596
 21
183.7098044716425136
 31
0.0
  0
LINE
  5
EA05
  8
0
 10
4581.5821450546818596
 20
183.7098044716425136
 30
0.0
 11
4581.5935803141401266
 21
183.7147933180756922
 31
0.0
  0
LINE
  5
EA06
  8
0
 10
4581.5935803141401266
 20
183.7147933180756922
 30
0.0
 11
4581.6166739319896806
 21
183.7147706733815937
 31
0.0
  0
LINE
  5
EA07
  8
0
 10
4581.6166739319896806
 20
183.7147706733815937
 30
0.0
 11
4581.6283312659816147
 21
183.709523781260998
 31
0.0
  0
LINE
  5
EA08
  8
0
 10
4581.5935355982837791
 20
183.7045189002039933
 30
0.0
 11
4581.5935803141401266
 21
183.7147933180756922
 31
0.0
  0
LINE
  5
EA09
  8
0
 10
4581.6166288772719781
 20
183.70441839468171
 30
0.0
 11
4581.6166390283433429
 21
183.7147707076067036
 31
0.0
  0
LINE
  5
EA0A
  8
0
 10
4581.6284008348147836
 20
183.7209709839806067
 30
0.0
 11
4581.616698446105147
 21
183.7158655974012902
 31
0.0
  0
LINE
  5
EA0B
  8
0
 10
4581.616698446105147
 20
183.7158655974012902
 30
0.0
 11
4581.593605167116948
 21
183.715966102923602
 31
0.0
  0
LINE
  5
EA0C
  8
0
 10
4581.593605167116948
 20
183.715966102923602
 30
0.0
 11
4581.5822146235150285
 21
183.7212516743620085
 31
0.0
  0
LINE
  5
EA0D
  8
0
 10
4581.5822146235150285
 20
183.7212516743620085
 30
0.0
 11
4581.5936498829732955
 21
183.7262405207953009
 31
0.0
  0
LINE
  5
EA0E
  8
0
 10
4581.5936498829732955
 20
183.7262405207953009
 30
0.0
 11
4581.6167435008228495
 21
183.7262178761012024
 31
0.0
  0
LINE
  5
EA0F
  8
0
 10
4581.6167435008228495
 20
183.7262178761012024
 30
0.0
 11
4581.6284008348147836
 21
183.7209709839806067
 31
0.0
  0
LINE
  5
EA10
  8
0
 10
4581.593605167116948
 20
183.715966102923602
 30
0.0
 11
4581.5936498829732955
 21
183.7262405207953009
 31
0.0
  0
LINE
  5
EA11
  8
0
 10
4581.616698446105147
 20
183.7158655974012902
 30
0.0
 11
4581.6167085971756023
 21
183.7262179103263122
 31
0.0
  0
LINE
  5
EA12
  8
0
 10
4581.6284700432015597
 20
183.7323588771324125
 30
0.0
 11
4581.6167676544937422
 21
183.7272534905530961
 31
0.0
  0
LINE
  5
EA13
  8
0
 10
4581.6167676544937422
 20
183.7272534905530961
 30
0.0
 11
4581.5936743755046336
 21
183.7273539960754078
 31
0.0
  0
LINE
  5
EA14
  8
0
 10
4581.5936743755046336
 20
183.7273539960754078
 30
0.0
 11
4581.5822838319018047
 21
183.7326395675138997
 31
0.0
  0
LINE
  5
EA15
  8
0
 10
4581.5822838319018047
 20
183.7326395675138997
 30
0.0
 11
4581.5937190913618906
 21
183.7376284139471068
 31
0.0
  0
LINE
  5
EA16
  8
0
 10
4581.5937190913618906
 20
183.7376284139471068
 30
0.0
 11
4581.6168127092114446
 21
183.7376057692530082
 31
0.0
  0
LINE
  5
EA17
  8
0
 10
4581.6168127092114446
 20
183.7376057692530082
 30
0.0
 11
4581.6284700432015597
 21
183.7323588771324125
 31
0.0
  0
LINE
  5
EA18
  8
0
 10
4581.5936743755046336
 20
183.7273539960754078
 30
0.0
 11
4581.5937190913618906
 21
183.7376284139471068
 31
0.0
  0
LINE
  5
EA19
  8
0
 10
4581.6167676544937422
 20
183.7272534905530961
 30
0.0
 11
4581.616777805565107
 21
183.7376058034782034
 31
0.0
  0
LINE
  5
EA1A
  8
0
 10
4581.6285392515901549
 20
183.7437467702845879
 30
0.0
 11
4581.6168368628814278
 21
183.7386413837051862
 31
0.0
  0
LINE
  5
EA1B
  8
0
 10
4581.6168368628814278
 20
183.7386413837051862
 30
0.0
 11
4581.5937435838932288
 21
183.7387418892276116
 31
0.0
  0
LINE
  5
EA1C
  8
0
 10
4581.5937435838932288
 20
183.7387418892276116
 30
0.0
 11
4581.5823530402903998
 21
183.7440274606659898
 31
0.0
  0
LINE
  5
EA1D
  8
0
 10
4581.5823530402903998
 20
183.7440274606659898
 30
0.0
 11
4581.5937882997486668
 21
183.7490163070991969
 31
0.0
  0
LINE
  5
EA1E
  8
0
 10
4581.5937882997486668
 20
183.7490163070991969
 30
0.0
 11
4581.6168819175991302
 21
183.7489936624050983
 31
0.0
  0
LINE
  5
EA1F
  8
0
 10
4581.6168819175991302
 20
183.7489936624050983
 30
0.0
 11
4581.6285392515901549
 21
183.7437467702845879
 31
0.0
  0
LINE
  5
EA20
  8
0
 10
4581.5937435838932288
 20
183.7387418892276116
 30
0.0
 11
4581.5937882997486668
 21
183.7490163070991969
 31
0.0
  0
LINE
  5
EA21
  8
0
 10
4581.6168368628814278
 20
183.7386413837051862
 30
0.0
 11
4581.6168470139527926
 21
183.7489936966302935
 31
0.0
  0
LINE
  5
EA22
  8
0
 10
4581.6286084597777517
 20
183.7551346633817104
 30
0.0
 11
4581.6169060710699341
 21
183.7500292768023087
 31
0.0
  0
LINE
  5
EA23
  8
0
 10
4581.6169060710699341
 20
183.7500292768023087
 30
0.0
 11
4581.5938127920808256
 21
183.750129782324592
 31
0.0
  0
LINE
  5
EA24
  8
0
 10
4581.5938127920808256
 20
183.750129782324592
 30
0.0
 11
4581.5824222484789061
 21
183.7554153537631123
 31
0.0
  0
LINE
  5
EA25
  8
0
 10
4581.5824222484789061
 20
183.7554153537631123
 30
0.0
 11
4581.5938575079380826
 21
183.760404200196291
 31
0.0
  0
LINE
  5
EA26
  8
0
 10
4581.5938575079380826
 20
183.760404200196291
 30
0.0
 11
4581.6169511257885461
 21
183.7603815555021924
 31
0.0
  0
LINE
  5
EA27
  8
0
 10
4581.6169511257885461
 20
183.7603815555021924
 30
0.0
 11
4581.6286084597777517
 21
183.7551346633817104
 31
0.0
  0
LINE
  5
EA28
  8
0
 10
4581.5938127920808256
 20
183.750129782324592
 30
0.0
 11
4581.5938575079380826
 21
183.760404200196291
 31
0.0
  0
LINE
  5
EA29
  8
0
 10
4581.6169060710699341
 20
183.7500292768023087
 30
0.0
 11
4581.6169162221412989
 21
183.7603815897273876
 31
0.0
  0
LINE
  5
EA2A
  8
0
 10
4581.6286776681181436
 20
183.7665225565326068
 30
0.0
 11
4581.6169752794094165
 21
183.7614171699532903
 31
0.0
  0
LINE
  5
EA2B
  8
0
 10
4581.6169752794094165
 20
183.7614171699532903
 30
0.0
 11
4581.5938820004212175
 21
183.7615176754756021
 31
0.0
  0
LINE
  5
EA2C
  8
0
 10
4581.5938820004212175
 20
183.7615176754756021
 30
0.0
 11
4581.5824914568202075
 21
183.766803246914094
 31
0.0
  0
LINE
  5
EA2D
  8
0
 10
4581.5824914568202075
 20
183.766803246914094
 30
0.0
 11
4581.5939267162766555
 21
183.771792093347301
 31
0.0
  0
LINE
  5
EA2E
  8
0
 10
4581.5939267162766555
 20
183.771792093347301
 30
0.0
 11
4581.617020334127119
 21
183.7717694486532025
 31
0.0
  0
LINE
  5
EA2F
  8
0
 10
4581.617020334127119
 20
183.7717694486532025
 30
0.0
 11
4581.6286776681181436
 21
183.7665225565326068
 31
0.0
  0
LINE
  5
EA30
  8
0
 10
4581.5938820004212175
 20
183.7615176754756021
 30
0.0
 11
4581.5939267162766555
 21
183.771792093347301
 31
0.0
  0
LINE
  5
EA31
  8
0
 10
4581.6169752794094165
 20
183.7614171699532903
 30
0.0
 11
4581.6169854304807814
 21
183.7717694828783124
 31
0.0
  0
LINE
  5
EA32
  8
0
 10
4581.6287468767513928
 20
183.7779104496399896
 30
0.0
 11
4581.6170444880417563
 21
183.7728050630607015
 31
0.0
  0
LINE
  5
EA33
  8
0
 10
4581.6170444880417563
 20
183.7728050630607015
 30
0.0
 11
4581.5939512090535572
 21
183.7729055685830133
 31
0.0
  0
LINE
  5
EA34
  8
0
 10
4581.5939512090535572
 20
183.7729055685830133
 30
0.0
 11
4581.5825606654507283
 21
183.7781911400213914
 31
0.0
  0
LINE
  5
EA35
  8
0
 10
4581.5825606654507283
 20
183.7781911400213914
 30
0.0
 11
4581.5939959249099047
 21
183.7831799864545985
 31
0.0
  0
LINE
  5
EA36
  8
0
 10
4581.5939959249099047
 20
183.7831799864545985
 30
0.0
 11
4581.6170895427603682
 21
183.7831573417605
 31
0.0
  0
LINE
  5
EA37
  8
0
 10
4581.6170895427603682
 20
183.7831573417605
 30
0.0
 11
4581.6287468767513928
 21
183.7779104496399896
 31
0.0
  0
LINE
  5
EA38
  8
0
 10
4581.5939512090535572
 20
183.7729055685830133
 30
0.0
 11
4581.5939959249099047
 21
183.7831799864545985
 31
0.0
  0
LINE
  5
EA39
  8
0
 10
4581.6170444880417563
 20
183.7728050630607015
 30
0.0
 11
4581.6170546391131211
 21
183.7831573759856951
 31
0.0
  0
LINE
  5
EA3A
  8
0
 10
4581.6288160851408975
 20
183.7892983427917954
 30
0.0
 11
4581.6171136964312609
 21
183.7841929562125074
 31
0.0
  0
LINE
  5
EA3B
  8
0
 10
4581.6171136964312609
 20
183.7841929562125074
 30
0.0
 11
4581.5940204174430619
 21
183.7842934617349044
 31
0.0
  0
LINE
  5
EA3C
  8
0
 10
4581.5940204174430619
 20
183.7842934617349044
 30
0.0
 11
4581.5826298738420519
 21
183.789579033173311
 31
0.0
  0
LINE
  5
EA3D
  8
0
 10
4581.5826298738420519
 20
183.789579033173311
 30
0.0
 11
4581.5940651332994094
 21
183.7945678796064897
 31
0.0
  0
LINE
  5
EA3E
  8
0
 10
4581.5940651332994094
 20
183.7945678796064897
 30
0.0
 11
4581.6171587511489633
 21
183.7945452349123912
 31
0.0
  0
LINE
  5
EA3F
  8
0
 10
4581.6171587511489633
 20
183.7945452349123912
 30
0.0
 11
4581.6288160851408975
 21
183.7892983427917954
 31
0.0
  0
LINE
  5
EA40
  8
0
 10
4581.5940204174430619
 20
183.7842934617349044
 30
0.0
 11
4581.5940651332994094
 21
183.7945678796064897
 31
0.0
  0
LINE
  5
EA41
  8
0
 10
4581.6171136964312609
 20
183.7841929562125074
 30
0.0
 11
4581.6171238475026257
 21
183.7945452691375863
 31
0.0
  0
LINE
  5
EA42
  8
0
 10
4581.6288852935249452
 20
183.8006862359436013
 30
0.0
 11
4581.6171829048171276
 21
183.7955808493643133
 31
0.0
  0
LINE
  5
EA43
  8
0
 10
4581.6171829048171276
 20
183.7955808493643133
 30
0.0
 11
4581.5940896258289285
 21
183.7956813548865966
 31
0.0
  0
LINE
  5
EA44
  8
0
 10
4581.5940896258289285
 20
183.7956813548865966
 30
0.0
 11
4581.5826990822251901
 21
183.8009669263250032
 31
0.0
  0
LINE
  5
EA45
  8
0
 10
4581.5826990822251901
 20
183.8009669263250032
 30
0.0
 11
4581.5941343416843665
 21
183.8059557727582103
 31
0.0
  0
LINE
  5
EA46
  8
0
 10
4581.5941343416843665
 20
183.8059557727582103
 30
0.0
 11
4581.61722795953483
 21
183.805933128064197
 31
0.0
  0
LINE
  5
EA47
  8
0
 10
4581.61722795953483
 20
183.805933128064197
 30
0.0
 11
4581.6288852935249452
 21
183.8006862359436013
 31
0.0
  0
LINE
  5
EA48
  8
0
 10
4581.5940896258289285
 20
183.7956813548865966
 30
0.0
 11
4581.5941343416843665
 21
183.8059557727582103
 31
0.0
  0
LINE
  5
EA49
  8
0
 10
4581.6171829048171276
 20
183.7955808493643133
 30
0.0
 11
4581.6171930558866734
 21
183.8059331622893069
 31
0.0
  0
LINE
  5
EA4A
  8
0
 10
4581.6289545019162688
 20
183.8120741290954925
 30
0.0
 11
4581.6172521132066322
 21
183.8069687425160907
 31
0.0
  0
LINE
  5
EA4B
  8
0
 10
4581.6172521132066322
 20
183.8069687425160907
 30
0.0
 11
4581.5941588342193427
 21
183.8070692480384878
 31
0.0
  0
LINE
  5
EA4C
  8
0
 10
4581.5941588342193427
 20
183.8070692480384878
 30
0.0
 11
4581.5827682906156042
 21
183.8123548194768944
 31
0.0
  0
LINE
  5
EA4D
  8
0
 10
4581.5827682906156042
 20
183.8123548194768944
 30
0.0
 11
4581.5942035500738712
 21
183.8173436659101014
 31
0.0
  0
LINE
  5
EA4E
  8
0
 10
4581.5942035500738712
 20
183.8173436659101014
 30
0.0
 11
4581.6172971679252441
 21
183.8173210212160029
 31
0.0
  0
LINE
  5
EA4F
  8
0
 10
4581.6172971679252441
 20
183.8173210212160029
 30
0.0
 11
4581.6289545019162688
 21
183.8120741290954925
 31
0.0
  0
LINE
  5
EA50
  8
0
 10
4581.5941588342193427
 20
183.8070692480384878
 30
0.0
 11
4581.5942035500738712
 21
183.8173436659101014
 31
0.0
  0
LINE
  5
EA51
  8
0
 10
4581.6172521132066322
 20
183.8069687425160907
 30
0.0
 11
4581.617262264277997
 21
183.817321055441198
 31
0.0
  0
LINE
  5
EA52
  8
0
 10
4581.6286914160800734
 20
183.8233406468594069
 30
0.0
 11
4581.6169890273713463
 21
183.8182352602800051
 31
0.0
  0
LINE
  5
EA53
  8
0
 10
4581.6169890273713463
 20
183.8182352602800051
 30
0.0
 11
4581.5938957483822378
 21
183.8183357658024022
 31
0.0
  0
LINE
  5
EA54
  8
0
 10
4581.5938957483822378
 20
183.8183357658024022
 30
0.0
 11
4581.5825052047812278
 21
183.8236213372408088
 31
0.0
  0
LINE
  5
EA55
  8
0
 10
4581.5825052047812278
 20
183.8236213372408088
 30
0.0
 11
4581.5939404642385853
 21
183.8286101836739874
 31
0.0
  0
LINE
  5
EA56
  8
0
 10
4581.5939404642385853
 20
183.8286101836739874
 30
0.0
 11
4581.6170340820881393
 21
183.8285875389800026
 31
0.0
  0
LINE
  5
EA57
  8
0
 10
4581.6170340820881393
 20
183.8285875389800026
 30
0.0
 11
4581.6286914160800734
 21
183.8233406468594069
 31
0.0
  0
LINE
  5
EA58
  8
0
 10
4581.6169890273713463
 20
183.8182352602800051
 30
0.0
 11
4581.6170340820881393
 21
183.8285875389800026
 31
0.0
  0
LINE
  5
EA59
  8
0
 10
4581.5938957483822378
 20
183.8183357658024022
 30
0.0
 11
4581.5939404642385853
 21
183.8286101836739874
 31
0.0
  0
LINE
  5
EA5A
  8
0
 10
4581.6662634708809492
 20
183.7154484658609874
 30
0.0
 11
4581.6545610821722221
 21
183.7103430792816994
 31
0.0
  0
LINE
  5
EA5B
  8
0
 10
4581.6545610821722221
 20
183.7103430792816994
 30
0.0
 11
4581.6314678031840231
 21
183.7104435848040112
 31
0.0
  0
LINE
  5
EA5C
  8
0
 10
4581.6314678031840231
 20
183.7104435848040112
 30
0.0
 11
4581.6200772595811941
 21
183.715729156242503
 31
0.0
  0
LINE
  5
EA5D
  8
0
 10
4581.6200772595811941
 20
183.715729156242503
 30
0.0
 11
4581.63151251904128
 21
183.7207180026757101
 31
0.0
  0
LINE
  5
EA5E
  8
0
 10
4581.63151251904128
 20
183.7207180026757101
 30
0.0
 11
4581.654606136890834
 21
183.7206953579816116
 31
0.0
  0
LINE
  5
EA5F
  8
0
 10
4581.654606136890834
 20
183.7206953579816116
 30
0.0
 11
4581.6662634708809492
 21
183.7154484658609874
 31
0.0
  0
LINE
  5
EA60
  8
0
 10
4581.6314678031840231
 20
183.7104435848040112
 30
0.0
 11
4581.63151251904128
 21
183.7207180026757101
 31
0.0
  0
LINE
  5
EA61
  8
0
 10
4581.6545610821722221
 20
183.7103430792816994
 30
0.0
 11
4581.6545712332426774
 21
183.720695392206693
 31
0.0
  0
LINE
  5
EA62
  8
0
 10
4581.6663330397150276
 20
183.7268956685805961
 30
0.0
 11
4581.654630651005391
 21
183.721790282001308
 31
0.0
  0
LINE
  5
EA63
  8
0
 10
4581.654630651005391
 20
183.721790282001308
 30
0.0
 11
4581.631537372017192
 21
183.7218907875235914
 31
0.0
  0
LINE
  5
EA64
  8
0
 10
4581.631537372017192
 20
183.7218907875235914
 30
0.0
 11
4581.620146828416182
 21
183.7271763589621116
 31
0.0
  0
LINE
  5
EA65
  8
0
 10
4581.620146828416182
 20
183.7271763589621116
 30
0.0
 11
4581.6315820878726299
 21
183.7321652053952903
 31
0.0
  0
LINE
  5
EA66
  8
0
 10
4581.6315820878726299
 20
183.7321652053952903
 30
0.0
 11
4581.6546757057230934
 21
183.7321425607011918
 31
0.0
  0
LINE
  5
EA67
  8
0
 10
4581.6546757057230934
 20
183.7321425607011918
 30
0.0
 11
4581.6663330397150276
 21
183.7268956685805961
 31
0.0
  0
LINE
  5
EA68
  8
0
 10
4581.631537372017192
 20
183.7218907875235914
 30
0.0
 11
4581.6315820878726299
 21
183.7321652053952903
 31
0.0
  0
LINE
  5
EA69
  8
0
 10
4581.654630651005391
 20
183.721790282001308
 30
0.0
 11
4581.6546408020767558
 21
183.7321425949263016
 31
0.0
  0
LINE
  5
EA6A
  8
0
 10
4581.6664022481018037
 20
183.7382835617324872
 30
0.0
 11
4581.6546998593939861
 21
183.7331781751531139
 31
0.0
  0
LINE
  5
EA6B
  8
0
 10
4581.6546998593939861
 20
183.7331781751531139
 30
0.0
 11
4581.6316065804057871
 21
183.7332786806755109
 31
0.0
  0
LINE
  5
EA6C
  8
0
 10
4581.6316065804057871
 20
183.7332786806755109
 30
0.0
 11
4581.6202160368020486
 21
183.7385642521138891
 31
0.0
  0
LINE
  5
EA6D
  8
0
 10
4581.6202160368020486
 20
183.7385642521138891
 30
0.0
 11
4581.6316512962621346
 21
183.7435530985470962
 31
0.0
  0
LINE
  5
EA6E
  8
0
 10
4581.6316512962621346
 20
183.7435530985470962
 30
0.0
 11
4581.6547449141116886
 21
183.7435304538529977
 31
0.0
  0
LINE
  5
EA6F
  8
0
 10
4581.6547449141116886
 20
183.7435304538529977
 30
0.0
 11
4581.6664022481018037
 21
183.7382835617324872
 31
0.0
  0
LINE
  5
EA70
  8
0
 10
4581.6316065804057871
 20
183.7332786806755109
 30
0.0
 11
4581.6316512962621346
 21
183.7435530985470962
 31
0.0
  0
LINE
  5
EA71
  8
0
 10
4581.6546998593939861
 20
183.7331781751531139
 30
0.0
 11
4581.6547100104644414
 21
183.7435304880781928
 31
0.0
  0
LINE
  5
EA72
  8
0
 10
4581.6664714564903989
 20
183.7496714548846057
 30
0.0
 11
4581.6547690677807623
 21
183.744566068305204
 31
0.0
  0
LINE
  5
EA73
  8
0
 10
4581.6547690677807623
 20
183.744566068305204
 30
0.0
 11
4581.6316757887925633
 21
183.744666573827601
 31
0.0
  0
LINE
  5
EA74
  8
0
 10
4581.6316757887925633
 20
183.744666573827601
 30
0.0
 11
4581.6202852451906438
 21
183.7499521452660076
 31
0.0
  0
LINE
  5
EA75
  8
0
 10
4581.6202852451906438
 20
183.7499521452660076
 30
0.0
 11
4581.6317205046480012
 21
183.7549409916991863
 31
0.0
  0
LINE
  5
EA76
  8
0
 10
4581.6317205046480012
 20
183.7549409916991863
 30
0.0
 11
4581.6548141224993742
 21
183.7549183470050878
 31
0.0
  0
LINE
  5
EA77
  8
0
 10
4581.6548141224993742
 20
183.7549183470050878
 30
0.0
 11
4581.6664714564903989
 21
183.7496714548846057
 31
0.0
  0
LINE
  5
EA78
  8
0
 10
4581.6316757887925633
 20
183.744666573827601
 30
0.0
 11
4581.6317205046480012
 21
183.7549409916991863
 31
0.0
  0
LINE
  5
EA79
  8
0
 10
4581.6547690677807623
 20
183.744566068305204
 30
0.0
 11
4581.6547792188521271
 21
183.7549183812303113
 31
0.0
  0
LINE
  5
EA7A
  8
0
 10
4581.6665406646789052
 20
183.7610593479816998
 30
0.0
 11
4581.6548382759701781
 21
183.7559539614022981
 31
0.0
  0
LINE
  5
EA7B
  8
0
 10
4581.6548382759701781
 20
183.7559539614022981
 30
0.0
 11
4581.6317449969819791
 21
183.7560544669246951
 31
0.0
  0
LINE
  5
EA7C
  8
0
 10
4581.6317449969819791
 20
183.7560544669246951
 30
0.0
 11
4581.6203544533791501
 21
183.7613400383631017
 31
0.0
  0
LINE
  5
EA7D
  8
0
 10
4581.6203544533791501
 20
183.7613400383631017
 30
0.0
 11
4581.6317897128383265
 21
183.7663288847963088
 31
0.0
  0
LINE
  5
EA7E
  8
0
 10
4581.6317897128383265
 20
183.7663288847963088
 30
0.0
 11
4581.6548833306878805
 21
183.7663062401022103
 31
0.0
  0
LINE
  5
EA7F
  8
0
 10
4581.6548833306878805
 20
183.7663062401022103
 30
0.0
 11
4581.6665406646789052
 21
183.7610593479816998
 31
0.0
  0
LINE
  5
EA80
  8
0
 10
4581.6317449969819791
 20
183.7560544669246951
 30
0.0
 11
4581.6317897128383265
 21
183.7663288847963088
 31
0.0
  0
LINE
  5
EA81
  8
0
 10
4581.6548382759701781
 20
183.7559539614022981
 30
0.0
 11
4581.6548484270406334
 21
183.7663062743274054
 31
0.0
  0
LINE
  5
EA82
  8
0
 10
4581.6666098730183876
 20
183.7724472411327099
 30
0.0
 11
4581.654907484308751
 21
183.7673418545533082
 31
0.0
  0
LINE
  5
EA83
  8
0
 10
4581.654907484308751
 20
183.7673418545533082
 30
0.0
 11
4581.631814205320552
 21
183.7674423600755915
 31
0.0
  0
LINE
  5
EA84
  8
0
 10
4581.631814205320552
 20
183.7674423600755915
 30
0.0
 11
4581.6204236617186325
 21
183.7727279315141118
 31
0.0
  0
LINE
  5
EA85
  8
0
 10
4581.6204236617186325
 20
183.7727279315141118
 30
0.0
 11
4581.631858921177809
 21
183.7777167779472904
 31
0.0
  0
LINE
  5
EA86
  8
0
 10
4581.631858921177809
 20
183.7777167779472904
 30
0.0
 11
4581.6549525390273629
 21
183.7776941332531919
 31
0.0
  0
LINE
  5
EA87
  8
0
 10
4581.6549525390273629
 20
183.7776941332531919
 30
0.0
 11
4581.6666098730183876
 21
183.7724472411327099
 31
0.0
  0
LINE
  5
EA88
  8
0
 10
4581.631814205320552
 20
183.7674423600755915
 30
0.0
 11
4581.631858921177809
 21
183.7777167779472904
 31
0.0
  0
LINE
  5
EA89
  8
0
 10
4581.654907484308751
 20
183.7673418545533082
 30
0.0
 11
4581.6549176353810253
 21
183.7776941674783018
 31
0.0
  0
LINE
  5
EA8A
  8
0
 10
4581.6666790816498178
 20
183.7838351342400074
 30
0.0
 11
4581.6549766929410907
 21
183.7787297476606909
 31
0.0
  0
LINE
  5
EA8B
  8
0
 10
4581.6549766929410907
 20
183.7787297476606909
 30
0.0
 11
4581.6318834139538012
 21
183.7788302531830027
 31
0.0
  0
LINE
  5
EA8C
  8
0
 10
4581.6318834139538012
 20
183.7788302531830027
 30
0.0
 11
4581.6204928703518817
 21
183.7841158246214093
 31
0.0
  0
LINE
  5
EA8D
  8
0
 10
4581.6204928703518817
 20
183.7841158246214093
 30
0.0
 11
4581.6319281298101487
 21
183.7891046710545879
 31
0.0
  0
LINE
  5
EA8E
  8
0
 10
4581.6319281298101487
 20
183.7891046710545879
 30
0.0
 11
4581.6550217476606122
 21
183.7890820263604894
 31
0.0
  0
LINE
  5
EA8F
  8
0
 10
4581.6550217476606122
 20
183.7890820263604894
 30
0.0
 11
4581.6666790816498178
 21
183.7838351342400074
 31
0.0
  0
LINE
  5
EA90
  8
0
 10
4581.6318834139538012
 20
183.7788302531830027
 30
0.0
 11
4581.6319281298101487
 21
183.7891046710545879
 31
0.0
  0
LINE
  5
EA91
  8
0
 10
4581.6549766929410907
 20
183.7787297476606909
 30
0.0
 11
4581.654986844013365
 21
183.789082060585713
 31
0.0
  0
LINE
  5
EA92
  8
0
 10
4581.666748290040232
 20
183.7952230273918985
 30
0.0
 11
4581.6550459013305954
 21
183.7901176408124968
 31
0.0
  0
LINE
  5
EA93
  8
0
 10
4581.6550459013305954
 20
183.7901176408124968
 30
0.0
 11
4581.6319526223433058
 21
183.7902181463348086
 31
0.0
  0
LINE
  5
EA94
  8
0
 10
4581.6319526223433058
 20
183.7902181463348086
 30
0.0
 11
4581.6205620787413864
 21
183.7955037177733004
 31
0.0
  0
LINE
  5
EA95
  8
0
 10
4581.6205620787413864
 20
183.7955037177733004
 30
0.0
 11
4581.6319973381996533
 21
183.8004925642065075
 31
0.0
  0
LINE
  5
EA96
  8
0
 10
4581.6319973381996533
 20
183.8004925642065075
 30
0.0
 11
4581.6550909560501168
 21
183.800469919512409
 31
0.0
  0
LINE
  5
EA97
  8
0
 10
4581.6550909560501168
 20
183.800469919512409
 30
0.0
 11
4581.666748290040232
 21
183.7952230273918985
 31
0.0
  0
LINE
  5
EA98
  8
0
 10
4581.6319526223433058
 20
183.7902181463348086
 30
0.0
 11
4581.6319973381996533
 21
183.8004925642065075
 31
0.0
  0
LINE
  5
EA99
  8
0
 10
4581.6550459013305954
 20
183.7901176408124968
 30
0.0
 11
4581.6550560524028697
 21
183.8004699537376041
 31
0.0
  0
LINE
  5
EA9A
  8
0
 10
4581.6668174984260986
 20
183.8066109205435907
 30
0.0
 11
4581.6551151097155525
 21
183.8015055339643027
 31
0.0
  0
LINE
  5
EA9B
  8
0
 10
4581.6551151097155525
 20
183.8015055339643027
 30
0.0
 11
4581.6320218307291725
 21
183.801606039486586
 31
0.0
  0
LINE
  5
EA9C
  8
0
 10
4581.6320218307291725
 20
183.801606039486586
 30
0.0
 11
4581.6206312871263435
 21
183.8068916109249926
 31
0.0
  0
LINE
  5
EA9D
  8
0
 10
4581.6206312871263435
 20
183.8068916109249926
 30
0.0
 11
4581.6320665465846105
 21
183.8118804573581997
 31
0.0
  0
LINE
  5
EA9E
  8
0
 10
4581.6320665465846105
 20
183.8118804573581997
 30
0.0
 11
4581.655160164435074
 21
183.8118578126641864
 31
0.0
  0
LINE
  5
EA9F
  8
0
 10
4581.655160164435074
 20
183.8118578126641864
 30
0.0
 11
4581.6668174984260986
 21
183.8066109205435907
 31
0.0
  0
LINE
  5
EAA0
  8
0
 10
4581.6320218307291725
 20
183.801606039486586
 30
0.0
 11
4581.6320665465846105
 21
183.8118804573581997
 31
0.0
  0
LINE
  5
EAA1
  8
0
 10
4581.6551151097155525
 20
183.8015055339643027
 30
0.0
 11
4581.6551252607869174
 21
183.8118578468892963
 31
0.0
  0
LINE
  5
EAA2
  8
0
 10
4581.6668867068146938
 20
183.8179988136955103
 30
0.0
 11
4581.6551843181068762
 21
183.8128934271161086
 31
0.0
  0
LINE
  5
EAA3
  8
0
 10
4581.6551843181068762
 20
183.8128934271161086
 30
0.0
 11
4581.6320910391186771
 21
183.8129939326385056
 31
0.0
  0
LINE
  5
EAA4
  8
0
 10
4581.6320910391186771
 20
183.8129939326385056
 30
0.0
 11
4581.6207004955158482
 21
183.8182795040769122
 31
0.0
  0
LINE
  5
EAA5
  8
0
 10
4581.6207004955158482
 20
183.8182795040769122
 30
0.0
 11
4581.6321357549750246
 21
183.8232683505100908
 31
0.0
  0
LINE
  5
EAA6
  8
0
 10
4581.6321357549750246
 20
183.8232683505100908
 30
0.0
 11
4581.6552293728263976
 21
183.8232457058159923
 31
0.0
  0
LINE
  5
EAA7
  8
0
 10
4581.6552293728263976
 20
183.8232457058159923
 30
0.0
 11
4581.6668867068146938
 21
183.8179988136955103
 31
0.0
  0
LINE
  5
EAA8
  8
0
 10
4581.6320910391186771
 20
183.8129939326385056
 30
0.0
 11
4581.6321357549750246
 21
183.8232683505100908
 31
0.0
  0
LINE
  5
EAA9
  8
0
 10
4581.6551843181068762
 20
183.8128934271161086
 30
0.0
 11
4581.655194469178241
 21
183.8232457400411874
 31
0.0
  0
LINE
  5
EAAA
  8
0
 10
4581.6545981736981048
 20
183.8241613508808996
 30
0.0
 11
4581.6318279532833913
 21
183.8242604504023916
 31
0.0
  0
LINE
  5
EAAB
  8
0
 10
4581.6318279532833913
 20
183.8242604504023916
 30
0.0
 11
4581.6240117897950768
 21
183.8278873967477978
 31
0.0
  0
LINE
  5
EAAC
  8
0
 10
4581.6318279532833913
 20
183.8242604504023916
 30
0.0
 11
4581.6318399664160097
 21
183.8270207228628976
 31
0.0
  0
LINE
  5
EAAD
  8
0
 10
4581.7041956757811931
 20
183.7213731504610053
 30
0.0
 11
4581.6924932870715566
 21
183.7162677638816888
 31
0.0
  0
LINE
  5
EAAE
  8
0
 10
4581.6924932870715566
 20
183.7162677638816888
 30
0.0
 11
4581.669400008084267
 21
183.7163682694040006
 31
0.0
  0
LINE
  5
EAAF
  8
0
 10
4581.669400008084267
 20
183.7163682694040006
 30
0.0
 11
4581.658009464481438
 21
183.7216538408424924
 31
0.0
  0
LINE
  5
EAB0
  8
0
 10
4581.658009464481438
 20
183.7216538408424924
 30
0.0
 11
4581.669444723939705
 21
183.7266426872756995
 31
0.0
  0
LINE
  5
EAB1
  8
0
 10
4581.669444723939705
 20
183.7266426872756995
 30
0.0
 11
4581.6925383417901685
 21
183.726620042581601
 31
0.0
  0
LINE
  5
EAB2
  8
0
 10
4581.6925383417901685
 20
183.726620042581601
 30
0.0
 11
4581.7041956757811931
 21
183.7213731504610053
 31
0.0
  0
LINE
  5
EAB3
  8
0
 10
4581.669400008084267
 20
183.7163682694040006
 30
0.0
 11
4581.669444723939705
 21
183.7266426872756995
 31
0.0
  0
LINE
  5
EAB4
  8
0
 10
4581.6924932870715566
 20
183.7162677638816888
 30
0.0
 11
4581.6925034381429214
 21
183.7266200768067108
 31
0.0
  0
LINE
  5
EAB5
  8
0
 10
4581.704265244614362
 20
183.7328203531806139
 30
0.0
 11
4581.6925628559047254
 21
183.7277149666012974
 31
0.0
  0
LINE
  5
EAB6
  8
0
 10
4581.6925628559047254
 20
183.7277149666012974
 30
0.0
 11
4581.6694695769174359
 21
183.7278154721236092
 31
0.0
  0
LINE
  5
EAB7
  8
0
 10
4581.6694695769174359
 20
183.7278154721236092
 30
0.0
 11
4581.6580790333146069
 21
183.733101043562101
 31
0.0
  0
LINE
  5
EAB8
  8
0
 10
4581.6580790333146069
 20
183.733101043562101
 30
0.0
 11
4581.6695142927737834
 21
183.7380898899953081
 31
0.0
  0
LINE
  5
EAB9
  8
0
 10
4581.6695142927737834
 20
183.7380898899953081
 30
0.0
 11
4581.6926079106242469
 21
183.7380672453012096
 31
0.0
  0
LINE
  5
EABA
  8
0
 10
4581.6926079106242469
 20
183.7380672453012096
 30
0.0
 11
4581.704265244614362
 21
183.7328203531806139
 31
0.0
  0
LINE
  5
EABB
  8
0
 10
4581.6694695769174359
 20
183.7278154721236092
 30
0.0
 11
4581.6695142927737834
 21
183.7380898899953081
 31
0.0
  0
LINE
  5
EABC
  8
0
 10
4581.6925628559047254
 20
183.7277149666012974
 30
0.0
 11
4581.6925730069769997
 21
183.738067279526291
 31
0.0
  0
LINE
  5
EABD
  8
0
 10
4581.7043344530029572
 20
183.744208246332505
 30
0.0
 11
4581.6926320642933206
 21
183.7391028597531033
 31
0.0
  0
LINE
  5
EABE
  8
0
 10
4581.6926320642933206
 20
183.7391028597531033
 30
0.0
 11
4581.6695387853051216
 21
183.7392033652753867
 31
0.0
  0
LINE
  5
EABF
  8
0
 10
4581.6695387853051216
 20
183.7392033652753867
 30
0.0
 11
4581.6581482417032021
 21
183.7444889367139069
 31
0.0
  0
LINE
  5
EAC0
  8
0
 10
4581.6581482417032021
 20
183.7444889367139069
 30
0.0
 11
4581.6695835011605595
 21
183.749477783147114
 31
0.0
  0
LINE
  5
EAC1
  8
0
 10
4581.6695835011605595
 20
183.749477783147114
 30
0.0
 11
4581.692677119011023
 21
183.7494551384529871
 31
0.0
  0
LINE
  5
EAC2
  8
0
 10
4581.692677119011023
 20
183.7494551384529871
 30
0.0
 11
4581.7043344530029572
 21
183.744208246332505
 31
0.0
  0
LINE
  5
EAC3
  8
0
 10
4581.6695387853051216
 20
183.7392033652753867
 30
0.0
 11
4581.6695835011605595
 21
183.749477783147114
 31
0.0
  0
LINE
  5
EAC4
  8
0
 10
4581.6926320642933206
 20
183.7391028597531033
 30
0.0
 11
4581.6926422153637759
 21
183.7494551726780969
 31
0.0
  0
LINE
  5
EAC5
  8
0
 10
4581.7044036613897333
 20
183.7555961394845951
 30
0.0
 11
4581.6927012726810062
 21
183.7504907529051934
 31
0.0
  0
LINE
  5
EAC6
  8
0
 10
4581.6927012726810062
 20
183.7504907529051934
 30
0.0
 11
4581.6696079936937167
 21
183.7505912584275904
 31
0.0
  0
LINE
  5
EAC7
  8
0
 10
4581.6696079936937167
 20
183.7505912584275904
 30
0.0
 11
4581.6582174500899782
 21
183.755876829865997
 31
0.0
  0
LINE
  5
EAC8
  8
0
 10
4581.6582174500899782
 20
183.755876829865997
 30
0.0
 11
4581.6696527095491547
 21
183.7608656762992041
 31
0.0
  0
LINE
  5
EAC9
  8
0
 10
4581.6696527095491547
 20
183.7608656762992041
 30
0.0
 11
4581.6927463273996182
 21
183.7608430316051056
 31
0.0
  0
LINE
  5
EACA
  8
0
 10
4581.6927463273996182
 20
183.7608430316051056
 30
0.0
 11
4581.7044036613897333
 21
183.7555961394845951
 31
0.0
  0
LINE
  5
EACB
  8
0
 10
4581.6696079936937167
 20
183.7505912584275904
 30
0.0
 11
4581.6696527095491547
 21
183.7608656762992041
 31
0.0
  0
LINE
  5
EACC
  8
0
 10
4581.6927012726810062
 20
183.7504907529051934
 30
0.0
 11
4581.692711423752371
 21
183.7608430658303007
 31
0.0
  0
LINE
  5
EACD
  8
0
 10
4581.7044728695791491
 20
183.7669840325816892
 30
0.0
 11
4581.692770480868603
 21
183.7618786460022875
 31
0.0
  0
LINE
  5
EACE
  8
0
 10
4581.692770480868603
 20
183.7618786460022875
 30
0.0
 11
4581.669677201882223
 21
183.761979151524713
 31
0.0
  0
LINE
  5
EACF
  8
0
 10
4581.669677201882223
 20
183.761979151524713
 30
0.0
 11
4581.658286658279394
 21
183.7672647229630911
 31
0.0
  0
LINE
  5
EAD0
  8
0
 10
4581.658286658279394
 20
183.7672647229630911
 30
0.0
 11
4581.6697219177367515
 21
183.7722535693962982
 31
0.0
  0
LINE
  5
EAD1
  8
0
 10
4581.6697219177367515
 20
183.7722535693962982
 30
0.0
 11
4581.6928155355881245
 21
183.7722309247021997
 31
0.0
  0
LINE
  5
EAD2
  8
0
 10
4581.6928155355881245
 20
183.7722309247021997
 30
0.0
 11
4581.7044728695791491
 21
183.7669840325816892
 31
0.0
  0
LINE
  5
EAD3
  8
0
 10
4581.669677201882223
 20
183.761979151524713
 30
0.0
 11
4581.6697219177367515
 21
183.7722535693962982
 31
0.0
  0
LINE
  5
EAD4
  8
0
 10
4581.692770480868603
 20
183.7618786460022875
 30
0.0
 11
4581.6927806319408774
 21
183.7722309589273948
 31
0.0
  0
LINE
  5
EAD5
  8
0
 10
4581.7045420779177221
 20
183.7783719257326993
 30
0.0
 11
4581.6928396892099045
 21
183.7732665391532976
 31
0.0
  0
LINE
  5
EAD6
  8
0
 10
4581.6928396892099045
 20
183.7732665391532976
 30
0.0
 11
4581.6697464102217054
 21
183.7733670446756093
 31
0.0
  0
LINE
  5
EAD7
  8
0
 10
4581.6697464102217054
 20
183.7733670446756093
 30
0.0
 11
4581.658355866617967
 21
183.7786526161141012
 31
0.0
  0
LINE
  5
EAD8
  8
0
 10
4581.658355866617967
 20
183.7786526161141012
 30
0.0
 11
4581.6697911260771434
 21
183.7836414625473083
 31
0.0
  0
LINE
  5
EAD9
  8
0
 10
4581.6697911260771434
 20
183.7836414625473083
 30
0.0
 11
4581.6928847439276069
 21
183.7836188178532097
 31
0.0
  0
LINE
  5
EADA
  8
0
 10
4581.6928847439276069
 20
183.7836188178532097
 30
0.0
 11
4581.7045420779177221
 21
183.7783719257326993
 31
0.0
  0
LINE
  5
EADB
  8
0
 10
4581.6697464102217054
 20
183.7733670446756093
 30
0.0
 11
4581.6697911260771434
 21
183.7836414625473083
 31
0.0
  0
LINE
  5
EADC
  8
0
 10
4581.6928396892099045
 20
183.7732665391532976
 30
0.0
 11
4581.6928498402803598
 21
183.7836188520782912
 31
0.0
  0
LINE
  5
EADD
  8
0
 10
4581.7046112865509713
 20
183.7897598188399968
 30
0.0
 11
4581.6929088978422442
 21
183.7846544322605951
 31
0.0
  0
LINE
  5
EADE
  8
0
 10
4581.6929088978422442
 20
183.7846544322605951
 30
0.0
 11
4581.6698156188540452
 21
183.7847549377829921
 31
0.0
  0
LINE
  5
EADF
  8
0
 10
4581.6698156188540452
 20
183.7847549377829921
 30
0.0
 11
4581.6584250752512162
 21
183.7900405092213987
 31
0.0
  0
LINE
  5
EAE0
  8
0
 10
4581.6584250752512162
 20
183.7900405092213987
 30
0.0
 11
4581.6698603347103926
 21
183.7950293556546058
 31
0.0
  0
LINE
  5
EAE1
  8
0
 10
4581.6698603347103926
 20
183.7950293556546058
 30
0.0
 11
4581.6929539525599466
 21
183.7950067109605925
 31
0.0
  0
LINE
  5
EAE2
  8
0
 10
4581.6929539525599466
 20
183.7950067109605925
 30
0.0
 11
4581.7046112865509713
 21
183.7897598188399968
 31
0.0
  0
LINE
  5
EAE3
  8
0
 10
4581.6698156188540452
 20
183.7847549377829921
 30
0.0
 11
4581.6698603347103926
 21
183.7950293556546058
 31
0.0
  0
LINE
  5
EAE4
  8
0
 10
4581.6929088978422442
 20
183.7846544322605951
 30
0.0
 11
4581.6929190489126995
 21
183.7950067451857024
 31
0.0
  0
LINE
  5
EAE5
  8
0
 10
4581.7046804949395664
 20
183.8011477119918879
 30
0.0
 11
4581.6929781062308393
 21
183.7960423254124862
 31
0.0
  0
LINE
  5
EAE6
  8
0
 10
4581.6929781062308393
 20
183.7960423254124862
 30
0.0
 11
4581.6698848272435498
 21
183.796142830934798
 31
0.0
  0
LINE
  5
EAE7
  8
0
 10
4581.6698848272435498
 20
183.796142830934798
 30
0.0
 11
4581.6584942836398113
 21
183.8014284023732898
 31
0.0
  0
LINE
  5
EAE8
  8
0
 10
4581.6584942836398113
 20
183.8014284023732898
 30
0.0
 11
4581.6699295430998973
 21
183.8064172488064969
 31
0.0
  0
LINE
  5
EAE9
  8
0
 10
4581.6699295430998973
 20
183.8064172488064969
 30
0.0
 11
4581.6930231609503608
 21
183.8063946041123984
 31
0.0
  0
LINE
  5
EAEA
  8
0
 10
4581.6930231609503608
 20
183.8063946041123984
 30
0.0
 11
4581.7046804949395664
 21
183.8011477119918879
 31
0.0
  0
LINE
  5
EAEB
  8
0
 10
4581.6698848272435498
 20
183.796142830934798
 30
0.0
 11
4581.6699295430998973
 21
183.8064172488064969
 31
0.0
  0
LINE
  5
EAEC
  8
0
 10
4581.6929781062308393
 20
183.7960423254124862
 30
0.0
 11
4581.6929882573031136
 21
183.8063946383375082
 31
0.0
  0
LINE
  5
EAED
  8
0
 10
4581.7047497033263426
 20
183.8125356051436086
 30
0.0
 11
4581.6930473146157965
 21
183.8074302185642921
 31
0.0
  0
LINE
  5
EAEE
  8
0
 10
4581.6930473146157965
 20
183.8074302185642921
 30
0.0
 11
4581.6699540356275975
 21
183.8075307240866039
 31
0.0
  0
LINE
  5
EAEF
  8
0
 10
4581.6699540356275975
 20
183.8075307240866039
 30
0.0
 11
4581.658563492025678
 21
183.8128162955250104
 31
0.0
  0
LINE
  5
EAF0
  8
0
 10
4581.658563492025678
 20
183.8128162955250104
 30
0.0
 11
4581.6699987514848544
 21
183.8178051419581891
 31
0.0
  0
LINE
  5
EAF1
  8
0
 10
4581.6699987514848544
 20
183.8178051419581891
 30
0.0
 11
4581.6930923693353179
 21
183.8177824972642043
 31
0.0
  0
LINE
  5
EAF2
  8
0
 10
4581.6930923693353179
 20
183.8177824972642043
 30
0.0
 11
4581.7047497033263426
 21
183.8125356051436086
 31
0.0
  0
LINE
  5
EAF3
  8
0
 10
4581.6699540356275975
 20
183.8075307240866039
 30
0.0
 11
4581.6699987514848544
 21
183.8178051419581891
 31
0.0
  0
LINE
  5
EAF4
  8
0
 10
4581.6930473146157965
 20
183.8074302185642921
 30
0.0
 11
4581.6930574656871613
 21
183.8177825314893141
 31
0.0
  0
LINE
  5
EAF5
  8
0
 10
4581.6892114941783802
 20
183.8188351070056967
 30
0.0
 11
4581.6700232440189211
 21
183.818918617238495
 31
0.0
  0
LINE
  5
EAF6
  8
0
 10
4581.6700232440189211
 20
183.818918617238495
 30
0.0
 11
4581.6605024576947471
 21
183.8233365623360953
 31
0.0
  0
LINE
  5
EAF7
  8
0
 10
4581.6700232440189211
 20
183.818918617238495
 30
0.0
 11
4581.6700363596783063
 21
183.8219322186646991
 31
0.0
  0
LINE
  5
EAF8
  8
0
 10
4581.7421278805813927
 20
183.7272978351610107
 30
0.0
 11
4581.7304254918717561
 21
183.7221924485816942
 31
0.0
  0
LINE
  5
EAF9
  8
0
 10
4581.7304254918717561
 20
183.7221924485816942
 30
0.0
 11
4581.7073322128853761
 21
183.722292954104006
 31
0.0
  0
LINE
  5
EAFA
  8
0
 10
4581.7073322128853761
 20
183.722292954104006
 30
0.0
 11
4581.6959416692807281
 21
183.7275785255424125
 31
0.0
  0
LINE
  5
EAFB
  8
0
 10
4581.6959416692807281
 20
183.7275785255424125
 30
0.0
 11
4581.707376928738995
 21
183.7325673719757049
 31
0.0
  0
LINE
  5
EAFC
  8
0
 10
4581.707376928738995
 20
183.7325673719757049
 30
0.0
 11
4581.7304705465912775
 21
183.7325447272816064
 31
0.0
  0
LINE
  5
EAFD
  8
0
 10
4581.7304705465912775
 20
183.7325447272816064
 30
0.0
 11
4581.7421278805813927
 21
183.7272978351610107
 31
0.0
  0
LINE
  5
EAFE
  8
0
 10
4581.7073322128853761
 20
183.722292954104006
 30
0.0
 11
4581.707376928738995
 21
183.7325673719757049
 31
0.0
  0
LINE
  5
EAFF
  8
0
 10
4581.7304254918717561
 20
183.7221924485816942
 30
0.0
 11
4581.7304356429431209
 21
183.7325447615066878
 31
0.0
  0
LINE
  5
EB00
  8
0
 10
4581.7421974494136521
 20
183.7387450378805909
 30
0.0
 11
4581.7304950607058345
 21
183.7336396513011891
 31
0.0
  0
LINE
  5
EB01
  8
0
 10
4581.7304950607058345
 20
183.7336396513011891
 30
0.0
 11
4581.707401781716726
 21
183.7337401568235862
 31
0.0
  0
LINE
  5
EB02
  8
0
 10
4581.707401781716726
 20
183.7337401568235862
 30
0.0
 11
4581.696011238113897
 21
183.7390257282621064
 31
0.0
  0
LINE
  5
EB03
  8
0
 10
4581.696011238113897
 20
183.7390257282621064
 30
0.0
 11
4581.7074464975730734
 21
183.7440145746951998
 31
0.0
  0
LINE
  5
EB04
  8
0
 10
4581.7074464975730734
 20
183.7440145746951998
 30
0.0
 11
4581.7305401154226274
 21
183.7439919300011866
 31
0.0
  0
LINE
  5
EB05
  8
0
 10
4581.7305401154226274
 20
183.7439919300011866
 30
0.0
 11
4581.7421974494136521
 21
183.7387450378805909
 31
0.0
  0
LINE
  5
EB06
  8
0
 10
4581.707401781716726
 20
183.7337401568235862
 30
0.0
 11
4581.7074464975730734
 21
183.7440145746951998
 31
0.0
  0
LINE
  5
EB07
  8
0
 10
4581.7304950607058345
 20
183.7336396513011891
 30
0.0
 11
4581.7305052117771993
 21
183.7439919642262964
 31
0.0
  0
LINE
  5
EB08
  8
0
 10
4581.7422666578022472
 20
183.7501329310325104
 30
0.0
 11
4581.7305642690926106
 21
183.7450275444531087
 31
0.0
  0
LINE
  5
EB09
  8
0
 10
4581.7305642690926106
 20
183.7450275444531087
 30
0.0
 11
4581.7074709901062306
 21
183.7451280499753921
 31
0.0
  0
LINE
  5
EB0A
  8
0
 10
4581.7074709901062306
 20
183.7451280499753921
 30
0.0
 11
4581.6960804465034016
 21
183.7504136214139123
 31
0.0
  0
LINE
  5
EB0B
  8
0
 10
4581.6960804465034016
 20
183.7504136214139123
 30
0.0
 11
4581.7075157059616686
 21
183.755402467847091
 31
0.0
  0
LINE
  5
EB0C
  8
0
 10
4581.7075157059616686
 20
183.755402467847091
 30
0.0
 11
4581.7306093238121321
 21
183.7553798231529925
 31
0.0
  0
LINE
  5
EB0D
  8
0
 10
4581.7306093238121321
 20
183.7553798231529925
 30
0.0
 11
4581.7422666578022472
 21
183.7501329310325104
 31
0.0
  0
LINE
  5
EB0E
  8
0
 10
4581.7074709901062306
 20
183.7451280499753921
 30
0.0
 11
4581.7075157059616686
 21
183.755402467847091
 31
0.0
  0
LINE
  5
EB0F
  8
0
 10
4581.7305642690926106
 20
183.7450275444531087
 30
0.0
 11
4581.7305744201648849
 21
183.7553798573781023
 31
0.0
  0
LINE
  5
EB10
  8
0
 10
4581.7423358661899329
 20
183.7615208241846005
 30
0.0
 11
4581.7306334774812058
 21
183.7564154376051988
 31
0.0
  0
LINE
  5
EB11
  8
0
 10
4581.7306334774812058
 20
183.7564154376051988
 30
0.0
 11
4581.7075401984920973
 21
183.7565159431275106
 31
0.0
  0
LINE
  5
EB12
  8
0
 10
4581.7075401984920973
 20
183.7565159431275106
 30
0.0
 11
4581.6961496548910873
 21
183.7618015145660024
 31
0.0
  0
LINE
  5
EB13
  8
0
 10
4581.6961496548910873
 20
183.7618015145660024
 30
0.0
 11
4581.7075849143493542
 21
183.7667903609992095
 31
0.0
  0
LINE
  5
EB14
  8
0
 10
4581.7075849143493542
 20
183.7667903609992095
 30
0.0
 11
4581.7306785321989082
 21
183.766767716305111
 31
0.0
  0
LINE
  5
EB15
  8
0
 10
4581.7306785321989082
 20
183.766767716305111
 30
0.0
 11
4581.7423358661899329
 21
183.7615208241846005
 31
0.0
  0
LINE
  5
EB16
  8
0
 10
4581.7075401984920973
 20
183.7565159431275106
 30
0.0
 11
4581.7075849143493542
 21
183.7667903609992095
 31
0.0
  0
LINE
  5
EB17
  8
0
 10
4581.7306334774812058
 20
183.7564154376051988
 30
0.0
 11
4581.7306436285516611
 21
183.7667677505303061
 31
0.0
  0
LINE
  5
EB18
  8
0
 10
4581.7424050743793487
 20
183.7729087172816946
 30
0.0
 11
4581.7307026856688026
 21
183.7678033307022929
 31
0.0
  0
LINE
  5
EB19
  8
0
 10
4581.7307026856688026
 20
183.7678033307022929
 30
0.0
 11
4581.7076094066833321
 21
183.7679038362246899
 31
0.0
  0
LINE
  5
EB1A
  8
0
 10
4581.7076094066833321
 20
183.7679038362246899
 30
0.0
 11
4581.6962188630786841
 21
183.7731894076630965
 31
0.0
  0
LINE
  5
EB1B
  8
0
 10
4581.6962188630786841
 20
183.7731894076630965
 30
0.0
 11
4581.7076541225378605
 21
183.7781782540963036
 31
0.0
  0
LINE
  5
EB1C
  8
0
 10
4581.7076541225378605
 20
183.7781782540963036
 30
0.0
 11
4581.7307477403892335
 21
183.7781556094022051
 31
0.0
  0
LINE
  5
EB1D
  8
0
 10
4581.7307477403892335
 20
183.7781556094022051
 30
0.0
 11
4581.7424050743793487
 21
183.7729087172816946
 31
0.0
  0
LINE
  5
EB1E
  8
0
 10
4581.7076094066833321
 20
183.7679038362246899
 30
0.0
 11
4581.7076541225378605
 21
183.7781782540963036
 31
0.0
  0
LINE
  5
EB1F
  8
0
 10
4581.7307026856688026
 20
183.7678033307022929
 30
0.0
 11
4581.7307128367410769
 21
183.7781556436274002
 31
0.0
  0
LINE
  5
EB20
  8
0
 10
4581.7424742827188311
 20
183.784296610432591
 30
0.0
 11
4581.7307718940091945
 21
183.779191223853303
 31
0.0
  0
LINE
  5
EB21
  8
0
 10
4581.7307718940091945
 20
183.779191223853303
 30
0.0
 11
4581.7076786150209955
 21
183.7792917293755863
 31
0.0
  0
LINE
  5
EB22
  8
0
 10
4581.7076786150209955
 20
183.7792917293755863
 30
0.0
 11
4581.696288071419076
 21
183.7845773008139929
 31
0.0
  0
LINE
  5
EB23
  8
0
 10
4581.696288071419076
 20
183.7845773008139929
 30
0.0
 11
4581.707723330877343
 21
183.7895661472473137
 31
0.0
  0
LINE
  5
EB24
  8
0
 10
4581.707723330877343
 20
183.7895661472473137
 30
0.0
 11
4581.730816948726897
 21
183.7895435025531867
 31
0.0
  0
LINE
  5
EB25
  8
0
 10
4581.730816948726897
 20
183.7895435025531867
 30
0.0
 11
4581.7424742827188311
 21
183.784296610432591
 31
0.0
  0
LINE
  5
EB26
  8
0
 10
4581.7076786150209955
 20
183.7792917293755863
 30
0.0
 11
4581.707723330877343
 21
183.7895661472473137
 31
0.0
  0
LINE
  5
EB27
  8
0
 10
4581.7307718940091945
 20
183.779191223853303
 30
0.0
 11
4581.7307820450796498
 21
183.7895435367782966
 31
0.0
  0
LINE
  5
EB28
  8
0
 10
4581.7425434913502613
 20
183.7956845035400022
 30
0.0
 11
4581.7308411026424437
 21
183.7905791169606005
 31
0.0
  0
LINE
  5
EB29
  8
0
 10
4581.7308411026424437
 20
183.7905791169606005
 30
0.0
 11
4581.7077478236542447
 21
183.7906796224829975
 31
0.0
  0
LINE
  5
EB2A
  8
0
 10
4581.7077478236542447
 20
183.7906796224829975
 30
0.0
 11
4581.6963572800514157
 21
183.7959651939214893
 31
0.0
  0
LINE
  5
EB2B
  8
0
 10
4581.6963572800514157
 20
183.7959651939214893
 30
0.0
 11
4581.7077925395096827
 21
183.8009540403546112
 31
0.0
  0
LINE
  5
EB2C
  8
0
 10
4581.7077925395096827
 20
183.8009540403546112
 30
0.0
 11
4581.7308861573601462
 21
183.8009313956605979
 31
0.0
  0
LINE
  5
EB2D
  8
0
 10
4581.7308861573601462
 20
183.8009313956605979
 30
0.0
 11
4581.7425434913502613
 21
183.7956845035400022
 31
0.0
  0
LINE
  5
EB2E
  8
0
 10
4581.7077478236542447
 20
183.7906796224829975
 30
0.0
 11
4581.7077925395096827
 21
183.8009540403546112
 31
0.0
  0
LINE
  5
EB2F
  8
0
 10
4581.7308411026424437
 20
183.7905791169606005
 30
0.0
 11
4581.7308512537128991
 21
183.8009314298857078
 31
0.0
  0
LINE
  5
EB30
  8
0
 10
4581.742612699739766
 20
183.8070723966918081
 30
0.0
 11
4581.7309103110319484
 21
183.8019670101124916
 31
0.0
  0
LINE
  5
EB31
  8
0
 10
4581.7309103110319484
 20
183.8019670101124916
 30
0.0
 11
4581.7078170320428399
 21
183.8020675156348034
 31
0.0
  0
LINE
  5
EB32
  8
0
 10
4581.7078170320428399
 20
183.8020675156348034
 30
0.0
 11
4581.6964264884400109
 21
183.8073530870732952
 31
0.0
  0
LINE
  5
EB33
  8
0
 10
4581.6964264884400109
 20
183.8073530870732952
 30
0.0
 11
4581.7078617478991873
 21
183.8123419335065023
 31
0.0
  0
LINE
  5
EB34
  8
0
 10
4581.7078617478991873
 20
183.8123419335065023
 30
0.0
 11
4581.7220725242596018
 21
183.8123279989777075
 31
0.0
  0
LINE
  5
EB35
  8
0
 10
4581.7418827669325765
 20
183.8074009348208051
 30
0.0
 11
4581.742612699739766
 21
183.8070723966918081
 31
0.0
  0
LINE
  5
EB36
  8
0
 10
4581.7078170320428399
 20
183.8020675156348034
 30
0.0
 11
4581.7078617478991873
 21
183.8123419335065023
 31
0.0
  0
LINE
  5
EB37
  8
0
 10
4581.7309103110319484
 20
183.8019670101124916
 30
0.0
 11
4581.7309184066825765
 21
183.8102231551692114
 31
0.0
  0
LINE
  5
EB38
  8
0
 10
4581.7172352618035802
 20
183.8134147203994075
 30
0.0
 11
4581.7078862404287065
 21
183.8134554087866093
 31
0.0
  0
LINE
  5
EB39
  8
0
 10
4581.7078862404287065
 20
183.8134554087866093
 30
0.0
 11
4581.7006986805236011
 21
183.8167906632457971
 31
0.0
  0
LINE
  5
EB3A
  8
0
 10
4581.7078862404287065
 20
183.8134554087866093
 30
0.0
 11
4581.7078946415413157
 21
183.8153857428658
 31
0.0
  0
LINE
  5
EB3B
  8
0
 10
4581.7797172466807751
 20
183.744608749961003
 30
0.0
 11
4581.768014857972048
 21
183.7395033633816865
 31
0.0
  0
LINE
  5
EB3C
  8
0
 10
4581.768014857972048
 20
183.7395033633816865
 30
0.0
 11
4581.7449215789847585
 21
183.7396038689039983
 31
0.0
  0
LINE
  5
EB3D
  8
0
 10
4581.7449215789847585
 20
183.7396038689039983
 30
0.0
 11
4581.73353103538102
 21
183.7448894403424902
 31
0.0
  0
LINE
  5
EB3E
  8
0
 10
4581.73353103538102
 20
183.7448894403424902
 30
0.0
 11
4581.744966294841106
 21
183.7498782867756972
 31
0.0
  0
LINE
  5
EB3F
  8
0
 10
4581.744966294841106
 20
183.7498782867756972
 30
0.0
 11
4581.76805991269066
 21
183.7498556420815987
 31
0.0
  0
LINE
  5
EB40
  8
0
 10
4581.76805991269066
 20
183.7498556420815987
 30
0.0
 11
4581.7797172466807751
 21
183.744608749961003
 31
0.0
  0
LINE
  5
EB41
  8
0
 10
4581.7449215789847585
 20
183.7396038689039983
 30
0.0
 11
4581.744966294841106
 21
183.7498782867756972
 31
0.0
  0
LINE
  5
EB42
  8
0
 10
4581.768014857972048
 20
183.7395033633816865
 30
0.0
 11
4581.7680250090434129
 21
183.7498556763067086
 31
0.0
  0
LINE
  5
EB43
  8
0
 10
4581.7797868155148535
 20
183.7560559526806117
 30
0.0
 11
4581.7680844268052169
 21
183.7509505661012099
 31
0.0
  0
LINE
  5
EB44
  8
0
 10
4581.7680844268052169
 20
183.7509505661012099
 30
0.0
 11
4581.7449911478170179
 21
183.751051071623607
 31
0.0
  0
LINE
  5
EB45
  8
0
 10
4581.7449911478170179
 20
183.751051071623607
 30
0.0
 11
4581.7336006042150984
 21
183.7563366430620988
 31
0.0
  0
LINE
  5
EB46
  8
0
 10
4581.7336006042150984
 20
183.7563366430620988
 30
0.0
 11
4581.7450358636733654
 21
183.7613254894953059
 31
0.0
  0
LINE
  5
EB47
  8
0
 10
4581.7450358636733654
 20
183.7613254894953059
 30
0.0
 11
4581.7681294815229194
 21
183.7613028448012074
 31
0.0
  0
LINE
  5
EB48
  8
0
 10
4581.7681294815229194
 20
183.7613028448012074
 30
0.0
 11
4581.7797868155148535
 21
183.7560559526806117
 31
0.0
  0
LINE
  5
EB49
  8
0
 10
4581.7449911478170179
 20
183.751051071623607
 30
0.0
 11
4581.7450358636733654
 21
183.7613254894953059
 31
0.0
  0
LINE
  5
EB4A
  8
0
 10
4581.7680844268052169
 20
183.7509505661012099
 30
0.0
 11
4581.7680945778765818
 21
183.7613028790262888
 31
0.0
  0
LINE
  5
EB4B
  8
0
 10
4581.7798560239016297
 20
183.7674438458325028
 30
0.0
 11
4581.7681536351938121
 21
183.7623384592531011
 31
0.0
  0
LINE
  5
EB4C
  8
0
 10
4581.7681536351938121
 20
183.7623384592531011
 30
0.0
 11
4581.7450603562047036
 21
183.7624389647754128
 31
0.0
  0
LINE
  5
EB4D
  8
0
 10
4581.7450603562047036
 20
183.7624389647754128
 30
0.0
 11
4581.7336698126018746
 21
183.7677245362139047
 31
0.0
  0
LINE
  5
EB4E
  8
0
 10
4581.7336698126018746
 20
183.7677245362139047
 30
0.0
 11
4581.745105072061051
 21
183.7727133826471118
 31
0.0
  0
LINE
  5
EB4F
  8
0
 10
4581.745105072061051
 20
183.7727133826471118
 30
0.0
 11
4581.768198689910605
 21
183.7726907379530132
 31
0.0
  0
LINE
  5
EB50
  8
0
 10
4581.768198689910605
 20
183.7726907379530132
 30
0.0
 11
4581.7798560239016297
 21
183.7674438458325028
 31
0.0
  0
LINE
  5
EB51
  8
0
 10
4581.7450603562047036
 20
183.7624389647754128
 30
0.0
 11
4581.745105072061051
 21
183.7727133826471118
 31
0.0
  0
LINE
  5
EB52
  8
0
 10
4581.7681536351938121
 20
183.7623384592531011
 30
0.0
 11
4581.7681637862651769
 21
183.7726907721782084
 31
0.0
  0
LINE
  5
EB53
  8
0
 10
4581.7799252322902248
 20
183.7788317389845929
 30
0.0
 11
4581.7682228435805882
 21
183.7737263524051912
 31
0.0
  0
LINE
  5
EB54
  8
0
 10
4581.7682228435805882
 20
183.7737263524051912
 30
0.0
 11
4581.7451295645932987
 21
183.7738268579275882
 31
0.0
  0
LINE
  5
EB55
  8
0
 10
4581.7451295645932987
 20
183.7738268579275882
 30
0.0
 11
4581.7337390209895602
 21
183.7791124293659948
 31
0.0
  0
LINE
  5
EB56
  8
0
 10
4581.7337390209895602
 20
183.7791124293659948
 30
0.0
 11
4581.7451742804496462
 21
183.7841012757992019
 31
0.0
  0
LINE
  5
EB57
  8
0
 10
4581.7451742804496462
 20
183.7841012757992019
 30
0.0
 11
4581.7682678982992002
 21
183.7840786311051033
 31
0.0
  0
LINE
  5
EB58
  8
0
 10
4581.7682678982992002
 20
183.7840786311051033
 30
0.0
 11
4581.7799252322902248
 21
183.7788317389845929
 31
0.0
  0
LINE
  5
EB59
  8
0
 10
4581.7451295645932987
 20
183.7738268579275882
 30
0.0
 11
4581.7451742804496462
 21
183.7841012757992019
 31
0.0
  0
LINE
  5
EB5A
  8
0
 10
4581.7682228435805882
 20
183.7737263524051912
 30
0.0
 11
4581.7682329946528625
 21
183.7840786653302985
 31
0.0
  0
LINE
  5
EB5B
  8
0
 10
4581.7795231244008392
 20
183.7900140116020964
 30
0.0
 11
4581.768292051770004
 21
183.7851142455023137
 31
0.0
  0
LINE
  5
EB5C
  8
0
 10
4581.768292051770004
 20
183.7851142455023137
 30
0.0
 11
4581.7451987727808955
 21
183.7852147510247107
 31
0.0
  0
LINE
  5
EB5D
  8
0
 10
4581.7451987727808955
 20
183.7852147510247107
 30
0.0
 11
4581.7338082291798855
 21
183.7905003224630889
 31
0.0
  0
LINE
  5
EB5E
  8
0
 10
4581.7338082291798855
 20
183.7905003224630889
 30
0.0
 11
4581.7452434886381525
 21
183.795489168896296
 31
0.0
  0
LINE
  5
EB5F
  8
0
 10
4581.7452434886381525
 20
183.795489168896296
 30
0.0
 11
4581.7683371064877065
 21
183.7954665242021974
 31
0.0
  0
LINE
  5
EB60
  8
0
 10
4581.7683371064877065
 20
183.7954665242021974
 30
0.0
 11
4581.7782958114266876
 21
183.7909841742483934
 31
0.0
  0
LINE
  5
EB61
  8
0
 10
4581.7451987727808955
 20
183.7852147510247107
 30
0.0
 11
4581.7452434886381525
 21
183.795489168896296
 31
0.0
  0
LINE
  5
EB62
  8
0
 10
4581.768292051770004
 20
183.7851142455023137
 30
0.0
 11
4581.7683022028413689
 21
183.7954665584273926
 31
0.0
  0
LINE
  5
EB63
  8
0
 10
4581.7692833555765901
 20
183.7969044200974054
 30
0.0
 11
4581.768361260108577
 21
183.7965021386532953
 31
0.0
  0
LINE
  5
EB64
  8
0
 10
4581.768361260108577
 20
183.7965021386532953
 30
0.0
 11
4581.7452679811212874
 21
183.7966026441756071
 31
0.0
  0
LINE
  5
EB65
  8
0
 10
4581.7452679811212874
 20
183.7966026441756071
 30
0.0
 11
4581.733877437519368
 21
183.801888215614099
 31
0.0
  0
LINE
  5
EB66
  8
0
 10
4581.733877437519368
 20
183.801888215614099
 30
0.0
 11
4581.7447386989861116
 21
183.8066266446570864
 31
0.0
  0
LINE
  5
EB67
  8
0
 10
4581.7452679811212874
 20
183.7966026441756071
 30
0.0
 11
4581.7453109233965733
 21
183.8064695443129892
 31
0.0
  0
LINE
  5
EB68
  8
0
 10
4581.768361260108577
 20
183.7965021386532953
 30
0.0
 11
4581.7683621907390261
 21
183.797451216722294
 31
0.0
  0
LINE
  5
EB69
  8
0
 10
4581.7730348441473325
 20
183.7382778578025864
 30
0.0
 11
4581.7716653604011299
 21
183.7389133414482103
 31
0.0
  0
LINE
  5
EB6A
  8
0
 10
4581.7716653604011299
 20
183.7389133414482103
 30
0.0
 11
4581.7776761232580611
 21
183.7415356494902881
 31
0.0
  0
LINE
  5
EB6B
  8
0
 10
4581.7823284086771309
 20
183.7454448356349985
 30
0.0
 11
4581.7717349292342988
 21
183.7503605441677905
 31
0.0
  0
LINE
  5
EB6C
  8
0
 10
4581.7717349292342988
 20
183.7503605441677905
 30
0.0
 11
4581.7831701886916562
 21
183.7553493906009976
 31
0.0
  0
LINE
  5
EB6D
  8
0
 10
4581.7831701886916562
 20
183.7553493906009976
 30
0.0
 11
4581.7908802419351559
 21
183.7553418304258059
 31
0.0
  0
LINE
  5
EB6E
  8
0
 10
4581.7831303459397532
 20
183.7461946718752017
 30
0.0
 11
4581.7831701886916562
 21
183.7553493906009976
 31
0.0
  0
LINE
  5
EB6F
  8
0
 10
4581.7914599253317647
 20
183.7564268942603007
 30
0.0
 11
4581.7831946812239039
 21
183.7564628658811898
 31
0.0
  0
LINE
  5
EB70
  8
0
 10
4581.7831946812239039
 20
183.7564628658811898
 30
0.0
 11
4581.7718041376219844
 21
183.7617484373195964
 31
0.0
  0
LINE
  5
EB71
  8
0
 10
4581.7718041376219844
 20
183.7617484373195964
 30
0.0
 11
4581.7832393970802514
 21
183.7667372837528035
 31
0.0
  0
LINE
  5
EB72
  8
0
 10
4581.7832393970802514
 20
183.7667372837528035
 30
0.0
 11
4581.7938722521803356
 21
183.7667268575929995
 31
0.0
  0
LINE
  5
EB73
  8
0
 10
4581.7831946812239039
 20
183.7564628658811898
 30
0.0
 11
4581.7832393970802514
 21
183.7667372837528035
 31
0.0
  0
LINE
  5
EB74
  8
0
 10
4581.79383627223433
 20
183.7678047463888049
 30
0.0
 11
4581.7832638896115895
 21
183.7678507590333083
 31
0.0
  0
LINE
  5
EB75
  8
0
 10
4581.7832638896115895
 20
183.7678507590333083
 30
0.0
 11
4581.7718733460087606
 21
183.7731363304716865
 31
0.0
  0
LINE
  5
EB76
  8
0
 10
4581.7718733460087606
 20
183.7731363304716865
 30
0.0
 11
4581.783308605467937
 21
183.7781251769048936
 31
0.0
  0
LINE
  5
EB77
  8
0
 10
4581.783308605467937
 20
183.7781251769048936
 30
0.0
 11
4581.7903690615894448
 21
183.7781182536992048
 31
0.0
  0
LINE
  5
EB78
  8
0
 10
4581.7832638896115895
 20
183.7678507590333083
 30
0.0
 11
4581.783308605467937
 21
183.7781251769048936
 31
0.0
  0
LINE
  5
EB79
  8
0
 10
4581.7896161951821341
 20
183.7792113071186861
 30
0.0
 11
4581.7833330978010054
 21
183.7792386521304024
 31
0.0
  0
LINE
  5
EB7A
  8
0
 10
4581.7833330978010054
 20
183.7792386521304024
 30
0.0
 11
4581.7719425541981764
 21
183.7845242235688943
 31
0.0
  0
LINE
  5
EB7B
  8
0
 10
4581.7719425541981764
 20
183.7845242235688943
 30
0.0
 11
4581.7812217729624535
 21
183.7885724568077137
 31
0.0
  0
LINE
  5
EB7C
  8
0
 10
4581.7833330978010054
 20
183.7792386521304024
 30
0.0
 11
4581.7833650117727302
 21
183.7865715652507106
 31
0.0
  0
LINE
  5
EB7D
  8
0
 10
4581.5462604445028774
 20
183.833270824159996
 30
0.0
 11
4581.5367951861016991
 21
183.8291414276401099
 31
0.0
  0
LINE
  5
EB7E
  8
0
 10
4581.5367951861016991
 20
183.8291414276401099
 30
0.0
 11
4581.513701907115319
 21
183.8292419331623933
 31
0.0
  0
LINE
  5
EB7F
  8
0
 10
4581.513701907115319
 20
183.8292419331623933
 30
0.0
 11
4581.5032615320460536
 21
183.8340865964372028
 31
0.0
  0
LINE
  5
EB80
  8
0
 10
4581.5367951861016991
 20
183.8291414276401099
 30
0.0
 11
4581.5368146983410043
 21
183.8336247788724052
 31
0.0
  0
LINE
  5
EB81
  8
0
 10
4581.513701907115319
 20
183.8292419331623933
 30
0.0
 11
4581.5137240659196323
 21
183.8343333894306113
 31
0.0
  0
LINE
  5
EB82
  8
0
 10
4584.4701913986345971
 20
180.4281512392049933
 30
0.0
 11
4584.9950348728161771
 21
180.4281512392049933
 31
0.0
  0
ARC
  5
EB84
  8
0
 10
4581.5317425603316224
 20
187.3086561615691039
 30
0.0
 40
0.8318133741976126
 50
91.2950562894907733
 51
116.093363732320995
  0
ARC
  5
EB85
  8
0
 10
4581.3647908405091584
 20
187.6827810806395007
 30
0.0
 40
0.4226414409863467
 50
118.075398956345694
 51
162.4969252560431983
  0
ARC
  5
EB86
  8
0
 10
4581.5244965059619062
 20
187.3329178917406921
 30
0.0
 40
0.8025891141421015
 50
90.8248404309794353
 51
115.659361780657207
  0
ARC
  5
EB87
  8
0
 10
4581.3912329975801185
 20
187.6413387180737971
 30
0.0
 40
0.4670707941324817
 50
117.3071389204473007
 51
146.5575053394784106
  0
ARC
  5
EB88
  8
0
 10
4581.53408987711191
 20
187.2480439963159995
 30
0.0
 40
0.8487285168925905
 50
91.4277476753001679
 51
119.6512481655790054
  0
ARC
  5
EB89
  8
0
 10
4581.2796068279640167
 20
187.7128653034513093
 30
0.0
 40
0.3189978893602661
 50
121.2314775969023941
 51
175.2222763527227016
  0
ARC
  5
EB8A
  8
0
 10
4581.4941428129568521
 20
187.3086561615691039
 30
0.0
 40
0.8318133741976126
 50
63.906636267678941
 51
88.7049437105092267
  0
ARC
  5
EB8B
  8
0
 10
4581.6610945327793161
 20
187.6827810806395007
 30
0.0
 40
0.4226414409863467
 50
17.5030747439568408
 51
61.9246010436543415
  0
ARC
  5
EB8C
  8
0
 10
4581.5013888673256588
 20
187.3329178917406921
 30
0.0
 40
0.8025891141421015
 50
64.3406382193427646
 51
89.1751595690205932
  0
ARC
  5
EB8D
  8
0
 10
4581.634652375708356
 20
187.6413387180737971
 30
0.0
 40
0.4670707941324817
 50
33.4424946605215965
 51
62.6928610795527419
  0
ARC
  5
EB8E
  8
0
 10
4581.4917954961747455
 20
187.2480439963159995
 30
0.0
 40
0.8487285168925905
 50
60.3487518344210088
 51
88.5722523246998179
  0
ARC
  5
EB8F
  8
0
 10
4581.7462785453235483
 20
187.7128653034513093
 30
0.0
 40
0.3189978893602661
 50
4.7777236472772486
 51
58.7685224030976201
  0
ENDSEC
  0
EOF
