  0
SECTION
  2
HEADER
  9
$ACADVER
  1
AC1009
  9
$INSBASE
 10
1945.589747874618979
 20
193.4061351454531064
 30
0.0
  9
$EXTMIN
 10
1912.1255018886690777
 20
178.642335145453103
 30
0.0
  9
$EXTMAX
 10
1979.0539938611088928
 20
208.1699127099803945
 30
0.0
  9
$LIMMIN
 10
0.0
 20
0.0
  9
$LIMMAX
 10
11.6929133858000007
 20
8.2677165353999982
  9
$ORTHOMODE
 70
     0
  9
$REGENMODE
 70
     1
  9
$FILLMODE
 70
     1
  9
$QTEXTMODE
 70
     0
  9
$MIRRTEXT
 70
     0
  9
$DRAGMODE
 70
     2
  9
$LTSCALE
 40
0.6431102362
  9
$OSMODE
 70
  4095
  9
$ATTMODE
 70
     1
  9
$TEXTSIZE
 40
0.2
  9
$TRACEWID
 40
0.05
  9
$TEXTSTYLE
  7
STANDARD
  9
$CLAYER
  8
0
  9
$CELTYPE
  6
BYLAYER
  9
$CECOLOR
 62
   256
  9
$DIMSCALE
 40
1.0
  9
$DIMASZ
 40
0.1875
  9
$DIMEXO
 40
0.0625
  9
$DIMDLI
 40
0.4443307087
  9
$DIMRND
 40
0.0
  9
$DIMDLE
 40
0.0
  9
$DIMEXE
 40
0.125
  9
$DIMTP
 40
0.01
  9
$DIMTM
 40
0.01
  9
$DIMTXT
 40
2.0
  9
$DIMCEN
 40
0.1052362205
  9
$DIMTSZ
 40
0.0
  9
$DIMTOL
 70
     1
  9
$DIMLIM
 70
     0
  9
$DIMTIH
 70
     1
  9
$DIMTOH
 70
     1
  9
$DIMSE1
 70
     0
  9
$DIMSE2
 70
     0
  9
$DIMTAD
 70
     0
  9
$DIMZIN
 70
     0
  9
$DIMBLK
  1

  9
$DIMASO
 70
     1
  9
$DIMSHO
 70
     1
  9
$DIMPOST
  1
\X
  9
$DIMAPOST
  1

  9
$DIMALT
 70
     1
  9
$DIMALTD
 70
     2
  9
$DIMALTF
 40
25.3999999999999986
  9
$DIMLFAC
 40
1.0
  9
$DIMTOFL
 70
     0
  9
$DIMTVP
 40
0.0
  9
$DIMTIX
 70
     0
  9
$DIMSOXD
 70
     0
  9
$DIMSAH
 70
     0
  9
$DIMBLK1
  1

  9
$DIMBLK2
  1

  9
$DIMSTYLE
  2
STANDARD
  9
$DIMCLRD
 70
     0
  9
$DIMCLRE
 70
     0
  9
$DIMCLRT
 70
     0
  9
$DIMTFAC
 40
1.0
  9
$DIMGAP
 40
0.09
  9
$LUNITS
 70
     2
  9
$LUPREC
 70
     4
  9
$SKETCHINC
 40
0.1
  9
$FILLETRAD
 40
0.0
  9
$AUNITS
 70
     0
  9
$AUPREC
 70
     0
  9
$MENU
  1
.
  9
$ELEVATION
 40
0.0
  9
$PELEVATION
 40
0.0
  9
$THICKNESS
 40
0.0
  9
$LIMCHECK
 70
     0
  9
$BLIPMODE
 70
     0
  9
$CHAMFERA
 40
0.0
  9
$CHAMFERB
 40
0.0
  9
$SKPOLY
 70
     0
  9
$TDCREATE
 40
2458060.468368056230247
  9
$TDUPDATE
 40
2458695.2861574068665504
  9
$TDINDWG
 40
0.2706436343
  9
$TDUSRTIMER
 40
0.2706436343
  9
$USRTIMER
 70
     1
  9
$ANGBASE
 50
0.0
  9
$ANGDIR
 70
     0
  9
$PDMODE
 70
     0
  9
$PDSIZE
 40
0.3125
  9
$PLINEWID
 40
0.0
  9
$COORDS
 70
     1
  9
$SPLFRAME
 70
     0
  9
$SPLINETYPE
 70
     6
  9
$SPLINESEGS
 70
     8
  9
$ATTDIA
 70
     1
  9
$ATTREQ
 70
     1
  9
$HANDLING
 70
     1
  9
$HANDSEED
  5
4FDD
  9
$SURFTAB1
 70
     6
  9
$SURFTAB2
 70
     6
  9
$SURFTYPE
 70
     6
  9
$SURFU
 70
     6
  9
$SURFV
 70
     6
  9
$UCSNAME
  2

  9
$UCSORG
 10
0.0
 20
0.0
 30
0.0
  9
$UCSXDIR
 10
1.0
 20
0.0
 30
0.0
  9
$UCSYDIR
 10
0.0
 20
1.0
 30
0.0
  9
$PUCSNAME
  2

  9
$PUCSORG
 10
0.0
 20
0.0
 30
0.0
  9
$PUCSXDIR
 10
1.0
 20
0.0
 30
0.0
  9
$PUCSYDIR
 10
0.0
 20
1.0
 30
0.0
  9
$USERI1
 70
     0
  9
$USERI2
 70
     0
  9
$USERI3
 70
     0
  9
$USERI4
 70
     0
  9
$USERI5
 70
     0
  9
$USERR1
 40
0.0
  9
$USERR2
 40
0.0
  9
$USERR3
 40
0.0
  9
$USERR4
 40
0.0
  9
$USERR5
 40
0.0
  9
$WORLDVIEW
 70
     1
  9
$SHADEDGE
 70
     3
  9
$SHADEDIF
 70
    70
  9
$TILEMODE
 70
     1
  9
$MAXACTVP
 70
    64
  9
$PLIMCHECK
 70
     0
  9
$PEXTMIN
 10
1.0000000000000000E+20
 20
1.0000000000000000E+20
 30
1.0000000000000000E+20
  9
$PEXTMAX
 10
-1.0000000000000000E+20
 20
-1.0000000000000000E+20
 30
-1.0000000000000000E+20
  9
$PLIMMIN
 10
0.0
 20
0.0
  9
$PLIMMAX
 10
12.0
 20
9.0
  9
$UNITMODE
 70
     0
  9
$VISRETAIN
 70
     1
  9
$PLINEGEN
 70
     0
  9
$PSLTSCALE
 70
     1
  0
ENDSEC
  0
SECTION
  2
TABLES
  0
TABLE
  2
VPORT
 70
     1
  0
VPORT
  2
*ACTIVE
 70
     0
 10
0.0
 20
0.0
 11
1.0
 21
1.0
 12
0.0
 22
0.0
 13
0.0
 23
0.0
 14
1.0
 24
1.0
 15
0.0
 25
0.0
 16
0.0
 26
0.0
 36
209.646003206529997
 17
1945.5897216796870453
 27
193.4061203002929972
 37
0.0
 40
73.1525612217969154
 41
2.1491525423728808
 42
50.0
 43
0.0
 44
0.0
 50
0.0
 51
0.0
 71
     0
 72
   100
 73
     1
 74
     1
 75
     0
 76
     0
 77
     0
 78
     0
  0
ENDTAB
  0
TABLE
  2
LTYPE
 70
     2
  0
LTYPE
  2
CONTINUOUS
 70
     0
  3
Solid line
 72
    65
 73
     0
 40
0.0
  0
LTYPE
  2
PHANTOM2
 70
     0
  3
___ _ _ ___ _ _ ___ _ _ ___ _ _
 72
    65
 73
     6
 40
1.25
 49
0.625
 49
-0.125
 49
0.125
 49
-0.125
 49
0.125
 49
-0.125
  0
ENDTAB
  0
TABLE
  2
LAYER
 70
     2
  0
LAYER
  2
0
 70
     0
 62
   255
  6
CONTINUOUS
  0
LAYER
  2
DEFPOINTS
 70
     0
 62
     7
  6
CONTINUOUS
  0
ENDTAB
  0
TABLE
  2
STYLE
 70
     1
  0
STYLE
  2
STANDARD
 70
     0
 40
0.0
 41
0.8
 50
0.0
 71
     0
 42
0.2
  3
txt
  4

  0
ENDTAB
  0
TABLE
  2
VIEW
 70
     0
  0
ENDTAB
  0
TABLE
  2
UCS
 70
     0
  0
ENDTAB
  0
TABLE
  2
APPID
 70
     9
  0
APPID
  2
ACAD
 70
     0
  0
APPID
  2
ACAD_MLEADERVER
 70
     0
  0
APPID
  2
ACAD_EXEMPT_FROM_CAD_STANDARDS
 70
     0
  0
APPID
  2
ACAD_NAV_VCDISPLAY
 70
     0
  0
APPID
  2
ACAECLAYERSTANDARD
 70
     0
  0
APPID
  2
ACCMTRANSPARENCY
 70
     0
  0
APPID
  2
ACAD_DSTYLE_DIMJAG
 70
     0
  0
APPID
  2
ACAD_DSTYLE_DIMTALN
 70
     0
  0
APPID
  2
ACDBATTR
 70
     0
  0
ENDTAB
  0
TABLE
  2
DIMSTYLE
 70
     1
  0
DIMSTYLE
  2
STANDARD
 70
     0
  3

  4

  5

  6

  7

 40
1.0
 41
0.1875
 42
0.0625
 43
0.38
 44
0.125
 45
0.0
 46
0.0
 47
0.01
 48
0.01
140
0.15625
141
0.09
142
0.0
143
25.3999999999999986
144
1.0
145
0.0
146
1.0
147
0.09
 71
     1
 72
     0
 73
     1
 74
     1
 75
     0
 76
     0
 77
     0
 78
     4
170
     0
171
     2
172
     0
173
     0
174
     0
175
     0
176
     0
177
     0
178
     0
  0
ENDTAB
  0
ENDSEC
  0
SECTION
  2
BLOCKS
  0
BLOCK
  8
0
  2
$MODEL_SPACE
 70
     0
 10
0.0
 20
0.0
 30
0.0
  3
$MODEL_SPACE
  1

  0
ENDBLK
  5
21
  8
0
  0
BLOCK
 67
     1
  8
0
  2
$PAPER_SPACE
 70
     0
 10
0.0
 20
0.0
 30
0.0
  3
$PAPER_SPACE
  1

  0
ENDBLK
  5
1D
 67
     1
  8
0
  0
ENDSEC
  0
SECTION
  2
ENTITIES
  0
ATTDEF
  5
3930
  8
DEFPOINTS
 10
1945.5847451512020143
 20
193.4116803163321947
 30
0.0
 40
0.001
  1
96136
  3

  2
MODELNUMBER
 70
     0
1001
ACDBATTR
1070
     0
1070
     1
  0
ATTDEF
  5
3931
  8
DEFPOINTS
 10
1945.5847451512020143
 20
193.4100136496655011
 30
0.0
 40
0.001
  1
SIERRA
  3

  2
TRADENAME
 70
     0
1001
ACDBATTR
1070
     0
1070
     1
  0
ATTDEF
  5
3932
  8
DEFPOINTS
 10
1945.5847451512020143
 20
193.4083469829988076
 30
0.0
 40
0.001
  1
BATH
  3

  2
PRODUCT
 70
     0
1001
ACDBATTR
1070
     0
1070
     1
  0
LINE
  5
4EDB
  8
0
 10
1978.8598897112999566
 20
208.1699127099803945
 30
0.0
 11
1912.319606037938911
 21
208.1699127099803945
 31
0.0
  0
ARC
  5
4EDC
  8
0
 10
1912.321919209168982
 20
207.9735089393695091
 30
0.0
 40
0.1964173919777349
 50
90.6747773771453325
 51
179.951119617361087
  0
LINE
  5
4EDD
  8
0
 10
1912.1255018886690777
 20
207.9736765076650045
 30
0.0
 11
1912.1255018886690777
 21
178.83895374839949
 31
0.0
  0
ARC
  5
4EDE
  8
0
 10
1912.3224036025399073
 20
178.8392314669995926
 30
0.0
 40
0.1969019097233068
 50
180.0808123647987031
 51
269.568333086378118
  0
LINE
  5
4EDF
  8
0
 10
1912.320920155829981
 20
178.642335145453103
 30
0.0
 11
1978.8585755934079771
 21
178.642335145453103
 31
0.0
  0
LINE
  5
4EE0
  8
0
 10
1947.4008002929970189
 20
206.1191288170535074
 30
0.0
 11
1943.7787530489699748
 21
206.1191288170535074
 31
0.0
  0
ARC
  5
4EE1
  8
0
 10
1943.7787530489699748
 20
205.8178644227947132
 30
0.0
 40
0.3012643942587374
 50
90.0
 51
109.6297385949310979
  0
ARC
  5
4EE2
  8
0
 10
1943.7146785289301079
 20
205.9975114653205139
 30
0.0
 40
0.1105326349564953
 50
109.6297385949310979
 51
142.2328167651888009
  0
ARC
  5
4EE3
  8
0
 10
1943.6570597908219042
 20
206.0453285531656036
 30
0.0
 40
0.0357870854098771
 50
146.2560275166765962
 51
217.8552825819568
  0
ARC
  5
4EE4
  8
0
 10
1943.7183145207739017
 20
206.1036200305713066
 30
0.0
 40
0.1202195082063467
 50
221.878493333456106
 51
254.9106251927931908
  0
ARC
  5
4EE5
  8
0
 10
1943.786662340643943
 20
206.3571152112855884
 30
0.0
 40
0.3827670869924709
 50
254.9106251927931908
 51
268.8159867909354261
  0
LINE
  5
4EE6
  8
0
 10
1943.7787530489699748
 20
205.9744298496765111
 30
0.0
 11
1947.4008002930690964
 21
205.9744297844765129
 31
0.0
  0
ARC
  5
4EE7
  8
0
 10
1934.6639354107019244
 20
146.6037942689090983
 30
0.0
 40
56.7518472936050813
 50
90.6812954618097393
 51
95.2425418378110038
  0
ARC
  5
4EE8
  8
0
 10
1930.7553380486319838
 20
189.2016061777245
 30
0.0
 40
13.9750929431685602
 50
95.2425418378110038
 51
111.9281543542105055
  0
ARC
  5
4EE9
  8
0
 10
1928.1757895314140114
 20
196.9011024285819076
 30
0.0
 40
5.8891082725806987
 50
116.626765972623204
 51
167.1745490050350895
  0
ARC
  5
4EEA
  8
0
 10
1941.0634182853739276
 20
193.9451029644484095
 30
0.0
 40
19.1113912138926203
 50
167.1102936444401053
 51
181.6157673923923994
  0
CIRCLE
  5
4EEB
  8
0
 10
1945.589747874618979
 20
193.4061351454531064
 30
0.0
 40
1.5125099999999989
  0
CIRCLE
  5
4EEC
  8
0
 10
1945.589747874618979
 20
193.4061351454531064
 30
0.0
 40
1.0039400000000001
  0
ARC
  5
4EED
  8
0
 10
1934.6639354107019244
 20
240.2086544408437874
 30
0.0
 40
56.7518472936050813
 50
264.757458162188982
 51
269.3187045381902749
  0
ARC
  5
4EEE
  8
0
 10
1930.7553380486319838
 20
197.6108425320284141
 30
0.0
 40
13.9750929431685602
 50
248.0718456457894945
 51
264.757458162188982
  0
ARC
  5
4EEF
  8
0
 10
1928.1757895314140114
 20
189.9113462811708928
 30
0.0
 40
5.8891082725806987
 50
192.8254509949647968
 51
243.3732340273768102
  0
ARC
  5
4EF0
  8
0
 10
1941.0634182853739276
 20
192.8673457453045046
 30
0.0
 40
19.1113912138926203
 50
178.3842326076074869
 51
192.8897063555598095
  0
ARC
  5
4EF1
  8
0
 10
1945.5897261088709911
 20
-1026.4617314654760776
 30
0.0
 40
1229.8680728922649905
 50
89.459555516038364
 51
90.540444483961636
  0
ARC
  5
4EF2
  8
0
 10
1956.5155168070371019
 20
146.6037942689090983
 30
0.0
 40
56.7518472936050813
 50
84.7574581621889962
 51
89.3187045381902607
  0
ARC
  5
4EF3
  8
0
 10
1960.4241141691059056
 20
189.2016061777245
 30
0.0
 40
13.9750929431685602
 50
68.0718456457894661
 51
84.7574581621889962
  0
ARC
  5
4EF4
  8
0
 10
1963.0036626863250149
 20
196.9011024285819076
 30
0.0
 40
5.8891082725806987
 50
12.8254509949648394
 51
63.3732340273768031
  0
ARC
  5
4EF5
  8
0
 10
1950.1160339323650987
 20
193.9451029644484095
 30
0.0
 40
19.1113912138926203
 50
358.3842326076074869
 51
12.8897063555598308
  0
ARC
  5
4EF6
  8
0
 10
1945.5897261088750838
 20
1413.2741801866670812
 30
0.0
 40
1229.8680729037018864
 50
269.4595555160382787
 51
270.5404444839617213
  0
ARC
  5
4EF7
  8
0
 10
1956.5155168070371019
 20
240.2086544408437874
 30
0.0
 40
56.7518472936050813
 50
270.6812954618097251
 51
275.242541837811018
  0
ARC
  5
4EF8
  8
0
 10
1960.4241141691059056
 20
197.6108425320284141
 30
0.0
 40
13.9750929431685602
 50
275.242541837811018
 51
291.9281543542105055
  0
ARC
  5
4EF9
  8
0
 10
1963.0036626863250149
 20
189.9113462811708928
 30
0.0
 40
5.8891082725806987
 50
296.6267659726232182
 51
347.1745490050352032
  0
ARC
  5
4EFA
  8
0
 10
1950.1160339323650987
 20
192.8673457453045046
 30
0.0
 40
19.1113912138926203
 50
347.1102936444402189
 51
1.6157673923908511
  0
ARC
  5
4EFB
  8
0
 10
1978.857676850281905
 20
207.9736080600249011
 30
0.0
 40
0.196317121892253
 50
0.0610941171149696
 51
89.3541557620471423
  0
LINE
  5
4EFC
  8
0
 10
1979.0539938605700172
 20
207.9738173916557002
 30
0.0
 11
1979.0539938605700172
 21
178.8391466987673084
 31
0.0
  0
ARC
  5
4EFD
  8
0
 10
1978.857192013796066
 20
178.8391321292039038
 30
0.0
 40
0.1968018473132722
 50
270.4028108808997217
 51
0.0042417005049632
  0
ARC
  5
4EFE
  8
0
 10
1926.4123000773279273
 20
69.3516126915932318
 30
0.0
 40
137.3176444121615134
 50
90.3928729776125124
 51
92.5283389090409685
  0
ARC
  5
4EFF
  8
0
 10
1920.492343569231025
 20
198.1464392379897106
 30
0.0
 40
8.3902710826813891
 50
90.9397441090066536
 51
119.4686713758195964
  0
ARC
  5
4F00
  8
0
 10
1918.4583445246269093
 20
201.9635854960473864
 30
0.0
 40
4.0677550573886219
 50
120.9757789035239028
 51
172.1036248786878105
  0
ARC
  5
4F01
  8
0
 10
1961.0805018864700742
 20
194.4393960977747895
 30
0.0
 40
47.3464155316486384
 50
170.1702605103760106
 51
181.2503814413950067
  0
ARC
  5
4F02
  8
0
 10
1926.4123000773279273
 20
317.4608360219459087
 30
0.0
 40
137.3176444121615134
 50
267.4716610909590031
 51
269.6071270223874876
  0
ARC
  5
4F03
  8
0
 10
1920.492343569231025
 20
188.6660094755494015
 30
0.0
 40
8.3902710826813891
 50
240.5313286241803894
 51
269.0602558909934032
  0
ARC
  5
4F04
  8
0
 10
1918.4583445246269093
 20
184.8488632174916972
 30
0.0
 40
4.0677550573886219
 50
187.8963751213121895
 51
239.0242210964759977
  0
ARC
  5
4F05
  8
0
 10
1961.0805018864700742
 20
192.3730526157642942
 30
0.0
 40
47.3464155316486384
 50
178.7496185586049933
 51
189.8297394896239041
  0
ARC
  5
4F06
  8
0
 10
1945.5897718238559264
 20
-3106.3064982158580278
 30
0.0
 40
3313.033616130252085
 50
89.6520580891677383
 51
90.3479419108322475
  0
ARC
  5
4F07
  8
0
 10
1964.7672435704100735
 20
69.3516126915932318
 30
0.0
 40
137.3176444121615134
 50
87.4716610909590315
 51
89.6071270223874876
  0
ARC
  5
4F08
  8
0
 10
1970.6872000785069758
 20
198.1464392379897106
 30
0.0
 40
8.3902710826813891
 50
60.5313286241804178
 51
89.0602558909933464
  0
ARC
  5
4F09
  8
0
 10
1972.7211991231099546
 20
201.9635854960473864
 30
0.0
 40
4.0677550573886219
 50
7.896375121312202
 51
59.0242210964760616
  0
ARC
  5
4F0A
  8
0
 10
1930.0990417612670171
 20
194.4393960977747895
 30
0.0
 40
47.3464155316486384
 50
358.749618558605107
 51
9.8297394896239663
  0
ARC
  5
4F0B
  8
0
 10
1945.5897718238600191
 20
3493.1189468953748474
 30
0.0
 40
3313.0336160962301619
 50
269.652058089167781
 51
270.347941910832219
  0
ARC
  5
4F0C
  8
0
 10
1964.7672435704100735
 20
317.4608360219459087
 30
0.0
 40
137.3176444121615134
 50
270.3928729776125124
 51
272.5283389090409969
  0
ARC
  5
4F0D
  8
0
 10
1970.6872000785069758
 20
188.6660094755494015
 30
0.0
 40
8.3902710826813891
 50
270.9397441090067105
 51
299.4686713758196106
  0
ARC
  5
4F0E
  8
0
 10
1972.7211991231099546
 20
184.8488632174916972
 30
0.0
 40
4.0677550573886219
 50
300.9757789035239171
 51
352.1036248786878105
  0
ARC
  5
4F0F
  8
0
 10
1930.0990417612670171
 20
192.3730526157642942
 30
0.0
 40
47.3464155316486384
 50
350.1702605103760106
 51
1.250381441394977
  0
ARC
  5
4F10
  8
0
 10
1947.4008002930690964
 20
205.8178644227947132
 30
0.0
 40
0.3012643942587374
 50
70.3702614050689448
 51
90.0
  0
ARC
  5
4F11
  8
0
 10
1947.4648748131089633
 20
205.9975114653205139
 30
0.0
 40
0.1105326349564953
 50
37.7671832348112204
 51
70.3702614050689448
  0
ARC
  5
4F12
  8
0
 10
1947.5224935512169395
 20
206.0453285531656036
 30
0.0
 40
0.0357870854098771
 50
322.1447174180432853
 51
33.7439724833233967
  0
ARC
  5
4F13
  8
0
 10
1947.4612388212649421
 20
206.1036200305713066
 30
0.0
 40
0.1202195082063467
 50
285.0893748072068092
 51
318.1215066665437803
  0
ARC
  5
4F14
  8
0
 10
1947.3928901075150861
 20
206.3571195609021061
 30
0.0
 40
0.382771519337906
 50
271.184133327065183
 51
285.0893345030647197
  0
ENDSEC
  0
EOF
