  0
SECTION
  2
HEADER
  9
$ACADVER
  1
AC1009
  9
$INSBASE
 10
3213.8188667337749393
 20
62.5074584334868604
 30
0.0
  9
$EXTMIN
 10
3184.2913076786257989
 20
47.7436789058868669
 30
0.0
  9
$EXTMAX
 10
3243.3464257889249893
 20
77.2712379610868965
 30
0.0
  9
$LIMMIN
 10
0.0
 20
0.0
  9
$LIMMAX
 10
11.6929133858000007
 20
8.2677165353999982
  9
$ORTHOMODE
 70
     1
  9
$REGENMODE
 70
     1
  9
$FILLMODE
 70
     1
  9
$QTEXTMODE
 70
     0
  9
$MIRRTEXT
 70
     0
  9
$DRAGMODE
 70
     2
  9
$LTSCALE
 40
0.6431102362
  9
$OSMODE
 70
  4095
  9
$ATTMODE
 70
     1
  9
$TEXTSIZE
 40
0.2
  9
$TRACEWID
 40
0.05
  9
$TEXTSTYLE
  7
STANDARD
  9
$CLAYER
  8
0
  9
$CELTYPE
  6
BYLAYER
  9
$CECOLOR
 62
   256
  9
$DIMSCALE
 40
1.0
  9
$DIMASZ
 40
0.1875
  9
$DIMEXO
 40
0.0625
  9
$DIMDLI
 40
0.4443307087
  9
$DIMRND
 40
0.0
  9
$DIMDLE
 40
0.0
  9
$DIMEXE
 40
0.125
  9
$DIMTP
 40
0.01
  9
$DIMTM
 40
0.01
  9
$DIMTXT
 40
2.0
  9
$DIMCEN
 40
0.1052362205
  9
$DIMTSZ
 40
0.0
  9
$DIMTOL
 70
     1
  9
$DIMLIM
 70
     0
  9
$DIMTIH
 70
     1
  9
$DIMTOH
 70
     1
  9
$DIMSE1
 70
     0
  9
$DIMSE2
 70
     0
  9
$DIMTAD
 70
     0
  9
$DIMZIN
 70
     0
  9
$DIMBLK
  1

  9
$DIMASO
 70
     1
  9
$DIMSHO
 70
     1
  9
$DIMPOST
  1
\X
  9
$DIMAPOST
  1

  9
$DIMALT
 70
     1
  9
$DIMALTD
 70
     2
  9
$DIMALTF
 40
25.3999999999999986
  9
$DIMLFAC
 40
1.0
  9
$DIMTOFL
 70
     0
  9
$DIMTVP
 40
0.0
  9
$DIMTIX
 70
     0
  9
$DIMSOXD
 70
     0
  9
$DIMSAH
 70
     0
  9
$DIMBLK1
  1

  9
$DIMBLK2
  1

  9
$DIMSTYLE
  2
STANDARD
  9
$DIMCLRD
 70
     0
  9
$DIMCLRE
 70
     0
  9
$DIMCLRT
 70
     0
  9
$DIMTFAC
 40
1.0
  9
$DIMGAP
 40
0.09
  9
$LUNITS
 70
     2
  9
$LUPREC
 70
     4
  9
$SKETCHINC
 40
0.1
  9
$FILLETRAD
 40
0.0
  9
$AUNITS
 70
     0
  9
$AUPREC
 70
     0
  9
$MENU
  1
.
  9
$ELEVATION
 40
0.0
  9
$PELEVATION
 40
0.0
  9
$THICKNESS
 40
0.0
  9
$LIMCHECK
 70
     0
  9
$BLIPMODE
 70
     0
  9
$CHAMFERA
 40
0.0
  9
$CHAMFERB
 40
0.0
  9
$SKPOLY
 70
     0
  9
$TDCREATE
 40
2458060.468368056230247
  9
$TDUPDATE
 40
2458771.7067013890482485
  9
$TDINDWG
 40
0.2942778935
  9
$TDUSRTIMER
 40
0.2942778935
  9
$USRTIMER
 70
     1
  9
$ANGBASE
 50
0.0
  9
$ANGDIR
 70
     0
  9
$PDMODE
 70
     0
  9
$PDSIZE
 40
0.3125
  9
$PLINEWID
 40
0.0
  9
$COORDS
 70
     1
  9
$SPLFRAME
 70
     0
  9
$SPLINETYPE
 70
     6
  9
$SPLINESEGS
 70
     8
  9
$ATTDIA
 70
     1
  9
$ATTREQ
 70
     1
  9
$HANDLING
 70
     1
  9
$HANDSEED
  5
66E9
  9
$SURFTAB1
 70
     6
  9
$SURFTAB2
 70
     6
  9
$SURFTYPE
 70
     6
  9
$SURFU
 70
     6
  9
$SURFV
 70
     6
  9
$UCSNAME
  2

  9
$UCSORG
 10
0.0
 20
0.0
 30
0.0
  9
$UCSXDIR
 10
1.0
 20
0.0
 30
0.0
  9
$UCSYDIR
 10
0.0
 20
1.0
 30
0.0
  9
$PUCSNAME
  2

  9
$PUCSORG
 10
0.0
 20
0.0
 30
0.0
  9
$PUCSXDIR
 10
1.0
 20
0.0
 30
0.0
  9
$PUCSYDIR
 10
0.0
 20
1.0
 30
0.0
  9
$USERI1
 70
     0
  9
$USERI2
 70
     0
  9
$USERI3
 70
     0
  9
$USERI4
 70
     0
  9
$USERI5
 70
     0
  9
$USERR1
 40
0.0
  9
$USERR2
 40
0.0
  9
$USERR3
 40
0.0
  9
$USERR4
 40
0.0
  9
$USERR5
 40
0.0
  9
$WORLDVIEW
 70
     1
  9
$SHADEDGE
 70
     3
  9
$SHADEDIF
 70
    70
  9
$TILEMODE
 70
     1
  9
$MAXACTVP
 70
    64
  9
$PLIMCHECK
 70
     0
  9
$PEXTMIN
 10
1.0000000000000000E+20
 20
1.0000000000000000E+20
 30
1.0000000000000000E+20
  9
$PEXTMAX
 10
-1.0000000000000000E+20
 20
-1.0000000000000000E+20
 30
-1.0000000000000000E+20
  9
$PLIMMIN
 10
0.0
 20
0.0
  9
$PLIMMAX
 10
12.0
 20
9.0
  9
$UNITMODE
 70
     0
  9
$VISRETAIN
 70
     1
  9
$PLINEGEN
 70
     0
  9
$PSLTSCALE
 70
     1
  0
ENDSEC
  0
SECTION
  2
TABLES
  0
TABLE
  2
VPORT
 70
     1
  0
VPORT
  2
*ACTIVE
 70
     0
 10
0.0
 20
0.0
 11
1.0
 21
1.0
 12
0.0
 22
0.0
 13
0.0
 23
0.0
 14
1.0
 24
1.0
 15
0.0
 25
0.0
 16
0.0
 26
0.0
 36
189.1537293230450132
 17
3213.81884765625
 27
62.5074596405029297
 37
0.0
 40
66.0628535953492815
 41
2.1481900452488678
 42
50.0
 43
0.0
 44
0.0
 50
0.0
 51
0.0
 71
     0
 72
   100
 73
     1
 74
     1
 75
     0
 76
     0
 77
     0
 78
     0
  0
ENDTAB
  0
TABLE
  2
LTYPE
 70
     2
  0
LTYPE
  2
CONTINUOUS
 70
     0
  3
Solid line
 72
    65
 73
     0
 40
0.0
  0
LTYPE
  2
PHANTOM2
 70
     0
  3
___ _ _ ___ _ _ ___ _ _ ___ _ _
 72
    65
 73
     6
 40
1.25
 49
0.625
 49
-0.125
 49
0.125
 49
-0.125
 49
0.125
 49
-0.125
  0
ENDTAB
  0
TABLE
  2
LAYER
 70
     2
  0
LAYER
  2
0
 70
     0
 62
   255
  6
CONTINUOUS
  0
LAYER
  2
DEFPOINTS
 70
     0
 62
     7
  6
CONTINUOUS
  0
ENDTAB
  0
TABLE
  2
STYLE
 70
     1
  0
STYLE
  2
STANDARD
 70
     0
 40
0.0
 41
0.8
 50
0.0
 71
     0
 42
0.2
  3
txt
  4

  0
ENDTAB
  0
TABLE
  2
VIEW
 70
     0
  0
ENDTAB
  0
TABLE
  2
UCS
 70
     0
  0
ENDTAB
  0
TABLE
  2
APPID
 70
     9
  0
APPID
  2
ACAD
 70
     0
  0
APPID
  2
ACAD_MLEADERVER
 70
     0
  0
APPID
  2
ACAD_EXEMPT_FROM_CAD_STANDARDS
 70
     0
  0
APPID
  2
ACAD_NAV_VCDISPLAY
 70
     0
  0
APPID
  2
ACAECLAYERSTANDARD
 70
     0
  0
APPID
  2
ACCMTRANSPARENCY
 70
     0
  0
APPID
  2
ACAD_DSTYLE_DIMJAG
 70
     0
  0
APPID
  2
ACAD_DSTYLE_DIMTALN
 70
     0
  0
APPID
  2
ACDBATTR
 70
     0
  0
ENDTAB
  0
TABLE
  2
DIMSTYLE
 70
     1
  0
DIMSTYLE
  2
STANDARD
 70
     0
  3

  4

  5

  6

  7

 40
1.0
 41
0.1875
 42
0.0625
 43
0.38
 44
0.125
 45
0.0
 46
0.0
 47
0.01
 48
0.01
140
0.15625
141
0.09
142
0.0
143
25.3999999999999986
144
1.0
145
0.0
146
1.0
147
0.09
 71
     1
 72
     0
 73
     1
 74
     1
 75
     0
 76
     0
 77
     0
 78
     4
170
     0
171
     2
172
     0
173
     0
174
     0
175
     0
176
     0
177
     0
178
     0
  0
ENDTAB
  0
ENDSEC
  0
SECTION
  2
BLOCKS
  0
BLOCK
  8
0
  2
$MODEL_SPACE
 70
     0
 10
0.0
 20
0.0
 30
0.0
  3
$MODEL_SPACE
  1

  0
ENDBLK
  5
21
  8
0
  0
BLOCK
 67
     1
  8
0
  2
$PAPER_SPACE
 70
     0
 10
0.0
 20
0.0
 30
0.0
  3
$PAPER_SPACE
  1

  0
ENDBLK
  5
1D
 67
     1
  8
0
  0
ENDSEC
  0
SECTION
  2
ENTITIES
  0
ATTDEF
  5
3930
  8
DEFPOINTS
 10
3213.8153806827658627
 20
62.5115379489079004
 30
0.0
 40
0.001
  1
96135
  3

  2
MODELNUMBER
 70
     0
1001
ACDBATTR
1070
     0
1070
     1
  0
ATTDEF
  5
3931
  8
DEFPOINTS
 10
3213.8153806827658627
 20
62.5098712822412423
 30
0.0
 40
0.001
  1
SIERRA
  3

  2
TRADENAME
 70
     0
1001
ACDBATTR
1070
     0
1070
     1
  0
ATTDEF
  5
3932
  8
DEFPOINTS
 10
3213.8153806827658627
 20
62.5082046155745701
 30
0.0
 40
0.001
  1
BATH
  3

  2
PRODUCT
 70
     0
1001
ACDBATTR
1070
     0
1070
     1
  0
LINE
  5
65AE
  8
0
 10
3184.2913076786257989
 20
47.9405292995868777
 30
0.0
 11
3184.2913076786257989
 21
77.0743875674868804
 31
0.0
  0
LINE
  5
65AF
  8
0
 10
3243.1495753952249288
 20
47.7436789058868811
 30
0.0
 11
3184.4881580722249055
 21
47.7436789058868811
 31
0.0
  0
LINE
  5
65B0
  8
0
 10
3184.4881580723249499
 20
77.2712379610868823
 30
0.0
 11
3243.1495753952322048
 21
77.2712379610868823
 31
0.0
  0
ARC
  5
65B1
  8
0
 10
3184.5119504368358321
 20
47.9643216640982075
 30
0.0
 40
0.2219218406558905
 50
186.1545413124163986
 51
263.8454586895769012
  0
ARC
  5
65B2
  8
0
 10
3184.5041728243081707
 20
77.0583728154049652
 30
0.0
 40
0.2134667246375044
 50
94.3025002010262767
 51
175.6974998009719116
  0
LINE
  5
65B3
  8
0
 10
3215.6299136335492221
 20
75.0110301203868914
 30
0.0
 11
3212.0078198340011113
 21
75.0110301203868914
 31
0.0
  0
LINE
  5
65B4
  8
0
 10
3215.6298837421309145
 20
74.871263555886884
 30
0.0
 11
3212.0078497254198737
 21
74.871263555886884
 31
0.0
  0
ARC
  5
65B5
  8
0
 10
3212.0991955530930682
 20
75.3007810477765531
 30
0.0
 40
0.4391233722687382
 50
235.4825079034436044
 51
257.9937378299729858
  0
ARC
  5
65B6
  8
0
 10
3212.0679152144398358
 20
74.6716816375205781
 30
0.0
 40
0.3446285646514966
 50
100.0424197945557978
 51
129.1435994192765122
  0
ARC
  5
65B7
  8
0
 10
3204.1495841630980976
 20
41.5767054514570304
 30
0.0
 40
27.9294880949635989
 50
92.8021458955433758
 51
101.8724428031977993
  0
ARC
  5
65B8
  8
0
 10
3198.9595817510480629
 20
66.4452536692789124
 30
0.0
 40
2.5254448202638939
 50
102.7190807762945042
 51
168.6657085354005972
  0
ARC
  5
65B9
  8
0
 10
3218.8334688833201653
 20
62.5099192095909473
 30
0.0
 40
22.78520787866346
 50
168.7846250652156073
 51
191.2533520481161133
  0
ARC
  5
65BA
  8
0
 10
3199.0053645129141842
 20
58.6015768843701821
 30
0.0
 40
2.5758718020783848
 50
192.0587844767916863
 51
258.9964540500155863
  0
ARC
  5
65BB
  8
0
 10
3207.4314857831109293
 20
117.2636083818299966
 30
0.0
 40
61.8369612448042929
 50
261.708213317749312
 51
269.6975058864929906
  0
LINE
  5
65BC
  8
0
 10
3234.523244181256814
 20
75.459257134886883
 30
0.0
 11
3193.1144892862939741
 21
75.459257134886883
 31
0.0
  0
ARC
  5
65BD
  8
0
 10
3193.7535569239657889
 20
61.0248984830393795
 30
0.0
 40
14.4484987848455795
 50
92.5350611497974143
 51
109.4342721901746955
  0
ARC
  5
65BE
  8
0
 10
3191.2455551666980682
 20
70.5110508671804723
 30
0.0
 40
4.7349241414458527
 50
119.0531714620891961
 51
173.513032129242788
  0
ARC
  5
65BF
  8
0
 10
3300.2927602534728067
 20
62.7041758851067428
 30
0.0
 40
114.0572711312513974
 50
175.8058102807935938
 51
184.5961310807377913
  0
ARC
  5
65C0
  8
0
 10
3190.7055746989681211
 20
54.12516755759939
 30
0.0
 40
4.1414265738573439
 50
187.7794605617471859
 51
262.5521069816174986
  0
LINE
  5
65C1
  8
0
 10
3233.4102130690071135
 20
49.5556597300262425
 30
0.0
 11
3194.2275203985432199
 21
49.5556597300262425
 31
0.0
  0
ARC
  5
65C2
  8
0
 10
3194.478863308651853
 20
69.7796965624284979
 30
0.0
 40
20.2255986081209791
 50
257.6957906533423852
 51
269.2879687311987027
  0
LINE
  5
65C3
  8
0
 10
3202.7841903074181573
 20
69.4727984550585518
 30
0.0
 11
3224.8535431601330856
 21
69.4727984550585518
 31
0.0
  0
LINE
  5
65C4
  8
0
 10
3207.105017934406078
 20
55.4275089355099126
 30
0.0
 11
3220.5327155331460744
 21
55.4275089355099126
 31
0.0
  0
LINE
  5
65C5
  8
0
 10
3243.3464257889249893
 20
47.9405292995868777
 30
0.0
 11
3243.3464257889249893
 21
77.0743875674868804
 31
0.0
  0
ARC
  5
65C6
  8
0
 10
3243.1257830307149561
 20
47.9643216640982075
 30
0.0
 40
0.2219218406558905
 50
276.1545413104230988
 51
353.845458687583573
  0
ARC
  5
65C7
  8
0
 10
3243.1335606432430723
 20
77.0583728154049652
 30
0.0
 40
0.2134667246375044
 50
4.3025001990281204
 51
85.6974997989737091
  0
ARC
  5
65C8
  8
0
 10
3215.5385379144568105
 20
75.3007810477765531
 30
0.0
 40
0.4391233722687382
 50
282.0062621700270142
 51
304.5174920965563956
  0
ARC
  5
65C9
  8
0
 10
3215.5698182531100429
 20
74.6716816375205781
 30
0.0
 40
0.3446285646514966
 50
50.8564005807234594
 51
79.9575802054441738
  0
ARC
  5
65CA
  8
0
 10
3223.4881493044531453
 20
41.5767054514570304
 30
0.0
 40
27.9294880949635989
 50
78.1275571968021865
 51
87.1978541044566242
  0
ARC
  5
65CB
  8
0
 10
3228.6781517165031801
 20
66.4452536692789124
 30
0.0
 40
2.5254448202638939
 50
11.3342914645993602
 51
77.28091922370551
  0
ARC
  5
65CC
  8
0
 10
3208.8042645842301681
 20
62.5099192095909473
 30
0.0
 40
22.78520787866346
 50
348.7466479518839151
 51
11.2153749347844194
  0
ARC
  5
65CD
  8
0
 10
3228.6323689546361493
 20
58.6015768843701821
 30
0.0
 40
2.5758718020783848
 50
281.0035459499843
 51
347.9412155232083137
  0
ARC
  5
65CE
  8
0
 10
3220.2062476844380399
 20
117.2636083818299966
 30
0.0
 40
61.8369612448042929
 50
270.3024941135070094
 51
278.291786682250688
  0
ARC
  5
65CF
  8
0
 10
3233.8841765435849993
 20
61.0248984830393795
 30
0.0
 40
14.4484987848455795
 50
70.5657278098253045
 51
87.4649388502025857
  0
ARC
  5
65D0
  8
0
 10
3236.3921783008518105
 20
70.5110508671804723
 30
0.0
 40
4.7349241414458527
 50
6.4869678707571969
 51
60.946828537910811
  0
ARC
  5
65D1
  8
0
 10
3127.3449732140779815
 20
62.7041758851067428
 30
0.0
 40
114.0572711312513974
 50
355.403868919262095
 51
4.1941897192063573
  0
ARC
  5
65D2
  8
0
 10
3236.9321587685831219
 20
54.12516755759939
 30
0.0
 40
4.1414265738573439
 50
277.4478930183825014
 51
352.2205394382527857
  0
ARC
  5
65D3
  8
0
 10
3233.1588701588989352
 20
69.7796965624284979
 30
0.0
 40
20.2255986081209791
 50
270.7120312688012973
 51
282.3042093466576148
  0
CIRCLE
  5
65D4
  8
0
 10
3213.8188667337749393
 20
62.5074584334868675
 30
0.0
 40
1.5207301448000119
  0
CIRCLE
  5
65D5
  8
0
 10
3213.8188667337749393
 20
62.5074584334868675
 30
0.0
 40
1.0039320265000169
  0
ENDSEC
  0
EOF
