  0
SECTION
  2
HEADER
  9
$ACADVER
  1
AC1009
  9
$INSBASE
 10
3191.2859061798549192
 20
151.8709526366087914
 30
0.0
  9
$EXTMIN
 10
3161.7583471247548914
 20
137.1072026366088039
 30
0.0
  9
$EXTMAX
 10
3220.8134652349549469
 20
166.6347026366088926
 30
0.0
  9
$LIMMIN
 10
0.0
 20
0.0
  9
$LIMMAX
 10
11.6929133858000007
 20
8.2677165353999982
  9
$ORTHOMODE
 70
     1
  9
$REGENMODE
 70
     1
  9
$FILLMODE
 70
     1
  9
$QTEXTMODE
 70
     0
  9
$MIRRTEXT
 70
     0
  9
$DRAGMODE
 70
     2
  9
$LTSCALE
 40
0.6431102362
  9
$OSMODE
 70
  4095
  9
$ATTMODE
 70
     1
  9
$TEXTSIZE
 40
0.2
  9
$TRACEWID
 40
0.05
  9
$TEXTSTYLE
  7
STANDARD
  9
$CLAYER
  8
0
  9
$CELTYPE
  6
BYLAYER
  9
$CECOLOR
 62
   256
  9
$DIMSCALE
 40
1.0
  9
$DIMASZ
 40
0.1875
  9
$DIMEXO
 40
0.0625
  9
$DIMDLI
 40
0.4443307087
  9
$DIMRND
 40
0.0
  9
$DIMDLE
 40
0.0
  9
$DIMEXE
 40
0.125
  9
$DIMTP
 40
0.01
  9
$DIMTM
 40
0.01
  9
$DIMTXT
 40
2.0
  9
$DIMCEN
 40
0.1052362205
  9
$DIMTSZ
 40
0.0
  9
$DIMTOL
 70
     1
  9
$DIMLIM
 70
     0
  9
$DIMTIH
 70
     1
  9
$DIMTOH
 70
     1
  9
$DIMSE1
 70
     0
  9
$DIMSE2
 70
     0
  9
$DIMTAD
 70
     0
  9
$DIMZIN
 70
     0
  9
$DIMBLK
  1

  9
$DIMASO
 70
     1
  9
$DIMSHO
 70
     1
  9
$DIMPOST
  1
\X
  9
$DIMAPOST
  1

  9
$DIMALT
 70
     1
  9
$DIMALTD
 70
     2
  9
$DIMALTF
 40
25.3999999999999986
  9
$DIMLFAC
 40
1.0
  9
$DIMTOFL
 70
     0
  9
$DIMTVP
 40
0.0
  9
$DIMTIX
 70
     0
  9
$DIMSOXD
 70
     0
  9
$DIMSAH
 70
     0
  9
$DIMBLK1
  1

  9
$DIMBLK2
  1

  9
$DIMSTYLE
  2
STANDARD
  9
$DIMCLRD
 70
     0
  9
$DIMCLRE
 70
     0
  9
$DIMCLRT
 70
     0
  9
$DIMTFAC
 40
1.0
  9
$DIMGAP
 40
0.09
  9
$LUNITS
 70
     2
  9
$LUPREC
 70
     4
  9
$SKETCHINC
 40
0.1
  9
$FILLETRAD
 40
0.0
  9
$AUNITS
 70
     0
  9
$AUPREC
 70
     0
  9
$MENU
  1
.
  9
$ELEVATION
 40
0.0
  9
$PELEVATION
 40
0.0
  9
$THICKNESS
 40
0.0
  9
$LIMCHECK
 70
     0
  9
$BLIPMODE
 70
     0
  9
$CHAMFERA
 40
0.0
  9
$CHAMFERB
 40
0.0
  9
$SKPOLY
 70
     0
  9
$TDCREATE
 40
2458060.468368056230247
  9
$TDUPDATE
 40
2458772.8525925930589437
  9
$TDINDWG
 40
0.2928774306
  9
$TDUSRTIMER
 40
0.2928774306
  9
$USRTIMER
 70
     1
  9
$ANGBASE
 50
0.0
  9
$ANGDIR
 70
     0
  9
$PDMODE
 70
     0
  9
$PDSIZE
 40
0.3125
  9
$PLINEWID
 40
0.0
  9
$COORDS
 70
     1
  9
$SPLFRAME
 70
     0
  9
$SPLINETYPE
 70
     6
  9
$SPLINESEGS
 70
     8
  9
$ATTDIA
 70
     1
  9
$ATTREQ
 70
     1
  9
$HANDLING
 70
     1
  9
$HANDSEED
  5
749B
  9
$SURFTAB1
 70
     6
  9
$SURFTAB2
 70
     6
  9
$SURFTYPE
 70
     6
  9
$SURFU
 70
     6
  9
$SURFV
 70
     6
  9
$UCSNAME
  2

  9
$UCSORG
 10
0.0
 20
0.0
 30
0.0
  9
$UCSXDIR
 10
1.0
 20
0.0
 30
0.0
  9
$UCSYDIR
 10
0.0
 20
1.0
 30
0.0
  9
$PUCSNAME
  2

  9
$PUCSORG
 10
0.0
 20
0.0
 30
0.0
  9
$PUCSXDIR
 10
1.0
 20
0.0
 30
0.0
  9
$PUCSYDIR
 10
0.0
 20
1.0
 30
0.0
  9
$USERI1
 70
     0
  9
$USERI2
 70
     0
  9
$USERI3
 70
     0
  9
$USERI4
 70
     0
  9
$USERI5
 70
     0
  9
$USERR1
 40
0.0
  9
$USERR2
 40
0.0
  9
$USERR3
 40
0.0
  9
$USERR4
 40
0.0
  9
$USERR5
 40
0.0
  9
$WORLDVIEW
 70
     1
  9
$SHADEDGE
 70
     3
  9
$SHADEDIF
 70
    70
  9
$TILEMODE
 70
     1
  9
$MAXACTVP
 70
    64
  9
$PLIMCHECK
 70
     0
  9
$PEXTMIN
 10
1.0000000000000000E+20
 20
1.0000000000000000E+20
 30
1.0000000000000000E+20
  9
$PEXTMAX
 10
-1.0000000000000000E+20
 20
-1.0000000000000000E+20
 30
-1.0000000000000000E+20
  9
$PLIMMIN
 10
0.0
 20
0.0
  9
$PLIMMAX
 10
12.0
 20
9.0
  9
$UNITMODE
 70
     0
  9
$VISRETAIN
 70
     1
  9
$PLINEGEN
 70
     0
  9
$PSLTSCALE
 70
     1
  0
ENDSEC
  0
SECTION
  2
TABLES
  0
TABLE
  2
VPORT
 70
     1
  0
VPORT
  2
*ACTIVE
 70
     0
 10
0.0
 20
0.0
 11
1.0
 21
1.0
 12
0.0
 22
0.0
 13
0.0
 23
0.0
 14
1.0
 24
1.0
 15
0.0
 25
0.0
 16
0.0
 26
0.0
 36
189.1536462375302108
 17
3191.285888671875
 27
151.8709564208984091
 37
0.0
 40
66.0582085244108015
 41
2.1481900452488678
 42
50.0
 43
0.0
 44
0.0
 50
0.0
 51
0.0
 71
     0
 72
   100
 73
     1
 74
     1
 75
     0
 76
     0
 77
     0
 78
     0
  0
ENDTAB
  0
TABLE
  2
LTYPE
 70
     2
  0
LTYPE
  2
CONTINUOUS
 70
     0
  3
Solid line
 72
    65
 73
     0
 40
0.0
  0
LTYPE
  2
PHANTOM2
 70
     0
  3
___ _ _ ___ _ _ ___ _ _ ___ _ _
 72
    65
 73
     6
 40
1.25
 49
0.625
 49
-0.125
 49
0.125
 49
-0.125
 49
0.125
 49
-0.125
  0
ENDTAB
  0
TABLE
  2
LAYER
 70
     2
  0
LAYER
  2
0
 70
     0
 62
   255
  6
CONTINUOUS
  0
LAYER
  2
DEFPOINTS
 70
     0
 62
     7
  6
CONTINUOUS
  0
ENDTAB
  0
TABLE
  2
STYLE
 70
     1
  0
STYLE
  2
STANDARD
 70
     0
 40
0.0
 41
0.8
 50
0.0
 71
     0
 42
0.2
  3
txt
  4

  0
ENDTAB
  0
TABLE
  2
VIEW
 70
     0
  0
ENDTAB
  0
TABLE
  2
UCS
 70
     0
  0
ENDTAB
  0
TABLE
  2
APPID
 70
     9
  0
APPID
  2
ACAD
 70
     0
  0
APPID
  2
ACAD_MLEADERVER
 70
     0
  0
APPID
  2
ACAD_EXEMPT_FROM_CAD_STANDARDS
 70
     0
  0
APPID
  2
ACAD_NAV_VCDISPLAY
 70
     0
  0
APPID
  2
ACAECLAYERSTANDARD
 70
     0
  0
APPID
  2
ACCMTRANSPARENCY
 70
     0
  0
APPID
  2
ACAD_DSTYLE_DIMJAG
 70
     0
  0
APPID
  2
ACAD_DSTYLE_DIMTALN
 70
     0
  0
APPID
  2
ACDBATTR
 70
     0
  0
ENDTAB
  0
TABLE
  2
DIMSTYLE
 70
     1
  0
DIMSTYLE
  2
STANDARD
 70
     0
  3

  4

  5

  6

  7

 40
1.0
 41
0.1875
 42
0.0625
 43
0.38
 44
0.125
 45
0.0
 46
0.0
 47
0.01
 48
0.01
140
0.15625
141
0.09
142
0.0
143
25.3999999999999986
144
1.0
145
0.0
146
1.0
147
0.09
 71
     1
 72
     0
 73
     1
 74
     1
 75
     0
 76
     0
 77
     0
 78
     4
170
     0
171
     2
172
     0
173
     0
174
     0
175
     0
176
     0
177
     0
178
     0
  0
ENDTAB
  0
ENDSEC
  0
SECTION
  2
BLOCKS
  0
BLOCK
  8
0
  2
$MODEL_SPACE
 70
     0
 10
0.0
 20
0.0
 30
0.0
  3
$MODEL_SPACE
  1

  0
ENDBLK
  5
21
  8
0
  0
BLOCK
 67
     1
  8
0
  2
$PAPER_SPACE
 70
     0
 10
0.0
 20
0.0
 30
0.0
  3
$PAPER_SPACE
  1

  0
ENDBLK
  5
1D
 67
     1
  8
0
  0
ENDSEC
  0
SECTION
  2
ENTITIES
  0
ATTDEF
  5
3930
  8
DEFPOINTS
 10
3191.2827659464919634
 20
151.8751649046830039
 30
0.0
 40
0.001
  1
96129
  3

  2
MODELNUMBER
 70
     0
1001
ACDBATTR
1070
     0
1070
     1
  0
ATTDEF
  5
3931
  8
DEFPOINTS
 10
3191.2827659464919634
 20
151.8734982380163956
 30
0.0
 40
0.001
  1
STUDIO
  3

  2
TRADENAME
 70
     0
1001
ACDBATTR
1070
     0
1070
     1
  0
ATTDEF
  5
3932
  8
DEFPOINTS
 10
3191.2827659464919634
 20
151.871831571349702
 30
0.0
 40
0.001
  1
BATH
  3

  2
PRODUCT
 70
     0
1001
ACDBATTR
1070
     0
1070
     1
  0
ARC
  5
73A9
  8
0
 10
3184.0644004857690561
 20
177.7500256161731045
 30
0.0
 40
40.6429957193948823
 50
250.5127675902882913
 51
269.8329520412776787
  0
ARC
  5
73AA
  8
0
 10
3176.5576546300148948
 20
154.1699212593360926
 30
0.0
 40
15.9290094089611305
 50
222.0831786414589999
 51
247.6717468689178077
  0
ARC
  5
73AB
  8
0
 10
3176.0628011245530615
 20
152.2380804115946091
 30
0.0
 40
14.3095106423902294
 50
181.5232428856812135
 51
217.6659402466088977
  0
ARC
  5
73AC
  8
0
 10
3175.6683216733099471
 20
151.6545373524579077
 30
0.0
 40
13.9114580935958205
 50
143.7114249438203899
 51
179.1632310971818924
  0
ARC
  5
73AD
  8
0
 10
3177.1596299544839894
 20
148.8439395255877002
 30
0.0
 40
16.833874398121111
 50
101.8024209908311946
 51
138.9994891884259118
  0
ARC
  5
73AE
  8
0
 10
3184.4737969835477998
 20
116.375150043516598
 30
0.0
 40
50.1149356456742723
 50
91.2986470544790478
 51
102.3951737373641038
  0
ARC
  5
73AF
  8
0
 10
3191.6984442200459853
 20
-54.8139178289323183
 30
0.0
 40
221.4490047250741043
 50
90.1067365477447737
 51
92.1636209287803894
  0
LINE
  5
73B0
  8
0
 10
3189.4715264852547989
 20
164.8642640296532988
 30
0.0
 11
3193.1002858744550394
 21
164.8642640296532988
 31
0.0
  0
LINE
  5
73B1
  8
0
 10
3189.4715264852547989
 20
164.7323158173026059
 30
0.0
 11
3193.1002858744550394
 21
164.7323158173026059
 31
0.0
  0
ARC
  5
73B2
  8
0
 10
3189.4855726362238784
 20
164.6259069421330139
 30
0.0
 40
0.2387705918411381
 50
93.372484282970504
 51
134.7744616444929022
  0
ARC
  5
73B3
  8
0
 10
3189.4753347765199578
 20
164.961419395969898
 30
0.0
 40
0.2291352282835613
 50
226.4288589800881937
 51
269.0476843514787788
  0
LINE
  5
73B4
  8
0
 10
3194.5449296484880506
 20
159.5169926197025916
 30
0.0
 11
3188.0268827112217878
 21
159.5169926197025916
 31
0.0
  0
ARC
  5
73B5
  8
0
 10
3191.8778005898921037
 20
78.0909037787672275
 30
0.0
 40
81.5170995094904356
 50
92.707695590319247
 51
96.5570012830971649
  0
ARC
  5
73B6
  8
0
 10
3183.9570510152298084
 20
141.2752604970214918
 30
0.0
 40
17.8535403411067897
 50
94.4583058417731962
 51
119.3510928669853968
  0
ARC
  5
73B7
  8
0
 10
3179.1733811714038893
 20
151.7337085860193042
 30
0.0
 40
6.4640444884436503
 50
127.8624140527018938
 51
178.9010733879165969
  0
ARC
  5
73B8
  8
0
 10
3178.8431314698559618
 20
151.7992629487480087
 30
0.0
 40
6.1328840953671397
 50
179.4542311180638023
 51
230.5372047888550071
  0
ARC
  5
73B9
  8
0
 10
3182.3088970950589101
 20
158.2359949590529027
 30
0.0
 40
13.3801106261785403
 50
236.6092695663784014
 51
260.8168387084255073
  0
LINE
  5
73BA
  8
0
 10
3194.5449296484871411
 20
144.198403433407691
 30
0.0
 11
3188.0268827112217878
 21
144.198403433407691
 31
0.0
  0
ARC
  5
73BB
  8
0
 10
3189.6821574883520043
 20
197.4939112051494874
 30
0.0
 40
53.3212066933559399
 50
259.7276772163286864
 51
268.2210549230516108
  0
ARC
  5
73BC
  8
0
 10
3206.014157729695853
 20
154.1699212593360926
 30
0.0
 40
15.9290094089611305
 50
292.3282531310821923
 51
317.9168213585409717
  0
ARC
  5
73BD
  8
0
 10
3206.5090112351567768
 20
152.2380804115946091
 30
0.0
 40
14.3095106423902294
 50
322.3340597533911023
 51
358.4767571143170812
  0
ARC
  5
73BE
  8
0
 10
3206.9034906863998913
 20
151.6545373524579077
 30
0.0
 40
13.9114580935958205
 50
0.8367689028180855
 51
36.2885750561795675
  0
ARC
  5
73BF
  8
0
 10
3205.4121824052272132
 20
148.8439395255877002
 30
0.0
 40
16.833874398121111
 50
41.0005108115740811
 51
78.1975790091687486
  0
ARC
  5
73C0
  8
0
 10
3198.0980153761629481
 20
116.375150043516598
 30
0.0
 40
50.1149356456742723
 50
77.6048262626359104
 51
88.7013529455209522
  0
ARC
  5
73C1
  8
0
 10
3190.8733681396638531
 20
-54.8139178289323183
 30
0.0
 40
221.4490047250741043
 50
87.8363790712196248
 51
89.8932634522812748
  0
ARC
  5
73C2
  8
0
 10
3193.08623972348596
 20
164.6259069421330139
 30
0.0
 40
0.2387705918411381
 50
45.2255383555070765
 51
86.627515717029496
  0
ARC
  5
73C3
  8
0
 10
3193.0964775831898805
 20
164.961419395969898
 30
0.0
 40
0.2291352282835613
 50
270.9523156485212212
 51
313.5711410199116926
  0
ARC
  5
73C4
  8
0
 10
3190.6940117698190988
 20
78.0909037787672275
 30
0.0
 40
81.5170995094904356
 50
83.4429987169028493
 51
87.2923044096807956
  0
ARC
  5
73C5
  8
0
 10
3198.6147613444809394
 20
141.2752604970214918
 30
0.0
 40
17.8535403411067897
 50
60.6489071330145819
 51
85.5416941582268038
  0
ARC
  5
73C6
  8
0
 10
3203.3984311883068585
 20
151.7337085860193042
 30
0.0
 40
6.4640444884436503
 50
1.098926612083301
 51
52.1375859472980707
  0
ARC
  5
73C7
  8
0
 10
3203.7286808898538766
 20
151.7992629487480087
 30
0.0
 40
6.1328840953671397
 50
309.4627952111450213
 51
0.5457688819361729
  0
ARC
  5
73C8
  8
0
 10
3200.2629152646518378
 20
158.2359949590529027
 30
0.0
 40
13.3801106261785403
 50
279.1831612915744927
 51
303.3907304336216271
  0
ARC
  5
73C9
  8
0
 10
3192.8896548713578341
 20
197.4939112051494874
 30
0.0
 40
53.3212066933559399
 50
271.7789450769483892
 51
280.2723227836714273
  0
LINE
  5
73CA
  8
0
 10
3183.9459045003650317
 20
137.1072026366088039
 30
0.0
 11
3198.6259078593438971
 21
137.1072026366088039
 31
0.0
  0
ARC
  5
73CB
  8
0
 10
3198.5074118739407822
 20
177.7500256161731045
 30
0.0
 40
40.6429957193948823
 50
270.1670479587223213
 51
289.4872324097116802
  0
CIRCLE
  5
73CC
  8
0
 10
3191.2859061798549192
 20
151.870902636608804
 30
0.0
 40
1.4399999999999991
  0
CIRCLE
  5
73CD
  8
0
 10
3191.2859061798549192
 20
151.870902636608804
 30
0.0
 40
1.0039406429999991
  0
ENDSEC
  0
EOF
