  0
SECTION
  2
HEADER
  9
$ACADVER
  1
AC1009
  9
$INSBASE
 10
290.59849715090422
 20
-19.560745208074781
 30
0.0
  9
$EXTMIN
 10
274.84922151340419
 20
-29.810745208074781
 30
0.0
  9
$EXTMAX
 10
306.3477727884042
 20
-9.3107452080747777
 30
0.0
  9
$LIMMIN
 10
0.0
 20
0.0
  9
$LIMMAX
 10
11.692913385800001
 20
8.2677165353999982
  9
$ORTHOMODE
 70
     0
  9
$REGENMODE
 70
     1
  9
$FILLMODE
 70
     1
  9
$QTEXTMODE
 70
     0
  9
$MIRRTEXT
 70
     0
  9
$DRAGMODE
 70
     2
  9
$LTSCALE
 40
0.6431102362
  9
$OSMODE
 70
  3071
  9
$ATTMODE
 70
     1
  9
$TEXTSIZE
 40
0.2
  9
$TRACEWID
 40
0.05
  9
$TEXTSTYLE
  7
STANDARD
  9
$CLAYER
  8
0
  9
$CELTYPE
  6
BYLAYER
  9
$CECOLOR
 62
   256
  9
$DIMSCALE
 40
1.0
  9
$DIMASZ
 40
0.1875
  9
$DIMEXO
 40
0.0625
  9
$DIMDLI
 40
0.4443307087
  9
$DIMRND
 40
0.0
  9
$DIMDLE
 40
0.0
  9
$DIMEXE
 40
0.125
  9
$DIMTP
 40
0.01
  9
$DIMTM
 40
0.01
  9
$DIMTXT
 40
1.0
  9
$DIMCEN
 40
0.1052362205
  9
$DIMTSZ
 40
0.0
  9
$DIMTOL
 70
     1
  9
$DIMLIM
 70
     0
  9
$DIMTIH
 70
     1
  9
$DIMTOH
 70
     1
  9
$DIMSE1
 70
     0
  9
$DIMSE2
 70
     0
  9
$DIMTAD
 70
     0
  9
$DIMZIN
 70
     0
  9
$DIMBLK
  1

  9
$DIMASO
 70
     1
  9
$DIMSHO
 70
     1
  9
$DIMPOST
  1
\X
  9
$DIMAPOST
  1

  9
$DIMALT
 70
     1
  9
$DIMALTD
 70
     2
  9
$DIMALTF
 40
25.399999999999999
  9
$DIMLFAC
 40
1.0
  9
$DIMTOFL
 70
     0
  9
$DIMTVP
 40
0.0
  9
$DIMTIX
 70
     0
  9
$DIMSOXD
 70
     0
  9
$DIMSAH
 70
     0
  9
$DIMBLK1
  1

  9
$DIMBLK2
  1

  9
$DIMSTYLE
  2
STANDARD
  9
$DIMCLRD
 70
     0
  9
$DIMCLRE
 70
     0
  9
$DIMCLRT
 70
     0
  9
$DIMTFAC
 40
1.0
  9
$DIMGAP
 40
0.09
  9
$LUNITS
 70
     2
  9
$LUPREC
 70
     4
  9
$SKETCHINC
 40
0.1
  9
$FILLETRAD
 40
0.0
  9
$AUNITS
 70
     0
  9
$AUPREC
 70
     0
  9
$MENU
  1
.
  9
$ELEVATION
 40
0.0
  9
$PELEVATION
 40
0.0
  9
$THICKNESS
 40
0.0
  9
$LIMCHECK
 70
     0
  9
$BLIPMODE
 70
     0
  9
$CHAMFERA
 40
0.0
  9
$CHAMFERB
 40
0.0
  9
$SKPOLY
 70
     0
  9
$TDCREATE
 40
2458253.5971970828
  9
$TDUPDATE
 40
2458389.635175914
  9
$TDINDWG
 40
0.0328871875
  9
$TDUSRTIMER
 40
0.0328871875
  9
$USRTIMER
 70
     1
  9
$ANGBASE
 50
0.0
  9
$ANGDIR
 70
     0
  9
$PDMODE
 70
     0
  9
$PDSIZE
 40
0.3125
  9
$PLINEWID
 40
0.0
  9
$COORDS
 70
     1
  9
$SPLFRAME
 70
     0
  9
$SPLINETYPE
 70
     6
  9
$SPLINESEGS
 70
     8
  9
$ATTDIA
 70
     1
  9
$ATTREQ
 70
     1
  9
$HANDLING
 70
     1
  9
$HANDSEED
  5
175B
  9
$SURFTAB1
 70
     6
  9
$SURFTAB2
 70
     6
  9
$SURFTYPE
 70
     6
  9
$SURFU
 70
     6
  9
$SURFV
 70
     6
  9
$UCSNAME
  2

  9
$UCSORG
 10
0.0
 20
0.0
 30
0.0
  9
$UCSXDIR
 10
1.0
 20
0.0
 30
0.0
  9
$UCSYDIR
 10
0.0
 20
1.0
 30
0.0
  9
$PUCSNAME
  2

  9
$PUCSORG
 10
0.0
 20
0.0
 30
0.0
  9
$PUCSXDIR
 10
1.0
 20
0.0
 30
0.0
  9
$PUCSYDIR
 10
0.0
 20
1.0
 30
0.0
  9
$USERI1
 70
     0
  9
$USERI2
 70
     0
  9
$USERI3
 70
     0
  9
$USERI4
 70
     0
  9
$USERI5
 70
     0
  9
$USERR1
 40
0.0
  9
$USERR2
 40
0.0
  9
$USERR3
 40
0.0
  9
$USERR4
 40
0.0
  9
$USERR5
 40
0.0
  9
$WORLDVIEW
 70
     1
  9
$SHADEDGE
 70
     3
  9
$SHADEDIF
 70
    70
  9
$TILEMODE
 70
     1
  9
$MAXACTVP
 70
    64
  9
$PLIMCHECK
 70
     0
  9
$PEXTMIN
 10
1.0000000000000000E+020
 20
1.0000000000000000E+020
 30
1.0000000000000000E+020
  9
$PEXTMAX
 10
-1.0000000000000000E+020
 20
-1.0000000000000000E+020
 30
-1.0000000000000000E+020
  9
$PLIMMIN
 10
0.0
 20
0.0
  9
$PLIMMAX
 10
12.0
 20
9.0
  9
$UNITMODE
 70
     0
  9
$VISRETAIN
 70
     1
  9
$PLINEGEN
 70
     0
  9
$PSLTSCALE
 70
     1
  0
ENDSEC
  0
SECTION
  2
TABLES
  0
TABLE
  2
VPORT
 70
     1
  0
VPORT
  2
*ACTIVE
 70
     0
 10
0.0
 20
0.0
 11
1.0
 21
1.0
 12
0.0
 22
0.0
 13
0.0
 23
0.0
 14
1.0
 24
1.0
 15
0.0
 25
0.0
 16
0.0
 26
0.0
 36
108.2901233967625
 17
290.59849715090422
 27
-19.560745208074781
 37
0.0
 40
37.58202672054562
 41
2.1637831603229518
 42
50.0
 43
0.0
 44
0.0
 50
0.0
 51
0.0
 71
     0
 72
   100
 73
     1
 74
     1
 75
     0
 76
     0
 77
     0
 78
     0
  0
ENDTAB
  0
TABLE
  2
LTYPE
 70
     2
  0
LTYPE
  2
CONTINUOUS
 70
     0
  3
Solid line
 72
    65
 73
     0
 40
0.0
  0
LTYPE
  2
PHANTOM2
 70
     0
  3
___ _ _ ___ _ _ ___ _ _ ___ _ _
 72
    65
 73
     6
 40
1.25
 49
0.625
 49
-0.125
 49
0.125
 49
-0.125
 49
0.125
 49
-0.125
  0
ENDTAB
  0
TABLE
  2
LAYER
 70
     2
  0
LAYER
  2
0
 70
     0
 62
   255
  6
CONTINUOUS
  0
LAYER
  2
DEFPOINTS
 70
     0
 62
     7
  6
CONTINUOUS
  0
ENDTAB
  0
TABLE
  2
STYLE
 70
     1
  0
STYLE
  2
STANDARD
 70
     0
 40
0.0
 41
0.8
 50
0.0
 71
     0
 42
0.2
  3
txt
  4

  0
ENDTAB
  0
TABLE
  2
VIEW
 70
     0
  0
ENDTAB
  0
TABLE
  2
UCS
 70
     0
  0
ENDTAB
  0
TABLE
  2
APPID
 70
     9
  0
APPID
  2
ACAD
 70
     0
  0
APPID
  2
ACAD_MLEADERVER
 70
     0
  0
APPID
  2
ACAD_EXEMPT_FROM_CAD_STANDARDS
 70
     0
  0
APPID
  2
ACAD_DSTYLE_DIMJAG
 70
     0
  0
APPID
  2
ACAD_DSTYLE_DIMTALN
 70
     0
  0
APPID
  2
ACAD_NAV_VCDISPLAY
 70
     0
  0
APPID
  2
ACAECLAYERSTANDARD
 70
     0
  0
APPID
  2
ACCMTRANSPARENCY
 70
     0
  0
APPID
  2
ACDBATTR
 70
     0
  0
ENDTAB
  0
TABLE
  2
DIMSTYLE
 70
     1
  0
DIMSTYLE
  2
STANDARD
 70
     0
  3

  4

  5

  6

  7

 40
1.0
 41
0.1875
 42
0.0625
 43
0.38
 44
0.125
 45
0.0
 46
0.0
 47
0.01
 48
0.01
140
0.15625
141
0.09
142
0.0
143
25.399999999999999
144
1.0
145
0.0
146
1.0
147
0.09
 71
     1
 72
     0
 73
     1
 74
     1
 75
     0
 76
     0
 77
     0
 78
     4
170
     0
171
     2
172
     0
173
     0
174
     0
175
     0
176
     0
177
     0
178
     0
  0
ENDTAB
  0
ENDSEC
  0
SECTION
  2
BLOCKS
  0
BLOCK
  8
0
  2
$MODEL_SPACE
 70
     0
 10
0.0
 20
0.0
 30
0.0
  3
$MODEL_SPACE
  1

  0
ENDBLK
  5
21
  8
0
  0
BLOCK
 67
     1
  8
0
  2
$PAPER_SPACE
 70
     0
 10
0.0
 20
0.0
 30
0.0
  3
$PAPER_SPACE
  1

  0
ENDBLK
  5
1D
 67
     1
  8
0
  0
ENDSEC
  0
SECTION
  2
ENTITIES
  0
ATTDEF
  5
11B2
  8
DEFPOINTS
 10
290.59504038535732
 20
-19.555265953943248
 30
0.0
 40
0.001
  1
96029
  3

  2
MODELNUMBER
 70
     0
1001
ACDBATTR
1070
     0
1070
     1
  0
ATTDEF
  5
11B3
  8
DEFPOINTS
 10
290.59504038535732
 20
-19.556932620609921
 30
0.0
 40
0.001
  1
MCALLISTER
  3

  2
TRADENAME
 70
     0
1001
ACDBATTR
1070
     0
1070
     1
  0
ATTDEF
  5
11B4
  8
DEFPOINTS
 10
290.59504038535732
 20
-19.558599287276579
 30
0.0
 40
0.001
  1
KITCHEN SINK
  3

  2
PRODUCT
 70
     0
1001
ACDBATTR
1070
     0
1070
     1
  0
ATTDEF
  5
11B5
  8
DEFPOINTS
 10
290.59504038535732
 20
-19.560265953943251
 30
0.0
 40
0.001
  1
STAINLESS STEEL
  3

  2
MATERIAL
 70
     0
1001
ACDBATTR
1070
     0
1070
     1
  0
LINE
  5
164F
  8
0
 10
274.9956681228042
 20
-10.662191817574771
 30
0.0
 11
276.20066812290418
 21
-9.4571918174747722
 31
0.0
  0
LINE
  5
1650
  8
0
 10
276.20066812280419
 20
-29.66429859867478
 30
0.0
 11
274.9956681228042
 21
-28.459298598674781
 31
0.0
  0
LINE
  5
1651
  8
0
 10
274.84922151340419
 20
-11.015745208074771
 30
0.0
 11
274.84922151340419
 21
-28.105745208074779
 31
0.0
  0
LINE
  5
1652
  8
0
 10
276.55422151340417
 20
-29.810745208074781
 30
0.0
 11
304.6427727884041
 21
-29.810745208074781
 31
0.0
  0
LINE
  5
1653
  8
0
 10
279.26132641230419
 20
-28.77741785327478
 30
0.0
 11
286.68711200560421
 21
-28.77741785327477
 31
0.0
  0
LINE
  5
1654
  8
0
 10
294.41471549800559
 20
-28.777374792361488
 30
0.0
 11
302.0390818885042
 21
-28.777374792361488
 31
0.0
  0
LINE
  5
1655
  8
0
 10
289.92725801000421
 20
-10.66373840227477
 30
0.0
 11
290.31598436310418
 21
-11.73175527977477
 31
0.0
  0
LINE
  5
1656
  8
0
 10
302.05372792988271
 20
-13.10619146437481
 30
0.0
 11
294.42936178720419
 21
-13.106191464374771
 31
0.0
  0
LINE
  5
1657
  8
0
 10
304.6427727884041
 20
-12.060745208074779
 30
0.0
 11
290.78583067350422
 21
-12.060745208074779
 31
0.0
  0
LINE
  5
1658
  8
0
 10
287.93378601620418
 20
-9.3777325061747732
 30
0.0
 11
289.70741169960422
 21
-10.401735771974771
 31
0.0
  0
LINE
  5
1659
  8
0
 10
286.68711191490422
 20
-10.356022652165089
 30
0.0
 11
279.26133285021541
 21
-10.35602265216513
 31
0.0
  0
LINE
  5
165A
  8
0
 10
287.68378601620418
 20
-9.3107452080747777
 30
0.0
 11
276.55422151340417
 21
-9.3107452080747777
 31
0.0
  0
LINE
  5
165B
  8
0
 10
306.3477727884042
 20
-28.105745208074779
 30
0.0
 11
306.3477727884042
 21
-13.765745208074771
 31
0.0
  0
LINE
  5
165C
  8
0
 10
304.9963261789041
 20
-12.20719181747477
 30
0.0
 11
306.20132617900418
 21
-13.412191817574771
 31
0.0
  0
LINE
  5
165D
  8
0
 10
306.20132617900418
 20
-28.459298598674781
 30
0.0
 11
304.9963261790042
 21
-29.66429859867478
 31
0.0
  0
ARC
  5
165E
  8
0
 10
226.79244564420421
 20
-19.566308808774771
 30
0.0
 40
63.26786262169999
 50
355.25899933540012
 51
359.99959179249981
  0
ARC
  5
165F
  8
0
 10
226.7923839619412
 20
-19.567214957004708
 30
0.0
 40
63.267924303996182
 50
0.0004124057086078
 51
4.741000144886609
  0
ARC
  5
1660
  8
0
 10
275.34922151340419
 20
-11.015745208074771
 30
0.0
 40
0.5
 50
135.00000000399939
 51
180.0
  0
ARC
  5
1661
  8
0
 10
276.55422151340417
 20
-9.8107452080747777
 30
0.0
 40
0.5
 50
90.0
 51
134.99999999599891
  0
ARC
  5
1662
  8
0
 10
276.55422151340417
 20
-29.310745208074781
 30
0.0
 40
0.5
 50
225.00000000199961
 51
270.0
  0
ARC
  5
1663
  8
0
 10
275.34922151340419
 20
-28.105745208074779
 30
0.0
 40
0.5
 50
180.0
 51
224.99999999819971
  0
ARC
  5
1664
  8
0
 10
305.8477727884042
 20
-28.105745208074779
 30
0.0
 40
0.5
 50
315.00000000029991
 51
359.99999999980008
  0
ARC
  5
1665
  8
0
 10
304.6427727884041
 20
-29.310745208074781
 30
0.0
 40
0.5
 50
270.0
 51
314.99999999959982
  0
ARC
  5
1666
  8
0
 10
287.68378601620418
 20
-9.8107452080747777
 30
0.0
 40
0.5
 50
60.000000002500869
 51
90.0
  0
ARC
  5
1667
  8
0
 10
289.45741169960422
 20
-10.83474847387477
 30
0.0
 40
0.5
 50
19.999999994500332
 51
60.000000000598412
  0
ARC
  5
1668
  8
0
 10
290.78583067350422
 20
-11.560745208074779
 30
0.0
 40
0.5
 50
200.00000000230011
 51
270.0
  0
ARC
  5
1669
  8
0
 10
304.6427727884041
 20
-12.560745208074779
 30
0.0
 40
0.5
 50
45.00000000220011
 51
90.0
  0
ARC
  5
166A
  8
0
 10
305.83766886842909
 20
-13.76993038876134
 30
0.0
 40
0.5101210884792735
 50
0.4700763907458584
 51
44.529923607056283
  0
ARC
  5
166B
  8
0
 10
339.15575899570422
 20
-19.566317419474782
 30
0.0
 40
63.267629093400011
 50
180.00040116080001
 51
184.74101040229991
  0
ARC
  5
166C
  8
0
 10
339.15286283180421
 20
-19.56708343997477
 30
0.0
 40
63.264732921700002
 50
175.25888112559969
 51
179.9997074317001
  0
ARC
  5
166D
  8
0
 10
279.49457114369892
 20
-13.59413205856862
 30
0.0
 40
3.2464985183095152
 50
94.119851704911184
 51
159.8788933195795
  0
ARC
  5
166E
  8
0
 10
284.38188480372582
 20
-14.89596800458186
 30
0.0
 40
8.2960673408307741
 50
163.04972141901251
 51
176.14366861167991
  0
ARC
  5
166F
  8
0
 10
286.65532028021278
 20
-13.32678416314314
 30
0.0
 40
2.9709316153598682
 50
16.614172014683831
 51
89.386872034477662
  0
ARC
  5
1670
  8
0
 10
281.55377281344659
 20
-14.898327994327969
 30
0.0
 40
8.3089778424585212
 50
3.8666521002516618
 51
16.940150606296751
  0
ARC
  5
1671
  8
0
 10
279.35370955504169
 20
-25.72621222467745
 30
0.0
 40
3.0526038775193198
 50
197.73737406249251
 51
268.26575188998407
  0
ARC
  5
1672
  8
0
 10
286.69420525913688
 20
-25.85822996539094
 30
0.0
 40
2.919196505720933
 50
269.86077885145301
 51
344.13610690368762
  0
ARC
  5
1673
  8
0
 10
281.5653766592896
 20
-24.237320575278929
 30
0.0
 40
8.2972570917087332
 50
343.05055704985398
 51
356.14261488504661
  0
ARC
  5
1674
  8
0
 10
284.39465257996733
 20
-24.235193812624338
 30
0.0
 40
8.3089649990063581
 50
183.86664051500259
 51
196.94017062933511
  0
ARC
  5
1675
  8
0
 10
332.2939769617077
 20
-20.947156128303298
 30
0.0
 40
41.147272712911047
 50
172.3172171014111
 51
187.6475734589107
  0
ARC
  5
1676
  8
0
 10
264.0137388868626
 20
-20.936276932425709
 30
0.0
 40
41.306570355036747
 50
352.3469492455821
 51
7.6178314361216444
  0
ARC
  5
1677
  8
0
 10
294.43647300608501
 20
-16.098554276797429
 30
0.0
 40
2.9923712621605021
 50
90.136160648822624
 51
167.4089194152314
  0
ARC
  5
1678
  8
0
 10
301.93210185803741
 20
-16.22185488790706
 30
0.0
 40
3.1180364767092432
 50
14.133679306577729
 51
87.764481245727836
  0
ARC
  5
1679
  8
0
 10
294.45268962871421
 20
-25.764849301972109
 30
0.0
 40
3.0127648207002342
 50
192.61842431461031
 51
269.27780123416028
  0
ARC
  5
167A
  8
0
 10
302.0071266110678
 20
-25.75410533551582
 30
0.0
 40
3.0234383321728191
 50
270.60558093748801
 51
346.94141835259347
  0
ARC
  5
167B
  8
0
 10
282.93751485765517
 20
-197.240036576454
 30
0.0
 40
184.7573252840325
 50
88.685222350582947
 51
91.283624885906235
  0
ARC
  5
167C
  8
0
 10
244.4284391761303
 20
-19.661403842244649
 30
0.0
 40
43.582686915468159
 50
351.60434971725988
 51
8.8810585693710422
  0
ARC
  5
167D
  8
0
 10
286.95953900335678
 20
-13.021887300066011
 30
0.0
 40
0.5364964560693089
 50
9.5428195784238721
 51
66.11053020737377
  0
ARC
  5
167E
  8
0
 10
286.81593696454632
 20
-25.95340245979304
 30
0.0
 40
0.7316259892787425
 50
297.14966047290091
 51
354.3980399996326
  0
ARC
  5
167F
  8
0
 10
283.01087270042279
 20
157.8384434078701
 30
0.0
 40
184.48929259584111
 50
268.68332897177982
 51
271.28550756326922
  0
ARC
  5
1680
  8
0
 10
279.2835201877823
 20
-25.86871194509115
 30
0.0
 40
0.8943925196228723
 50
190.06533324125229
 51
235.08746812496031
  0
ARC
  5
1681
  8
0
 10
279.16151105325912
 20
-13.200092235585959
 30
0.0
 40
0.7628423826814474
 50
118.4026298766652
 51
173.20717232469249
  0
ARC
  5
1682
  8
0
 10
323.0069318630816
 20
-19.571348617309429
 30
0.0
 40
45.068505827018662
 50
171.7570818550972
 51
188.2328884351833
  0
ARC
  5
1683
  8
0
 10
298.22462375038498
 20
-189.65703843915671
 30
0.0
 40
174.49305835635991
 50
88.607603938687163
 51
91.383287315446267
  0
ARC
  5
1684
  8
0
 10
298.24382013136722
 20
147.77306875646329
 30
0.0
 40
174.49257922100611
 50
268.60759985013431
 51
271.38329092318202
  0
ARC
  5
1685
  8
0
 10
334.33443588324059
 20
-21.026380361360012
 30
0.0
 40
41.140470773741967
 50
172.84594119372909
 51
186.58396409046861
  0
ARC
  5
1686
  8
0
 10
262.12128910184589
 20
-20.85645780011254
 30
0.0
 40
41.153187864813937
 50
352.84745873431041
 51
6.5779194932619172
  0
ARC
  5
1687
  8
0
 10
294.19234395719292
 20
-15.869430785136471
 30
0.0
 40
0.6789178310289654
 50
105.3817760935802
 51
182.8207318807564
  0
ARC
  5
1688
  8
0
 10
302.09508276296611
 20
-16.050444056662801
 30
0.0
 40
0.9131023060460716
 50
354.23382925721
 51
66.120587764268663
  0
ARC
  5
1689
  8
0
 10
294.4962384804931
 20
-25.762100984606139
 30
0.0
 40
1.031115256633867
 50
178.9669354510672
 51
241.46786149727711
  0
ARC
  5
168A
  8
0
 10
302.21786435581612
 20
-25.971870380387401
 30
0.0
 40
0.7364162967651764
 50
288.88186838640178
 51
359.32862532507221
  0
CIRCLE
  5
168B
  8
0
 10
298.23422151340418
 20
-20.941745208074781
 30
0.0
 40
0.31
  0
CIRCLE
  5
168C
  8
0
 10
298.23422151340418
 20
-20.941745208074781
 30
0.0
 40
0.2760925586
  0
CIRCLE
  5
168D
  8
0
 10
298.23422151340418
 20
-20.941745208074781
 30
0.0
 40
2.25
  0
CIRCLE
  5
168E
  8
0
 10
298.23422151340418
 20
-20.941745208074781
 30
0.0
 40
1.6780895467000001
  0
CIRCLE
  5
168F
  8
0
 10
282.97422151340419
 20
-19.566745208074781
 30
0.0
 40
0.31
  0
CIRCLE
  5
1690
  8
0
 10
282.97422151340419
 20
-19.566745208074781
 30
0.0
 40
0.2760925586
  0
CIRCLE
  5
1691
  8
0
 10
282.97422151340419
 20
-19.566745208074781
 30
0.0
 40
2.25
  0
CIRCLE
  5
1692
  8
0
 10
282.97422151340419
 20
-19.566745208074781
 30
0.0
 40
1.6780895467000001
  0
ENDSEC
  0
EOF
