  0
SECTION
  2
HEADER
  9
$ACADVER
  1
AC1009
  9
$INSBASE
 10
4636.3570180496526518
 20
289.3587206973493267
 30
0.0
  9
$EXTMIN
 10
4606.2260830169034307
 20
272.2277206973491275
 30
0.0
  9
$EXTMAX
 10
4666.4879530824046014
 20
306.4897206973491848
 30
0.0
  9
$LIMMIN
 10
0.0
 20
0.0
  9
$LIMMAX
 10
11.6929133858000007
 20
8.2677165353999982
  9
$ORTHOMODE
 70
     1
  9
$REGENMODE
 70
     1
  9
$FILLMODE
 70
     1
  9
$QTEXTMODE
 70
     0
  9
$MIRRTEXT
 70
     0
  9
$DRAGMODE
 70
     2
  9
$LTSCALE
 40
0.6431102362
  9
$OSMODE
 70
  4095
  9
$ATTMODE
 70
     1
  9
$TEXTSIZE
 40
0.2
  9
$TRACEWID
 40
0.05
  9
$TEXTSTYLE
  7
STANDARD
  9
$CLAYER
  8
0
  9
$CELTYPE
  6
BYLAYER
  9
$CECOLOR
 62
   256
  9
$DIMSCALE
 40
1.0
  9
$DIMASZ
 40
0.1875
  9
$DIMEXO
 40
0.0625
  9
$DIMDLI
 40
0.4443307087
  9
$DIMRND
 40
0.0
  9
$DIMDLE
 40
0.0
  9
$DIMEXE
 40
0.125
  9
$DIMTP
 40
0.01
  9
$DIMTM
 40
0.01
  9
$DIMTXT
 40
2.0
  9
$DIMCEN
 40
0.1052362205
  9
$DIMTSZ
 40
0.0
  9
$DIMTOL
 70
     1
  9
$DIMLIM
 70
     0
  9
$DIMTIH
 70
     1
  9
$DIMTOH
 70
     1
  9
$DIMSE1
 70
     0
  9
$DIMSE2
 70
     0
  9
$DIMTAD
 70
     0
  9
$DIMZIN
 70
     0
  9
$DIMBLK
  1

  9
$DIMASO
 70
     1
  9
$DIMSHO
 70
     1
  9
$DIMPOST
  1
\X
  9
$DIMAPOST
  1

  9
$DIMALT
 70
     1
  9
$DIMALTD
 70
     2
  9
$DIMALTF
 40
25.3999999999999986
  9
$DIMLFAC
 40
1.0
  9
$DIMTOFL
 70
     0
  9
$DIMTVP
 40
0.0
  9
$DIMTIX
 70
     0
  9
$DIMSOXD
 70
     0
  9
$DIMSAH
 70
     0
  9
$DIMBLK1
  1

  9
$DIMBLK2
  1

  9
$DIMSTYLE
  2
STANDARD
  9
$DIMCLRD
 70
     0
  9
$DIMCLRE
 70
     0
  9
$DIMCLRT
 70
     0
  9
$DIMTFAC
 40
1.0
  9
$DIMGAP
 40
0.09
  9
$LUNITS
 70
     2
  9
$LUPREC
 70
     4
  9
$SKETCHINC
 40
0.1
  9
$FILLETRAD
 40
0.0
  9
$AUNITS
 70
     0
  9
$AUPREC
 70
     0
  9
$MENU
  1
.
  9
$ELEVATION
 40
0.0
  9
$PELEVATION
 40
0.0
  9
$THICKNESS
 40
0.0
  9
$LIMCHECK
 70
     0
  9
$BLIPMODE
 70
     0
  9
$CHAMFERA
 40
0.0
  9
$CHAMFERB
 40
0.0
  9
$SKPOLY
 70
     0
  9
$TDCREATE
 40
2458060.468368056230247
  9
$TDUPDATE
 40
2459173.8205092591233552
  9
$TDINDWG
 40
0.3399954861
  9
$TDUSRTIMER
 40
0.3399954861
  9
$USRTIMER
 70
     1
  9
$ANGBASE
 50
0.0
  9
$ANGDIR
 70
     0
  9
$PDMODE
 70
     0
  9
$PDSIZE
 40
0.3125
  9
$PLINEWID
 40
0.0
  9
$COORDS
 70
     1
  9
$SPLFRAME
 70
     0
  9
$SPLINETYPE
 70
     6
  9
$SPLINESEGS
 70
     8
  9
$ATTDIA
 70
     1
  9
$ATTREQ
 70
     1
  9
$HANDLING
 70
     1
  9
$HANDSEED
  5
BFFF
  9
$SURFTAB1
 70
     6
  9
$SURFTAB2
 70
     6
  9
$SURFTYPE
 70
     6
  9
$SURFU
 70
     6
  9
$SURFV
 70
     6
  9
$UCSNAME
  2

  9
$UCSORG
 10
0.0
 20
0.0
 30
0.0
  9
$UCSXDIR
 10
1.0
 20
0.0
 30
0.0
  9
$UCSYDIR
 10
0.0
 20
1.0
 30
0.0
  9
$PUCSNAME
  2

  9
$PUCSORG
 10
0.0
 20
0.0
 30
0.0
  9
$PUCSXDIR
 10
1.0
 20
0.0
 30
0.0
  9
$PUCSYDIR
 10
0.0
 20
1.0
 30
0.0
  9
$USERI1
 70
     0
  9
$USERI2
 70
     0
  9
$USERI3
 70
     0
  9
$USERI4
 70
     0
  9
$USERI5
 70
     0
  9
$USERR1
 40
0.0
  9
$USERR2
 40
0.0
  9
$USERR3
 40
0.0
  9
$USERR4
 40
0.0
  9
$USERR5
 40
0.0
  9
$WORLDVIEW
 70
     1
  9
$SHADEDGE
 70
     3
  9
$SHADEDIF
 70
    70
  9
$TILEMODE
 70
     1
  9
$MAXACTVP
 70
    64
  9
$PLIMCHECK
 70
     0
  9
$PEXTMIN
 10
1.0000000000000000E+20
 20
1.0000000000000000E+20
 30
1.0000000000000000E+20
  9
$PEXTMAX
 10
-1.0000000000000000E+20
 20
-1.0000000000000000E+20
 30
-1.0000000000000000E+20
  9
$PLIMMIN
 10
0.0
 20
0.0
  9
$PLIMMAX
 10
12.0
 20
9.0
  9
$UNITMODE
 70
     0
  9
$VISRETAIN
 70
     1
  9
$PLINEGEN
 70
     0
  9
$PSLTSCALE
 70
     1
  0
ENDSEC
  0
SECTION
  2
TABLES
  0
TABLE
  2
VPORT
 70
     1
  0
VPORT
  2
*ACTIVE
 70
     0
 10
0.0
 20
0.0
 11
1.0
 21
1.0
 12
0.0
 22
0.0
 13
0.0
 23
0.0
 14
1.0
 24
1.0
 15
0.0
 25
0.0
 16
0.0
 26
0.0
 36
196.4185746275678923
 17
4636.35693359375
 27
289.3587188720703125
 37
0.0
 40
69.3490571795378798
 41
2.1186252771618621
 42
50.0
 43
0.0
 44
0.0
 50
0.0
 51
0.0
 71
     0
 72
   100
 73
     1
 74
     1
 75
     0
 76
     0
 77
     0
 78
     0
  0
ENDTAB
  0
TABLE
  2
LTYPE
 70
     2
  0
LTYPE
  2
CONTINUOUS
 70
     0
  3
Solid line
 72
    65
 73
     0
 40
0.0
  0
LTYPE
  2
PHANTOM2
 70
     0
  3
___ _ _ ___ _ _ ___ _ _ ___ _ _
 72
    65
 73
     6
 40
1.25
 49
0.625
 49
-0.125
 49
0.125
 49
-0.125
 49
0.125
 49
-0.125
  0
ENDTAB
  0
TABLE
  2
LAYER
 70
     2
  0
LAYER
  2
0
 70
     0
 62
   255
  6
CONTINUOUS
  0
LAYER
  2
DEFPOINTS
 70
     0
 62
     7
  6
CONTINUOUS
  0
ENDTAB
  0
TABLE
  2
STYLE
 70
     1
  0
STYLE
  2
STANDARD
 70
     0
 40
0.0
 41
0.8
 50
0.0
 71
     0
 42
0.2
  3
txt
  4

  0
ENDTAB
  0
TABLE
  2
VIEW
 70
     0
  0
ENDTAB
  0
TABLE
  2
UCS
 70
     0
  0
ENDTAB
  0
TABLE
  2
APPID
 70
     9
  0
APPID
  2
ACAD
 70
     0
  0
APPID
  2
ACAD_MLEADERVER
 70
     0
  0
APPID
  2
ACAD_EXEMPT_FROM_CAD_STANDARDS
 70
     0
  0
APPID
  2
ACAD_NAV_VCDISPLAY
 70
     0
  0
APPID
  2
ACAECLAYERSTANDARD
 70
     0
  0
APPID
  2
ACCMTRANSPARENCY
 70
     0
  0
APPID
  2
ACAD_DSTYLE_DIMJAG
 70
     0
  0
APPID
  2
ACAD_DSTYLE_DIMTALN
 70
     0
  0
APPID
  2
ACDBATTR
 70
     0
  0
ENDTAB
  0
TABLE
  2
DIMSTYLE
 70
     1
  0
DIMSTYLE
  2
STANDARD
 70
     0
  3

  4

  5

  6

  7

 40
1.0
 41
0.1875
 42
0.0625
 43
0.38
 44
0.125
 45
0.0
 46
0.0
 47
0.01
 48
0.01
140
0.15625
141
0.09
142
0.0
143
25.3999999999999986
144
1.0
145
0.0
146
1.0
147
0.09
 71
     1
 72
     0
 73
     1
 74
     1
 75
     0
 76
     0
 77
     0
 78
     4
170
     0
171
     2
172
     0
173
     0
174
     0
175
     0
176
     0
177
     0
178
     0
  0
ENDTAB
  0
ENDSEC
  0
SECTION
  2
BLOCKS
  0
BLOCK
  8
0
  2
$MODEL_SPACE
 70
     0
 10
0.0
 20
0.0
 30
0.0
  3
$MODEL_SPACE
  1

  0
ENDBLK
  5
21
  8
0
  0
BLOCK
 67
     1
  8
0
  2
$PAPER_SPACE
 70
     0
 10
0.0
 20
0.0
 30
0.0
  3
$PAPER_SPACE
  1

  0
ENDBLK
  5
1D
 67
     1
  8
0
  0
ENDSEC
  0
SECTION
  2
ENTITIES
  0
ATTDEF
  5
3930
  8
DEFPOINTS
 10
4636.3534498723993238
 20
289.3630314481297887
 30
0.0
 40
0.001
  1
95337
  3

  2
MODELNUMBER
 70
     0
1001
ACDBATTR
1070
     0
1070
     1
  0
ATTDEF
  5
3931
  8
DEFPOINTS
 10
4636.3534498723993238
 20
289.3613647814631804
 30
0.0
 40
0.001
  1
SPECTACLE
  3

  2
TRADENAME
 70
     0
1001
ACDBATTR
1070
     0
1070
     1
  0
ATTDEF
  5
3932
  8
DEFPOINTS
 10
4636.3534498723993238
 20
289.3596981147965153
 30
0.0
 40
0.001
  1
BATH
  3

  2
PRODUCT
 70
     0
1001
ACDBATTR
1070
     0
1070
     1
  0
CIRCLE
  5
BF2F
  8
0
 10
4636.3570830169028341
 20
290.6087206973493267
 30
0.0
 40
1.4373717718000001
  0
CIRCLE
  5
BF30
  8
0
 10
4636.3570830169028341
 20
290.6087206973493267
 30
0.0
 40
1.0
  0
LINE
  5
BF31
  8
0
 10
4641.0208850561739382
 20
306.4897206973491848
 30
0.0
 11
4631.6931510431359129
 21
306.4897206973491848
 31
0.0
  0
ARC
  5
BF32
  8
0
 10
4632.8642022902577082
 20
164.5576714097618094
 30
0.0
 40
141.9368802531517133
 50
90.4727246024748268
 51
93.8263935383801453
  0
ARC
  5
BF33
  8
0
 10
4624.5528218985118656
 20
278.3184233054590209
 30
0.0
 40
27.8838901465477598
 50
92.3854253633377027
 51
110.6005659015724945
  0
ARC
  5
BF34
  8
0
 10
4619.8369346084082281
 20
292.4277471314072727
 30
0.0
 40
13.0290985482225796
 50
113.0201139115010989
 51
150.6159692573010034
  0
ARC
  5
BF35
  8
0
 10
4631.1134703859279398
 20
288.4200804343674918
 30
0.0
 40
24.9050817223945984
 50
155.3164016246666961
 51
177.8400847591051104
  0
ARC
  5
BF36
  8
0
 10
4627.8060191004396984
 20
289.4900413894417284
 30
0.0
 40
21.5803356436755394
 50
180.3486585185983984
 51
206.0221085171920095
  0
ARC
  5
BF37
  8
0
 10
4619.7799956594835749
 20
286.2454518286286884
 30
0.0
 40
12.9586456117228206
 50
208.7002241761232142
 51
244.1335390987744063
  0
ARC
  5
BF38
  8
0
 10
4627.0546281715023724
 20
311.3126847786443818
 30
0.0
 40
38.9365346985175123
 50
250.607856414469012
 51
265.9575882791361892
  0
LINE
  5
BF39
  8
0
 10
4641.5012960708918399
 20
272.227720697349298
 30
0.0
 11
4631.2127400284152827
 21
272.227720697349298
 31
0.0
  0
ARC
  5
BF3A
  8
0
 10
4633.5477375831942481
 20
435.1875105381391791
 30
0.0
 40
162.9765176905409874
 50
266.7505836517103717
 51
269.1790836840993961
  0
LINE
  5
BF3B
  8
0
 10
4639.4920271799073817
 20
296.7293379016261952
 30
0.0
 11
4633.22200891940156
 21
296.7293379016261952
 31
0.0
  0
LINE
  5
BF3C
  8
0
 10
4640.3741843037487342
 20
276.4586467152116143
 30
0.0
 11
4632.3398517955565694
 21
276.4586467152116143
 31
0.0
  0
ARC
  5
BF3D
  8
0
 10
4634.0559512450681723
 20
234.6606232807868082
 30
0.0
 40
62.0743167057499434
 50
90.7697678459871469
 51
100.4192632039575983
  0
ARC
  5
BF3E
  8
0
 10
4624.7396245213849397
 20
287.7600799625485024
 30
0.0
 40
8.1774389203620572
 50
103.5058867432443037
 51
155.2465818530779131
  0
ARC
  5
BF3F
  8
0
 10
4629.9058246859967767
 20
286.810534281080777
 30
0.0
 40
13.3301730679855392
 50
160.846854982636188
 51
180.8674608006861035
  0
ARC
  5
BF40
  8
0
 10
4626.3145134296128163
 20
286.2308436540037064
 30
0.0
 40
9.7446635193591025
 50
177.7776251238736904
 51
220.2643240244767071
  0
ARC
  5
BF41
  8
0
 10
4626.8179473071259054
 20
288.9299737573555831
 30
0.0
 40
11.9992934545525305
 50
228.5743539319196884
 51
262.9014384091044008
  0
ARC
  5
BF42
  8
0
 10
4633.5622283617431094
 20
335.4199714247516795
 30
0.0
 40
58.9739944040878328
 50
261.9808497948843069
 51
268.8123233837250723
  0
LINE
  5
BF43
  8
0
 10
4641.4790259673891342
 20
274.22738707985269
 30
0.0
 11
4631.235010131920717
 21
274.22738707985269
 31
0.0
  0
LINE
  5
BF44
  8
0
 10
4640.3476999106933363
 20
298.9900542076492798
 30
0.0
 11
4632.3663361886201528
 21
298.9900542076492798
 31
0.0
  0
ARC
  5
BF45
  8
0
 10
4632.9268381002511887
 20
106.6698476149077948
 30
0.0
 40
192.3210233600781009
 50
90.1669835094031669
 51
92.8018357097877811
  0
ARC
  5
BF46
  8
0
 10
4624.9939778857888086
 20
263.6997954121358134
 30
0.0
 40
35.0918939822014835
 50
92.3977709122605262
 51
103.751462847930398
  0
ARC
  5
BF47
  8
0
 10
4619.1189246276981066
 20
287.2025189178453957
 30
0.0
 40
10.8669499387596193
 50
103.1197960128595952
 51
127.9588690463768046
  0
ARC
  5
BF48
  8
0
 10
4618.104060251384908
 20
289.4377694508515901
 30
0.0
 40
8.4997747904936425
 50
131.8359364606475879
 51
180.5327402567980926
  0
ARC
  5
BF49
  8
0
 10
4637.1562376448137002
 20
287.8636654257252872
 30
0.0
 40
27.5921196784398397
 50
176.8939181346576959
 51
182.6069503311518929
  0
ARC
  5
BF4A
  8
0
 10
4623.0209058274804192
 20
287.4983741735554759
 30
0.0
 40
13.4576742229312494
 50
183.7907018072847904
 51
220.8466826546178083
  0
ARC
  5
BF4B
  8
0
 10
4623.5727800127124283
 20
291.1541147884695988
 30
0.0
 40
16.4428933370981696
 50
229.2553353544932975
 51
264.1237306784447014
  0
ARC
  5
BF4C
  8
0
 10
4632.6089286012847879
 20
373.6132435186829071
 30
0.0
 40
99.3953525676137417
 50
263.8087282334579982
 51
269.2079887571850918
  0
LINE
  5
BF4D
  8
0
 10
4640.4993903416407193
 20
305.4247978598493205
 30
0.0
 11
4632.2146457576591274
 21
305.4247978598493205
 31
0.0
  0
LINE
  5
BF4E
  8
0
 10
4642.2947606693041962
 20
273.2838955750543164
 30
0.0
 11
4630.4192754300029264
 21
273.2838955750543164
 31
0.0
  0
ARC
  5
BF4F
  8
0
 10
4631.3850212291335993
 20
367.5756458282315862
 30
0.0
 40
94.2966957573598847
 50
263.4720205898887002
 51
269.4131912545968817
  0
ARC
  5
BF50
  8
0
 10
4623.498149692411971
 20
293.6285870645108957
 30
0.0
 40
19.9406125144649806
 50
232.9858446812338002
 51
261.8305962653477081
  0
ARC
  5
BF51
  8
0
 10
4622.1296227313041527
 20
287.9082433643774266
 30
0.0
 40
14.7378437392573591
 50
185.0586764859585003
 51
223.8068642218840125
  0
ARC
  5
BF52
  8
0
 10
4645.866979605259985
 20
289.2177132411825937
 30
0.0
 40
38.5062833187386673
 50
174.9158240111119085
 51
183.8850508462903974
  0
ARC
  5
BF53
  8
0
 10
4623.7698934620148066
 20
290.0492771502762253
 30
0.0
 40
16.4612701351806088
 50
138.23406034659439
 51
170.9798337215833897
  0
ARC
  5
BF54
  8
0
 10
4620.8284434986244378
 20
290.9160300981179148
 30
0.0
 40
13.7527894670396709
 50
98.8655854142926103
 51
132.7565156392882102
  0
ARC
  5
BF55
  8
0
 10
4628.1353594607608102
 20
250.56479149597331
 30
0.0
 40
54.757202536182092
 50
91.2762394905691963
 51
99.9128496839852858
  0
ARC
  5
BF56
  8
0
 10
4635.7248618762214392
 20
24.9300142062369403
 30
0.0
 40
280.5167468692123975
 50
90.7169832821932545
 51
91.7995609211409942
  0
ARC
  5
BF57
  8
0
 10
4639.8498338090475954
 20
164.5576714097618094
 30
0.0
 40
141.9368802531517133
 50
86.1736064616198405
 51
89.5272753975251874
  0
ARC
  5
BF58
  8
0
 10
4648.1612142007961666
 20
278.3184233054590209
 30
0.0
 40
27.8838901465477598
 50
69.3994340984274629
 51
87.6145746366622973
  0
ARC
  5
BF59
  8
0
 10
4652.8771014908988946
 20
292.4277471314072727
 30
0.0
 40
13.0290985482225796
 50
29.3840307426989611
 51
66.9798860884989011
  0
ARC
  5
BF5A
  8
0
 10
4641.6005657133800923
 20
288.4200804343674918
 30
0.0
 40
24.9050817223945984
 50
2.1599152408948541
 51
24.6835983753332187
  0
ARC
  5
BF5B
  8
0
 10
4644.9080169988683338
 20
289.4900413894417284
 30
0.0
 40
21.5803356436755394
 50
333.9778914828078769
 51
359.6513414814015732
  0
ARC
  5
BF5C
  8
0
 10
4652.9340404398235478
 20
286.2454518286286884
 30
0.0
 40
12.9586456117228206
 50
295.8664609012255937
 51
331.2997758238768142
  0
ARC
  5
BF5D
  8
0
 10
4645.6594079278038407
 20
311.3126847786443818
 30
0.0
 40
38.9365346985175123
 50
274.0424117208636972
 51
289.3921435855310165
  0
ARC
  5
BF5E
  8
0
 10
4639.166298516113784
 20
435.1875105381391791
 30
0.0
 40
162.9765176905409874
 50
270.8209163159006039
 51
273.2494163482896283
  0
ARC
  5
BF5F
  8
0
 10
4638.6580848542398599
 20
234.6606232807868082
 30
0.0
 40
62.0743167057499434
 50
79.5807367960423733
 51
89.2302321540128389
  0
ARC
  5
BF60
  8
0
 10
4647.9744115779212734
 20
287.7600799625485024
 30
0.0
 40
8.1774389203620572
 50
24.7534181469220513
 51
76.4941132567556821
  0
ARC
  5
BF61
  8
0
 10
4642.8082114133112555
 20
286.810534281080777
 30
0.0
 40
13.3301730679855392
 50
359.1325391993123048
 51
19.1531450173638191
  0
ARC
  5
BF62
  8
0
 10
4646.3995226696952159
 20
286.2308436540037064
 30
0.0
 40
9.7446635193591025
 50
319.7356759755232929
 51
2.2223748761263278
  0
ARC
  5
BF63
  8
0
 10
4645.8960887921812173
 20
288.9299737573555831
 30
0.0
 40
11.9992934545525305
 50
277.0985615908955992
 51
311.4256460680803116
  0
ARC
  5
BF64
  8
0
 10
4639.1518077375640132
 20
335.4199714247516795
 30
0.0
 40
58.9739944040878328
 50
271.1876766162749277
 51
278.0191502051156931
  0
ARC
  5
BF65
  8
0
 10
4639.7871979990559339
 20
106.6698476149077948
 30
0.0
 40
192.3210233600781009
 50
87.1981642902122331
 51
89.8330164906489586
  0
ARC
  5
BF66
  8
0
 10
4647.720058213518314
 20
263.6997954121358134
 30
0.0
 40
35.0918939822014835
 50
76.2485371520695594
 51
87.602229087739488
  0
ARC
  5
BF67
  8
0
 10
4653.595111471609016
 20
287.2025189178453957
 30
0.0
 40
10.8669499387596193
 50
52.0411309536232523
 51
76.880203987140419
  0
ARC
  5
BF68
  8
0
 10
4654.6099758479231241
 20
289.4377694508515901
 30
0.0
 40
8.4997747904936425
 50
359.4672597432002021
 51
48.1640635393523908
  0
ARC
  5
BF69
  8
0
 10
4635.557798454494332
 20
287.8636654257252872
 30
0.0
 40
27.5921196784398397
 50
357.3930496688481071
 51
3.106081865342313
  0
ARC
  5
BF6A
  8
0
 10
4649.6931302718276129
 20
287.4983741735554759
 30
0.0
 40
13.4576742229312494
 50
319.1533173453822201
 51
356.2092981927135042
  0
ARC
  5
BF6B
  8
0
 10
4649.1412560865937849
 20
291.1541147884695988
 30
0.0
 40
16.4428933370981696
 50
275.8762693215551849
 51
310.7446646455067025
  0
ARC
  5
BF6C
  8
0
 10
4640.1051074980223348
 20
373.6132435186829071
 30
0.0
 40
99.3953525676137417
 50
270.7920112428149082
 51
276.1912717665420018
  0
ARC
  5
BF6D
  8
0
 10
4641.3290148701726139
 20
367.5756458282315862
 30
0.0
 40
94.2966957573598847
 50
270.5868087454031183
 51
276.5279794101111861
  0
ARC
  5
BF6E
  8
0
 10
4649.2158864068951516
 20
293.6285870645108957
 30
0.0
 40
19.9406125144649806
 50
278.1694037346522919
 51
307.0141553187663135
  0
ARC
  5
BF6F
  8
0
 10
4650.5844133680038794
 20
287.9082433643774266
 30
0.0
 40
14.7378437392573591
 50
316.1931357781160159
 51
354.9413235140398797
  0
ARC
  5
BF70
  8
0
 10
4626.8470564940471377
 20
289.2177132411825937
 30
0.0
 40
38.5062833187386673
 50
356.1149491537095741
 51
5.0841759888881057
  0
ARC
  5
BF71
  8
0
 10
4648.9441426372914066
 20
290.0492771502762253
 30
0.0
 40
16.4612701351806088
 50
9.0201662784165748
 51
41.7659396534055674
  0
ARC
  5
BF72
  8
0
 10
4651.8855926006835944
 20
290.9160300981179148
 30
0.0
 40
13.7527894670396709
 50
47.2434843607118395
 51
81.1344145857073755
  0
ARC
  5
BF73
  8
0
 10
4644.578676638547222
 20
250.56479149597331
 30
0.0
 40
54.757202536182092
 50
80.0871503160147284
 51
88.7237605094308037
  0
ARC
  5
BF74
  8
0
 10
4636.989174223086593
 20
24.9300142062369403
 30
0.0
 40
280.5167468692123975
 50
88.2004390788590058
 51
89.283016717806774
  0
ARC
  5
BF75
  8
0
 10
4636.344116518379451
 20
291.1060903548186047
 30
0.0
 40
7.811583374917447
 50
80.7035440475042236
 51
99.1115036349987122
  0
ARC
  5
BF76
  8
0
 10
4636.3693312915520437
 20
306.7284826462114893
 30
0.0
 40
8.0094592032433543
 50
260.9328334146526913
 51
278.8822142677959732
  0
ARC
  5
BF77
  8
0
 10
4636.3693312915520437
 20
306.8304783841824133
 30
0.0
 40
8.0094592032433543
 50
263.6513181803367161
 51
276.1649291873549146
  0
ENDSEC
  0
EOF
