  0
SECTION
  2
HEADER
  9
$ACADVER
  1
AC1009
  9
$INSBASE
 10
1645.1191239353420315
 20
63.4315662439380716
 30
0.0
  9
$EXTMIN
 10
1627.9931739353410194
 20
63.4315662439380716
 30
0.0
  9
$EXTMAX
 10
1662.2450739353409972
 20
86.6164599031656337
 30
0.0
  9
$LIMMIN
 10
0.0
 20
0.0
  9
$LIMMAX
 10
11.6929133858000007
 20
8.2677165353999982
  9
$ORTHOMODE
 70
     1
  9
$REGENMODE
 70
     1
  9
$FILLMODE
 70
     1
  9
$QTEXTMODE
 70
     0
  9
$MIRRTEXT
 70
     0
  9
$DRAGMODE
 70
     2
  9
$LTSCALE
 40
0.6431102362
  9
$OSMODE
 70
  4095
  9
$ATTMODE
 70
     1
  9
$TEXTSIZE
 40
0.2
  9
$TRACEWID
 40
0.05
  9
$TEXTSTYLE
  7
STANDARD
  9
$CLAYER
  8
0
  9
$CELTYPE
  6
BYLAYER
  9
$CECOLOR
 62
   256
  9
$DIMSCALE
 40
1.0
  9
$DIMASZ
 40
0.1875
  9
$DIMEXO
 40
0.0625
  9
$DIMDLI
 40
0.4443307087
  9
$DIMRND
 40
0.0
  9
$DIMDLE
 40
0.0
  9
$DIMEXE
 40
0.125
  9
$DIMTP
 40
0.01
  9
$DIMTM
 40
0.01
  9
$DIMTXT
 40
2.0
  9
$DIMCEN
 40
0.1052362205
  9
$DIMTSZ
 40
0.0
  9
$DIMTOL
 70
     1
  9
$DIMLIM
 70
     0
  9
$DIMTIH
 70
     1
  9
$DIMTOH
 70
     1
  9
$DIMSE1
 70
     0
  9
$DIMSE2
 70
     0
  9
$DIMTAD
 70
     0
  9
$DIMZIN
 70
     0
  9
$DIMBLK
  1

  9
$DIMASO
 70
     1
  9
$DIMSHO
 70
     1
  9
$DIMPOST
  1
\X
  9
$DIMAPOST
  1

  9
$DIMALT
 70
     1
  9
$DIMALTD
 70
     2
  9
$DIMALTF
 40
25.3999999999999986
  9
$DIMLFAC
 40
1.0
  9
$DIMTOFL
 70
     0
  9
$DIMTVP
 40
0.0
  9
$DIMTIX
 70
     0
  9
$DIMSOXD
 70
     0
  9
$DIMSAH
 70
     0
  9
$DIMBLK1
  1

  9
$DIMBLK2
  1

  9
$DIMSTYLE
  2
STANDARD
  9
$DIMCLRD
 70
     0
  9
$DIMCLRE
 70
     0
  9
$DIMCLRT
 70
     0
  9
$DIMTFAC
 40
1.0
  9
$DIMGAP
 40
0.09
  9
$LUNITS
 70
     2
  9
$LUPREC
 70
     4
  9
$SKETCHINC
 40
0.1
  9
$FILLETRAD
 40
0.0
  9
$AUNITS
 70
     0
  9
$AUPREC
 70
     0
  9
$MENU
  1
.
  9
$ELEVATION
 40
0.0
  9
$PELEVATION
 40
0.0
  9
$THICKNESS
 40
0.0
  9
$LIMCHECK
 70
     0
  9
$BLIPMODE
 70
     0
  9
$CHAMFERA
 40
0.0
  9
$CHAMFERB
 40
0.0
  9
$SKPOLY
 70
     0
  9
$TDCREATE
 40
2458060.468368056230247
  9
$TDUPDATE
 40
2458655.8559837960638106
  9
$TDINDWG
 40
0.2599818287
  9
$TDUSRTIMER
 40
0.2599818287
  9
$USRTIMER
 70
     1
  9
$ANGBASE
 50
0.0
  9
$ANGDIR
 70
     0
  9
$PDMODE
 70
     0
  9
$PDSIZE
 40
0.3125
  9
$PLINEWID
 40
0.0
  9
$COORDS
 70
     1
  9
$SPLFRAME
 70
     0
  9
$SPLINETYPE
 70
     6
  9
$SPLINESEGS
 70
     8
  9
$ATTDIA
 70
     1
  9
$ATTREQ
 70
     1
  9
$HANDLING
 70
     1
  9
$HANDSEED
  5
4E34
  9
$SURFTAB1
 70
     6
  9
$SURFTAB2
 70
     6
  9
$SURFTYPE
 70
     6
  9
$SURFU
 70
     6
  9
$SURFV
 70
     6
  9
$UCSNAME
  2

  9
$UCSORG
 10
0.0
 20
0.0
 30
0.0
  9
$UCSXDIR
 10
1.0
 20
0.0
 30
0.0
  9
$UCSYDIR
 10
0.0
 20
1.0
 30
0.0
  9
$PUCSNAME
  2

  9
$PUCSORG
 10
0.0
 20
0.0
 30
0.0
  9
$PUCSXDIR
 10
1.0
 20
0.0
 30
0.0
  9
$PUCSYDIR
 10
0.0
 20
1.0
 30
0.0
  9
$USERI1
 70
     0
  9
$USERI2
 70
     0
  9
$USERI3
 70
     0
  9
$USERI4
 70
     0
  9
$USERI5
 70
     0
  9
$USERR1
 40
0.0
  9
$USERR2
 40
0.0
  9
$USERR3
 40
0.0
  9
$USERR4
 40
0.0
  9
$USERR5
 40
0.0
  9
$WORLDVIEW
 70
     1
  9
$SHADEDGE
 70
     3
  9
$SHADEDIF
 70
    70
  9
$TILEMODE
 70
     1
  9
$MAXACTVP
 70
    64
  9
$PLIMCHECK
 70
     0
  9
$PEXTMIN
 10
1.0000000000000000E+20
 20
1.0000000000000000E+20
 30
1.0000000000000000E+20
  9
$PEXTMAX
 10
-1.0000000000000000E+20
 20
-1.0000000000000000E+20
 30
-1.0000000000000000E+20
  9
$PLIMMIN
 10
0.0
 20
0.0
  9
$PLIMMAX
 10
12.0
 20
9.0
  9
$UNITMODE
 70
     0
  9
$VISRETAIN
 70
     1
  9
$PLINEGEN
 70
     0
  9
$PSLTSCALE
 70
     1
  0
ENDSEC
  0
SECTION
  2
TABLES
  0
TABLE
  2
VPORT
 70
     1
  0
VPORT
  2
*ACTIVE
 70
     0
 10
0.0
 20
0.0
 11
1.0
 21
1.0
 12
0.0
 22
0.0
 13
0.0
 23
0.0
 14
1.0
 24
1.0
 15
0.0
 25
0.0
 16
0.0
 26
0.0
 36
116.5021735603142048
 17
1645.119140625
 27
75.0240154266357422
 37
0.0
 40
41.3731245797924387
 41
2.1027932960893851
 42
50.0
 43
0.0
 44
0.0
 50
0.0
 51
0.0
 71
     0
 72
   100
 73
     1
 74
     1
 75
     0
 76
     0
 77
     0
 78
     0
  0
ENDTAB
  0
TABLE
  2
LTYPE
 70
     2
  0
LTYPE
  2
CONTINUOUS
 70
     0
  3
Solid line
 72
    65
 73
     0
 40
0.0
  0
LTYPE
  2
PHANTOM2
 70
     0
  3
___ _ _ ___ _ _ ___ _ _ ___ _ _
 72
    65
 73
     6
 40
1.25
 49
0.625
 49
-0.125
 49
0.125
 49
-0.125
 49
0.125
 49
-0.125
  0
ENDTAB
  0
TABLE
  2
LAYER
 70
     2
  0
LAYER
  2
0
 70
     0
 62
   255
  6
CONTINUOUS
  0
LAYER
  2
DEFPOINTS
 70
     0
 62
     7
  6
CONTINUOUS
  0
ENDTAB
  0
TABLE
  2
STYLE
 70
     1
  0
STYLE
  2
STANDARD
 70
     0
 40
0.0
 41
0.8
 50
0.0
 71
     0
 42
0.2
  3
txt
  4

  0
ENDTAB
  0
TABLE
  2
VIEW
 70
     0
  0
ENDTAB
  0
TABLE
  2
UCS
 70
     0
  0
ENDTAB
  0
TABLE
  2
APPID
 70
     9
  0
APPID
  2
ACAD
 70
     0
  0
APPID
  2
ACAD_MLEADERVER
 70
     0
  0
APPID
  2
ACAD_EXEMPT_FROM_CAD_STANDARDS
 70
     0
  0
APPID
  2
ACAD_NAV_VCDISPLAY
 70
     0
  0
APPID
  2
ACAECLAYERSTANDARD
 70
     0
  0
APPID
  2
ACCMTRANSPARENCY
 70
     0
  0
APPID
  2
ACAD_DSTYLE_DIMJAG
 70
     0
  0
APPID
  2
ACAD_DSTYLE_DIMTALN
 70
     0
  0
APPID
  2
ACDBATTR
 70
     0
  0
ENDTAB
  0
TABLE
  2
DIMSTYLE
 70
     1
  0
DIMSTYLE
  2
STANDARD
 70
     0
  3

  4

  5

  6

  7

 40
1.0
 41
0.1875
 42
0.0625
 43
0.38
 44
0.125
 45
0.0
 46
0.0
 47
0.01
 48
0.01
140
0.15625
141
0.09
142
0.0
143
25.3999999999999986
144
1.0
145
0.0
146
1.0
147
0.09
 71
     1
 72
     0
 73
     1
 74
     1
 75
     0
 76
     0
 77
     0
 78
     4
170
     0
171
     2
172
     0
173
     0
174
     0
175
     0
176
     0
177
     0
178
     0
  0
ENDTAB
  0
ENDSEC
  0
SECTION
  2
BLOCKS
  0
BLOCK
  8
0
  2
$MODEL_SPACE
 70
     0
 10
0.0
 20
0.0
 30
0.0
  3
$MODEL_SPACE
  1

  0
ENDBLK
  5
21
  8
0
  0
BLOCK
 67
     1
  8
0
  2
$PAPER_SPACE
 70
     0
 10
0.0
 20
0.0
 30
0.0
  3
$PAPER_SPACE
  1

  0
ENDBLK
  5
1D
 67
     1
  8
0
  0
ENDSEC
  0
SECTION
  2
ENTITIES
  0
ATTDEF
  5
3930
  8
DEFPOINTS
 10
1645.1155138062520109
 20
63.4443757721293409
 30
0.0
 40
0.001
  1
95334
  3

  2
MODELNUMBER
 70
     0
1001
ACDBATTR
1070
     0
1070
     1
  0
ATTDEF
  5
3931
  8
DEFPOINTS
 10
1645.1155138062520109
 20
63.4427091054626686
 30
0.0
 40
0.001
  1
SPECTACLE
  3

  2
TRADENAME
 70
     0
1001
ACDBATTR
1070
     0
1070
     1
  0
ATTDEF
  5
3932
  8
DEFPOINTS
 10
1645.1155138062520109
 20
63.4410424387960106
 30
0.0
 40
0.001
  1
BATH
  3

  2
PRODUCT
 70
     0
1001
ACDBATTR
1070
     0
1070
     1
  0
ATTDEF
  5
3933
  8
DEFPOINTS
 10
1645.1155138062520109
 20
63.4393757721293383
 30
0.0
 40
0.001
  1
ACRYLIC
  3

  2
MATERIAL
 70
     0
1001
ACDBATTR
1070
     0
1070
     1
  0
LINE
  5
4D11
  8
0
 10
1628.0840673170719128
 20
86.3361723253380546
 30
0.0
 11
1627.9931739353410194
 21
85.3915662439380725
 31
0.0
  0
LINE
  5
4D12
  8
0
 10
1632.682570061386059
 20
63.4315662439380716
 30
0.0
 11
1657.5556778092959576
 21
63.4315662439380716
 31
0.0
  0
LINE
  5
4D13
  8
0
 10
1628.2917532342719369
 20
85.3628125017383041
 30
0.0
 11
1627.9931739353410194
 21
85.3915662439380725
 31
0.0
  0
ARC
  5
4D14
  8
0
 10
1632.7057427089810062
 20
63.7827833740318226
 30
0.0
 40
0.351980743887824
 50
190.8144664796664927
 51
266.2252029451860267
  0
ARC
  5
4D15
  8
0
 10
1628.4264385242629487
 20
86.2680268468573246
 30
0.0
 40
0.3490871664081543
 50
93.5080352901057239
 51
168.7429796286280066
  0
ARC
  5
4D16
  8
0
 10
899.790828667697042
 20
31.2604271770887507
 30
0.0
 40
730.5071287757375558
 50
3.0898468671183088
 51
4.2472948619538302
  0
ARC
  5
4D17
  8
0
 10
1638.9544607901839299
 20
71.1506029282705583
 30
0.0
 40
9.7320952946178618
 50
183.0303025670611135
 51
203.4892595392153112
  0
ARC
  5
4D18
  8
0
 10
1636.2050580757909302
 20
70.1526706978729919
 30
0.0
 40
6.8151630116147981
 50
205.0078503449377934
 51
225.916498843837303
  0
ARC
  5
4D19
  8
0
 10
1628.4173117694861048
 20
62.1768650046319777
 30
0.0
 40
4.3322896808880769
 50
30.4662190086851794
 51
45.3169839732154713
  0
ARC
  5
4D1A
  8
0
 10
1630.3432405973169352
 20
63.4376922148282389
 30
0.0
 40
2.0359862760210312
 50
7.8776705779514788
 51
27.3624238681841696
  0
LINE
  5
4D1B
  8
0
 10
1628.2917532342719369
 20
85.3628125017383041
 30
0.0
 11
1661.9464946364100797
 21
85.3628125017383041
 31
0.0
  0
LINE
  5
4D1C
  8
0
 10
1628.4050783973320904
 20
86.6164599031656337
 30
0.0
 11
1661.8331694733510631
 21
86.6164599031656337
 31
0.0
  0
LINE
  5
4D1D
  8
0
 10
1662.1541805536110132
 20
86.3361723253380546
 30
0.0
 11
1662.2450739353409972
 21
85.3915662439380725
 31
0.0
  0
LINE
  5
4D1E
  8
0
 10
1661.9464946364100797
 20
85.3628125017383041
 30
0.0
 11
1662.2450739353409972
 21
85.3915662439380725
 31
0.0
  0
ARC
  5
4D1F
  8
0
 10
1657.5325051617019199
 20
63.7827833740318226
 30
0.0
 40
0.351980743887824
 50
273.7747970548139733
 51
349.1855335203330242
  0
ARC
  5
4D20
  8
0
 10
1661.8118093464199774
 20
86.2680268468573246
 30
0.0
 40
0.3490871664081543
 50
11.2570203713715795
 51
86.4919647098943045
  0
ARC
  5
4D21
  8
0
 10
2390.4474192029861115
 20
31.2604271770887507
 30
0.0
 40
730.5071287757375558
 50
175.7527051380461103
 51
176.9101531328817032
  0
ARC
  5
4D22
  8
0
 10
1651.2837870804989961
 20
71.1506029282705583
 30
0.0
 40
9.7320952946178618
 50
336.5107404607848025
 51
356.9696974329385171
  0
ARC
  5
4D23
  8
0
 10
1654.0331897948910864
 20
70.1526706978729919
 30
0.0
 40
6.8151630116147981
 50
314.0835011561628107
 51
334.9921496550621782
  0
ARC
  5
4D24
  8
0
 10
1661.8209361011970486
 20
62.1768650046319777
 30
0.0
 40
4.3322896808880769
 50
134.683016026784486
 51
149.5337809913148135
  0
ARC
  5
4D25
  8
0
 10
1659.8950072733650813
 20
63.4376922148282389
 30
0.0
 40
2.0359862760210312
 50
152.6375761318157913
 51
172.1223294220484945
  0
ENDSEC
  0
EOF
