  0
SECTION
  2
HEADER
  9
$ACADVER
  1
AC1009
  9
$INSBASE
 10
1533.3630481232130478
 20
57.0832430567606721
 30
0.0
  9
$EXTMIN
 10
1500.488087430331916
 20
57.0763589560191633
 30
0.0
  9
$EXTMAX
 10
1566.2380088160930427
 20
80.2681367159882058
 30
0.0
  9
$LIMMIN
 10
0.0
 20
0.0
  9
$LIMMAX
 10
11.6929133858000007
 20
8.2677165353999982
  9
$ORTHOMODE
 70
     1
  9
$REGENMODE
 70
     1
  9
$FILLMODE
 70
     1
  9
$QTEXTMODE
 70
     0
  9
$MIRRTEXT
 70
     0
  9
$DRAGMODE
 70
     2
  9
$LTSCALE
 40
0.6431102362
  9
$OSMODE
 70
  4095
  9
$ATTMODE
 70
     1
  9
$TEXTSIZE
 40
0.2
  9
$TRACEWID
 40
0.05
  9
$TEXTSTYLE
  7
STANDARD
  9
$CLAYER
  8
0
  9
$CELTYPE
  6
BYLAYER
  9
$CECOLOR
 62
   256
  9
$DIMSCALE
 40
1.0
  9
$DIMASZ
 40
0.1875
  9
$DIMEXO
 40
0.0625
  9
$DIMDLI
 40
0.4443307087
  9
$DIMRND
 40
0.0
  9
$DIMDLE
 40
0.0
  9
$DIMEXE
 40
0.125
  9
$DIMTP
 40
0.01
  9
$DIMTM
 40
0.01
  9
$DIMTXT
 40
2.0
  9
$DIMCEN
 40
0.1052362205
  9
$DIMTSZ
 40
0.0
  9
$DIMTOL
 70
     1
  9
$DIMLIM
 70
     0
  9
$DIMTIH
 70
     1
  9
$DIMTOH
 70
     1
  9
$DIMSE1
 70
     0
  9
$DIMSE2
 70
     0
  9
$DIMTAD
 70
     0
  9
$DIMZIN
 70
     0
  9
$DIMBLK
  1

  9
$DIMASO
 70
     1
  9
$DIMSHO
 70
     1
  9
$DIMPOST
  1
\X
  9
$DIMAPOST
  1

  9
$DIMALT
 70
     1
  9
$DIMALTD
 70
     2
  9
$DIMALTF
 40
25.3999999999999986
  9
$DIMLFAC
 40
1.0
  9
$DIMTOFL
 70
     0
  9
$DIMTVP
 40
0.0
  9
$DIMTIX
 70
     0
  9
$DIMSOXD
 70
     0
  9
$DIMSAH
 70
     0
  9
$DIMBLK1
  1

  9
$DIMBLK2
  1

  9
$DIMSTYLE
  2
STANDARD
  9
$DIMCLRD
 70
     0
  9
$DIMCLRE
 70
     0
  9
$DIMCLRT
 70
     0
  9
$DIMTFAC
 40
1.0
  9
$DIMGAP
 40
0.09
  9
$LUNITS
 70
     2
  9
$LUPREC
 70
     4
  9
$SKETCHINC
 40
0.1
  9
$FILLETRAD
 40
0.0
  9
$AUNITS
 70
     0
  9
$AUPREC
 70
     0
  9
$MENU
  1
.
  9
$ELEVATION
 40
0.0
  9
$PELEVATION
 40
0.0
  9
$THICKNESS
 40
0.0
  9
$LIMCHECK
 70
     0
  9
$BLIPMODE
 70
     0
  9
$CHAMFERA
 40
0.0
  9
$CHAMFERB
 40
0.0
  9
$SKPOLY
 70
     0
  9
$TDCREATE
 40
2458060.468368056230247
  9
$TDUPDATE
 40
2458655.8557986109517515
  9
$TDINDWG
 40
0.2585119213
  9
$TDUSRTIMER
 40
0.2585119213
  9
$USRTIMER
 70
     1
  9
$ANGBASE
 50
0.0
  9
$ANGDIR
 70
     0
  9
$PDMODE
 70
     0
  9
$PDSIZE
 40
0.3125
  9
$PLINEWID
 40
0.0
  9
$COORDS
 70
     1
  9
$SPLFRAME
 70
     0
  9
$SPLINETYPE
 70
     6
  9
$SPLINESEGS
 70
     8
  9
$ATTDIA
 70
     1
  9
$ATTREQ
 70
     1
  9
$HANDLING
 70
     1
  9
$HANDSEED
  5
4DC1
  9
$SURFTAB1
 70
     6
  9
$SURFTAB2
 70
     6
  9
$SURFTYPE
 70
     6
  9
$SURFU
 70
     6
  9
$SURFV
 70
     6
  9
$UCSNAME
  2

  9
$UCSORG
 10
0.0
 20
0.0
 30
0.0
  9
$UCSXDIR
 10
1.0
 20
0.0
 30
0.0
  9
$UCSYDIR
 10
0.0
 20
1.0
 30
0.0
  9
$PUCSNAME
  2

  9
$PUCSORG
 10
0.0
 20
0.0
 30
0.0
  9
$PUCSXDIR
 10
1.0
 20
0.0
 30
0.0
  9
$PUCSYDIR
 10
0.0
 20
1.0
 30
0.0
  9
$USERI1
 70
     0
  9
$USERI2
 70
     0
  9
$USERI3
 70
     0
  9
$USERI4
 70
     0
  9
$USERI5
 70
     0
  9
$USERR1
 40
0.0
  9
$USERR2
 40
0.0
  9
$USERR3
 40
0.0
  9
$USERR4
 40
0.0
  9
$USERR5
 40
0.0
  9
$WORLDVIEW
 70
     1
  9
$SHADEDGE
 70
     3
  9
$SHADEDIF
 70
    70
  9
$TILEMODE
 70
     1
  9
$MAXACTVP
 70
    64
  9
$PLIMCHECK
 70
     0
  9
$PEXTMIN
 10
1.0000000000000000E+20
 20
1.0000000000000000E+20
 30
1.0000000000000000E+20
  9
$PEXTMAX
 10
-1.0000000000000000E+20
 20
-1.0000000000000000E+20
 30
-1.0000000000000000E+20
  9
$PLIMMIN
 10
0.0
 20
0.0
  9
$PLIMMAX
 10
12.0
 20
9.0
  9
$UNITMODE
 70
     0
  9
$VISRETAIN
 70
     1
  9
$PLINEGEN
 70
     0
  9
$PSLTSCALE
 70
     1
  0
ENDSEC
  0
SECTION
  2
TABLES
  0
TABLE
  2
VPORT
 70
     1
  0
VPORT
  2
*ACTIVE
 70
     0
 10
0.0
 20
0.0
 11
1.0
 21
1.0
 12
0.0
 22
0.0
 13
0.0
 23
0.0
 14
1.0
 24
1.0
 15
0.0
 25
0.0
 16
0.0
 26
0.0
 36
196.3820812624857979
 17
1533.363037109375
 27
68.6722470134099723
 37
0.0
 40
69.7210545526729533
 41
2.1027932960893851
 42
50.0
 43
0.0
 44
0.0
 50
0.0
 51
0.0
 71
     0
 72
   100
 73
     1
 74
     1
 75
     0
 76
     0
 77
     0
 78
     0
  0
ENDTAB
  0
TABLE
  2
LTYPE
 70
     2
  0
LTYPE
  2
CONTINUOUS
 70
     0
  3
Solid line
 72
    65
 73
     0
 40
0.0
  0
LTYPE
  2
PHANTOM2
 70
     0
  3
___ _ _ ___ _ _ ___ _ _ ___ _ _
 72
    65
 73
     6
 40
1.25
 49
0.625
 49
-0.125
 49
0.125
 49
-0.125
 49
0.125
 49
-0.125
  0
ENDTAB
  0
TABLE
  2
LAYER
 70
     2
  0
LAYER
  2
0
 70
     0
 62
   255
  6
CONTINUOUS
  0
LAYER
  2
DEFPOINTS
 70
     0
 62
     7
  6
CONTINUOUS
  0
ENDTAB
  0
TABLE
  2
STYLE
 70
     1
  0
STYLE
  2
STANDARD
 70
     0
 40
0.0
 41
0.8
 50
0.0
 71
     0
 42
0.2
  3
txt
  4

  0
ENDTAB
  0
TABLE
  2
VIEW
 70
     0
  0
ENDTAB
  0
TABLE
  2
UCS
 70
     0
  0
ENDTAB
  0
TABLE
  2
APPID
 70
     9
  0
APPID
  2
ACAD
 70
     0
  0
APPID
  2
ACAD_MLEADERVER
 70
     0
  0
APPID
  2
ACAD_EXEMPT_FROM_CAD_STANDARDS
 70
     0
  0
APPID
  2
ACAD_NAV_VCDISPLAY
 70
     0
  0
APPID
  2
ACAECLAYERSTANDARD
 70
     0
  0
APPID
  2
ACCMTRANSPARENCY
 70
     0
  0
APPID
  2
ACAD_DSTYLE_DIMJAG
 70
     0
  0
APPID
  2
ACAD_DSTYLE_DIMTALN
 70
     0
  0
APPID
  2
ACDBATTR
 70
     0
  0
ENDTAB
  0
TABLE
  2
DIMSTYLE
 70
     1
  0
DIMSTYLE
  2
STANDARD
 70
     0
  3

  4

  5

  6

  7

 40
1.0
 41
0.1875
 42
0.0625
 43
0.38
 44
0.125
 45
0.0
 46
0.0
 47
0.01
 48
0.01
140
0.15625
141
0.09
142
0.0
143
25.3999999999999986
144
1.0
145
0.0
146
1.0
147
0.09
 71
     1
 72
     0
 73
     1
 74
     1
 75
     0
 76
     0
 77
     0
 78
     4
170
     0
171
     2
172
     0
173
     0
174
     0
175
     0
176
     0
177
     0
178
     0
  0
ENDTAB
  0
ENDSEC
  0
SECTION
  2
BLOCKS
  0
BLOCK
  8
0
  2
$MODEL_SPACE
 70
     0
 10
0.0
 20
0.0
 30
0.0
  3
$MODEL_SPACE
  1

  0
ENDBLK
  5
21
  8
0
  0
BLOCK
 67
     1
  8
0
  2
$PAPER_SPACE
 70
     0
 10
0.0
 20
0.0
 30
0.0
  3
$PAPER_SPACE
  1

  0
ENDBLK
  5
1D
 67
     1
  8
0
  0
ENDSEC
  0
SECTION
  2
ENTITIES
  0
ATTDEF
  5
3930
  8
DEFPOINTS
 10
1533.3579303251799502
 20
57.0813589560191588
 30
0.0
 40
0.001
  1
95334
  3

  2
MODELNUMBER
 70
     0
1001
ACDBATTR
1070
     0
1070
     1
  0
ATTDEF
  5
3931
  8
DEFPOINTS
 10
1533.3579303251799502
 20
57.0796922893525007
 30
0.0
 40
0.001
  1
SPECTACLE
  3

  2
TRADENAME
 70
     0
1001
ACDBATTR
1070
     0
1070
     1
  0
ATTDEF
  5
3932
  8
DEFPOINTS
 10
1533.3579303251799502
 20
57.0780256226858285
 30
0.0
 40
0.001
  1
BATH
  3

  2
PRODUCT
 70
     0
1001
ACDBATTR
1070
     0
1070
     1
  0
ATTDEF
  5
3933
  8
DEFPOINTS
 10
1533.3579303251799502
 20
57.0763589560191704
 30
0.0
 40
0.001
  1
ACRYLIC
  3

  2
MATERIAL
 70
     0
1001
ACDBATTR
1070
     0
1070
     1
  0
LINE
  5
4C99
  8
0
 10
1500.5789808120630369
 20
79.9878491381606551
 30
0.0
 11
1500.488087430331916
 21
79.043243056760673
 31
0.0
  0
LINE
  5
4C9A
  8
0
 10
1505.0852545573629868
 20
57.0832430567606721
 30
0.0
 11
1561.6408416890631088
 21
57.0832430567606721
 31
0.0
  0
LINE
  5
4C9B
  8
0
 10
1500.7866667292630609
 20
79.0144893145609046
 30
0.0
 11
1500.488087430331916
 21
79.043243056760673
 31
0.0
  0
ARC
  5
4C9C
  8
0
 10
1505.1084272049570245
 20
57.4344601868544302
 30
0.0
 40
0.351980743887824
 50
190.8144664796668053
 51
266.2252029451991007
  0
ARC
  5
4C9D
  8
0
 10
1500.9213520192540727
 20
79.9197036596799251
 30
0.0
 40
0.3490871664081543
 50
93.5080352901057239
 51
168.7429796286282055
  0
ARC
  5
4C9E
  8
0
 10
4602.3874993258377799
 20
251.0651849129133097
 30
0.0
 40
3106.3691291634440859
 50
183.1750333997281928
 51
183.4471159269166947
  0
ARC
  5
4C9F
  8
0
 10
1511.3571452861599482
 20
64.8022797410931446
 30
0.0
 40
9.7320952946178618
 50
183.0303025670615114
 51
203.4892595392151122
  0
ARC
  5
4CA0
  8
0
 10
1508.6077425717669485
 20
63.8043475106955924
 30
0.0
 40
6.8151630116147981
 50
205.0078503449373954
 51
225.916498843837303
  0
ARC
  5
4CA1
  8
0
 10
1500.8199962654618957
 20
55.8285418174545711
 30
0.0
 40
4.3322896808880769
 50
30.4662190086848312
 51
45.3169839732154713
  0
ARC
  5
4CA2
  8
0
 10
1502.7459250932929535
 20
57.0893690276508465
 30
0.0
 40
2.0359862760210312
 50
7.8776705779516796
 51
27.3624238681847096
  0
LINE
  5
4CA3
  8
0
 10
1500.7866667292630609
 20
79.0144893145609046
 30
0.0
 11
1565.9394295171618978
 21
79.0144893145609046
 31
0.0
  0
LINE
  5
4CA4
  8
0
 10
1566.1471154343630587
 20
79.9878491381606551
 30
0.0
 11
1566.2380088160930427
 21
79.043243056760673
 31
0.0
  0
LINE
  5
4CA5
  8
0
 10
1565.9394295171618978
 20
79.0144893145609046
 30
0.0
 11
1566.2380088160930427
 21
79.043243056760673
 31
0.0
  0
ARC
  5
4CA6
  8
0
 10
1561.6176690414679342
 20
57.4344601868544302
 30
0.0
 40
0.351980743887824
 50
273.7747970548139165
 51
349.1855335203331947
  0
ARC
  5
4CA7
  8
0
 10
1565.8047442271720229
 20
79.9197036596799251
 30
0.0
 40
0.3490871664081543
 50
11.2570203713717802
 51
86.4919647098943045
  0
ARC
  5
4CA8
  8
0
 10
-1535.6614030794130485
 20
251.0651849129133097
 30
0.0
 40
3106.3691291634440859
 50
356.5528840730831917
 51
356.8249666002716936
  0
ARC
  5
4CA9
  8
0
 10
1555.3689509602650105
 20
64.8022797410931446
 30
0.0
 40
9.7320952946178618
 50
336.5107404607849162
 51
356.9696974329385171
  0
ARC
  5
4CAA
  8
0
 10
1558.1183536746580103
 20
63.8043475106955924
 30
0.0
 40
6.8151630116147981
 50
314.0835011561625834
 51
334.9921496550625761
  0
ARC
  5
4CAB
  8
0
 10
1565.906099980963063
 20
55.8285418174545711
 30
0.0
 40
4.3322896808880769
 50
134.683016026784486
 51
149.5337809913150977
  0
ARC
  5
4CAC
  8
0
 10
1563.9801711531320052
 20
57.0893690276508465
 30
0.0
 40
2.0359862760210312
 50
152.6375761318153081
 51
172.1223294220482956
  0
LINE
  5
4CAD
  8
0
 10
1500.8999918923220775
 20
80.2681367159882058
 30
0.0
 11
1565.8261043541031086
 21
80.2681367159882058
 31
0.0
  0
ENDSEC
  0
EOF
