  0
SECTION
  2
HEADER
  9
$ACADVER
  1
AC1009
  9
$INSBASE
 10
1789.8317286734029494
 20
66.4765049279508844
 30
0.0
  9
$EXTMIN
 10
1773.6900286734039582
 20
66.4765049279508702
 30
0.0
  9
$EXTMAX
 10
1805.973428673403987
 20
89.5756264249785801
 30
0.0
  9
$LIMMIN
 10
0.0
 20
0.0
  9
$LIMMAX
 10
11.6929133858000007
 20
8.2677165353999982
  9
$ORTHOMODE
 70
     1
  9
$REGENMODE
 70
     1
  9
$FILLMODE
 70
     1
  9
$QTEXTMODE
 70
     0
  9
$MIRRTEXT
 70
     0
  9
$DRAGMODE
 70
     2
  9
$LTSCALE
 40
0.6431102362
  9
$OSMODE
 70
  4095
  9
$ATTMODE
 70
     1
  9
$TEXTSIZE
 40
0.2
  9
$TRACEWID
 40
0.05
  9
$TEXTSTYLE
  7
STANDARD
  9
$CLAYER
  8
0
  9
$CELTYPE
  6
BYLAYER
  9
$CECOLOR
 62
   256
  9
$DIMSCALE
 40
1.0
  9
$DIMASZ
 40
0.1875
  9
$DIMEXO
 40
0.0625
  9
$DIMDLI
 40
0.4443307087
  9
$DIMRND
 40
0.0
  9
$DIMDLE
 40
0.0
  9
$DIMEXE
 40
0.125
  9
$DIMTP
 40
0.01
  9
$DIMTM
 40
0.01
  9
$DIMTXT
 40
2.0
  9
$DIMCEN
 40
0.1052362205
  9
$DIMTSZ
 40
0.0
  9
$DIMTOL
 70
     1
  9
$DIMLIM
 70
     0
  9
$DIMTIH
 70
     1
  9
$DIMTOH
 70
     1
  9
$DIMSE1
 70
     0
  9
$DIMSE2
 70
     0
  9
$DIMTAD
 70
     0
  9
$DIMZIN
 70
     0
  9
$DIMBLK
  1

  9
$DIMASO
 70
     1
  9
$DIMSHO
 70
     1
  9
$DIMPOST
  1
\X
  9
$DIMAPOST
  1

  9
$DIMALT
 70
     1
  9
$DIMALTD
 70
     2
  9
$DIMALTF
 40
25.3999999999999986
  9
$DIMLFAC
 40
1.0
  9
$DIMTOFL
 70
     0
  9
$DIMTVP
 40
0.0
  9
$DIMTIX
 70
     0
  9
$DIMSOXD
 70
     0
  9
$DIMSAH
 70
     0
  9
$DIMBLK1
  1

  9
$DIMBLK2
  1

  9
$DIMSTYLE
  2
STANDARD
  9
$DIMCLRD
 70
     0
  9
$DIMCLRE
 70
     0
  9
$DIMCLRT
 70
     0
  9
$DIMTFAC
 40
1.0
  9
$DIMGAP
 40
0.09
  9
$LUNITS
 70
     2
  9
$LUPREC
 70
     4
  9
$SKETCHINC
 40
0.1
  9
$FILLETRAD
 40
0.0
  9
$AUNITS
 70
     0
  9
$AUPREC
 70
     0
  9
$MENU
  1
.
  9
$ELEVATION
 40
0.0
  9
$PELEVATION
 40
0.0
  9
$THICKNESS
 40
0.0
  9
$LIMCHECK
 70
     0
  9
$BLIPMODE
 70
     0
  9
$CHAMFERA
 40
0.0
  9
$CHAMFERB
 40
0.0
  9
$SKPOLY
 70
     0
  9
$TDCREATE
 40
2458060.468368056230247
  9
$TDUPDATE
 40
2458655.8550810189917684
  9
$TDINDWG
 40
0.260815162
  9
$TDUSRTIMER
 40
0.260815162
  9
$USRTIMER
 70
     1
  9
$ANGBASE
 50
0.0
  9
$ANGDIR
 70
     0
  9
$PDMODE
 70
     0
  9
$PDSIZE
 40
0.3125
  9
$PLINEWID
 40
0.0
  9
$COORDS
 70
     1
  9
$SPLFRAME
 70
     0
  9
$SPLINETYPE
 70
     6
  9
$SPLINESEGS
 70
     8
  9
$ATTDIA
 70
     1
  9
$ATTREQ
 70
     1
  9
$HANDLING
 70
     1
  9
$HANDSEED
  5
4EA9
  9
$SURFTAB1
 70
     6
  9
$SURFTAB2
 70
     6
  9
$SURFTYPE
 70
     6
  9
$SURFU
 70
     6
  9
$SURFV
 70
     6
  9
$UCSNAME
  2

  9
$UCSORG
 10
0.0
 20
0.0
 30
0.0
  9
$UCSXDIR
 10
1.0
 20
0.0
 30
0.0
  9
$UCSYDIR
 10
0.0
 20
1.0
 30
0.0
  9
$PUCSNAME
  2

  9
$PUCSORG
 10
0.0
 20
0.0
 30
0.0
  9
$PUCSXDIR
 10
1.0
 20
0.0
 30
0.0
  9
$PUCSYDIR
 10
0.0
 20
1.0
 30
0.0
  9
$USERI1
 70
     0
  9
$USERI2
 70
     0
  9
$USERI3
 70
     0
  9
$USERI4
 70
     0
  9
$USERI5
 70
     0
  9
$USERR1
 40
0.0
  9
$USERR2
 40
0.0
  9
$USERR3
 40
0.0
  9
$USERR4
 40
0.0
  9
$USERR5
 40
0.0
  9
$WORLDVIEW
 70
     1
  9
$SHADEDGE
 70
     3
  9
$SHADEDIF
 70
    70
  9
$TILEMODE
 70
     1
  9
$MAXACTVP
 70
    64
  9
$PLIMCHECK
 70
     0
  9
$PEXTMIN
 10
1.0000000000000000E+20
 20
1.0000000000000000E+20
 30
1.0000000000000000E+20
  9
$PEXTMAX
 10
-1.0000000000000000E+20
 20
-1.0000000000000000E+20
 30
-1.0000000000000000E+20
  9
$PLIMMIN
 10
0.0
 20
0.0
  9
$PLIMMAX
 10
12.0
 20
9.0
  9
$UNITMODE
 70
     0
  9
$VISRETAIN
 70
     1
  9
$PLINEGEN
 70
     0
  9
$PSLTSCALE
 70
     1
  0
ENDSEC
  0
SECTION
  2
TABLES
  0
TABLE
  2
VPORT
 70
     1
  0
VPORT
  2
*ACTIVE
 70
     0
 10
0.0
 20
0.0
 11
1.0
 21
1.0
 12
0.0
 22
0.0
 13
0.0
 23
0.0
 14
1.0
 24
1.0
 15
0.0
 25
0.0
 16
0.0
 26
0.0
 36
111.8126036011394007
 17
1789.8317260742189774
 27
78.0260658264160156
 37
0.0
 40
39.7029360302762413
 41
2.1027932960893851
 42
50.0
 43
0.0
 44
0.0
 50
0.0
 51
0.0
 71
     0
 72
   100
 73
     1
 74
     1
 75
     0
 76
     0
 77
     0
 78
     0
  0
ENDTAB
  0
TABLE
  2
LTYPE
 70
     2
  0
LTYPE
  2
CONTINUOUS
 70
     0
  3
Solid line
 72
    65
 73
     0
 40
0.0
  0
LTYPE
  2
PHANTOM2
 70
     0
  3
___ _ _ ___ _ _ ___ _ _ ___ _ _
 72
    65
 73
     6
 40
1.25
 49
0.625
 49
-0.125
 49
0.125
 49
-0.125
 49
0.125
 49
-0.125
  0
ENDTAB
  0
TABLE
  2
LAYER
 70
     2
  0
LAYER
  2
0
 70
     0
 62
   255
  6
CONTINUOUS
  0
LAYER
  2
DEFPOINTS
 70
     0
 62
     7
  6
CONTINUOUS
  0
ENDTAB
  0
TABLE
  2
STYLE
 70
     1
  0
STYLE
  2
STANDARD
 70
     0
 40
0.0
 41
0.8
 50
0.0
 71
     0
 42
0.2
  3
txt
  4

  0
ENDTAB
  0
TABLE
  2
VIEW
 70
     0
  0
ENDTAB
  0
TABLE
  2
UCS
 70
     0
  0
ENDTAB
  0
TABLE
  2
APPID
 70
     9
  0
APPID
  2
ACAD
 70
     0
  0
APPID
  2
ACAD_MLEADERVER
 70
     0
  0
APPID
  2
ACAD_EXEMPT_FROM_CAD_STANDARDS
 70
     0
  0
APPID
  2
ACAD_NAV_VCDISPLAY
 70
     0
  0
APPID
  2
ACAECLAYERSTANDARD
 70
     0
  0
APPID
  2
ACCMTRANSPARENCY
 70
     0
  0
APPID
  2
ACAD_DSTYLE_DIMJAG
 70
     0
  0
APPID
  2
ACAD_DSTYLE_DIMTALN
 70
     0
  0
APPID
  2
ACDBATTR
 70
     0
  0
ENDTAB
  0
TABLE
  2
DIMSTYLE
 70
     1
  0
DIMSTYLE
  2
STANDARD
 70
     0
  3

  4

  5

  6

  7

 40
1.0
 41
0.1875
 42
0.0625
 43
0.38
 44
0.125
 45
0.0
 46
0.0
 47
0.01
 48
0.01
140
0.15625
141
0.09
142
0.0
143
25.3999999999999986
144
1.0
145
0.0
146
1.0
147
0.09
 71
     1
 72
     0
 73
     1
 74
     1
 75
     0
 76
     0
 77
     0
 78
     4
170
     0
171
     2
172
     0
173
     0
174
     0
175
     0
176
     0
177
     0
178
     0
  0
ENDTAB
  0
ENDSEC
  0
SECTION
  2
BLOCKS
  0
BLOCK
  8
0
  2
$MODEL_SPACE
 70
     0
 10
0.0
 20
0.0
 30
0.0
  3
$MODEL_SPACE
  1

  0
ENDBLK
  5
21
  8
0
  0
BLOCK
 67
     1
  8
0
  2
$PAPER_SPACE
 70
     0
 10
0.0
 20
0.0
 30
0.0
  3
$PAPER_SPACE
  1

  0
ENDBLK
  5
1D
 67
     1
  8
0
  0
ENDSEC
  0
SECTION
  2
ENTITIES
  0
ATTDEF
  5
3930
  8
DEFPOINTS
 10
1789.8284592047909882
 20
66.4903565708827387
 30
0.0
 40
0.001
  1
95333
  3

  2
MODELNUMBER
 70
     0
1001
ACDBATTR
1070
     0
1070
     1
  0
ATTDEF
  5
3931
  8
DEFPOINTS
 10
1789.8284592047909882
 20
66.4886899042160735
 30
0.0
 40
0.001
  1
SPECTACLE
  3

  2
TRADENAME
 70
     0
1001
ACDBATTR
1070
     0
1070
     1
  0
ATTDEF
  5
3932
  8
DEFPOINTS
 10
1789.8284592047909882
 20
66.4870232375494083
 30
0.0
 40
0.001
  1
BATH
  3

  2
PRODUCT
 70
     0
1001
ACDBATTR
1070
     0
1070
     1
  0
ATTDEF
  5
3933
  8
DEFPOINTS
 10
1789.8284592047909882
 20
66.4853565708827432
 30
0.0
 40
0.001
  1
ACRYLIC
  3

  2
MATERIAL
 70
     0
1001
ACDBATTR
1070
     0
1070
     1
  0
LINE
  5
4DC9
  8
0
 10
1773.7924607449378982
 20
89.2845977831508861
 30
0.0
 11
1773.6900286734039582
 21
88.3360049286508939
 31
0.0
  0
LINE
  5
4DCA
  8
0
 10
1777.3797144894379016
 20
66.4765049279508844
 30
0.0
 11
1802.2837428573689067
 21
66.4765049279508844
 31
0.0
  0
LINE
  5
4DCB
  8
0
 10
1773.6900286734039582
 20
88.3360049286508939
 30
0.0
 11
1773.991116187039097
 21
88.304646389650884
 31
0.0
  0
ARC
  5
4DCC
  8
0
 10
1777.3943535058299403
 20
66.7430158326005198
 30
0.0
 40
0.2669126506894646
 50
189.9783942346018932
 51
266.8559941757392266
  0
LINE
  5
4DCD
  8
0
 10
1805.5493409193829848
 20
89.5756264249785801
 30
0.0
 11
1774.1141164274240509
 21
89.5756264249785801
 31
0.0
  0
ARC
  5
4DCE
  8
0
 10
1774.1406252550000318
 20
89.223060647943754
 30
0.0
 40
0.3535609495908572
 50
94.2998826215633272
 51
169.976645638943296
  0
ARC
  5
4DCF
  8
0
 10
1775.1912430829809182
 20
66.5319531982466685
 30
0.0
 40
1.94722273030202
 50
4.8553217746454642
 51
37.493696328729591
  0
ARC
  5
4DD0
  8
0
 10
1782.4150902930930442
 20
73.1422194974664137
 30
0.0
 40
7.8537108225605801
 50
212.7312823830662012
 51
223.6904296425630889
  0
ARC
  5
4DD1
  8
0
 10
1783.0376736270429774
 20
72.2521266591199236
 30
0.0
 40
7.9704134822761583
 50
179.5152782093911128
 51
204.904570053492705
  0
ARC
  5
4DD2
  8
0
 10
-131.5805586747777909
 20
-17.9410932403506216
 30
0.0
 40
1908.7833762283819397
 50
2.7103565300195078
 51
3.1908179251177891
  0
LINE
  5
4DD3
  8
0
 10
1773.991116187039097
 20
88.304646389650884
 30
0.0
 11
1805.6723411597690756
 21
88.304646389650884
 31
0.0
  0
LINE
  5
4DD4
  8
0
 10
1805.8709966018689101
 20
89.2845977831508861
 30
0.0
 11
1805.973428673403987
 21
88.3360049286508939
 31
0.0
  0
LINE
  5
4DD5
  8
0
 10
1805.973428673403987
 20
88.3360049286508939
 30
0.0
 11
1805.6723411597690756
 21
88.304646389650884
 31
0.0
  0
ARC
  5
4DD6
  8
0
 10
1802.2691038409780049
 20
66.7430158326005198
 30
0.0
 40
0.2669126506894646
 50
273.1440058242607734
 51
350.0216057653976804
  0
ARC
  5
4DD7
  8
0
 10
1805.5228320918079135
 20
89.223060647943754
 30
0.0
 40
0.3535609495908572
 50
10.0233543610567395
 51
85.700117378436687
  0
ARC
  5
4DD8
  8
0
 10
1804.4722142638258902
 20
66.5319531982466685
 30
0.0
 40
1.94722273030202
 50
142.5063036712703877
 51
175.1446782253545109
  0
ARC
  5
4DD9
  8
0
 10
1797.248367053714901
 20
73.1422194974664137
 30
0.0
 40
7.8537108225605801
 50
316.3095703574369963
 51
327.2687176169338272
  0
ARC
  5
4DDA
  8
0
 10
1796.6257837197640583
 20
72.2521266591199236
 30
0.0
 40
7.9704134822761583
 50
335.0954299465071813
 51
0.4847217906088767
  0
ARC
  5
4DDB
  8
0
 10
3711.2440160215860487
 20
-17.9410932403506216
 30
0.0
 40
1908.7833762283819397
 50
176.8091820748821874
 51
177.28964346998049
  0
ENDSEC
  0
EOF
