  0
SECTION
  2
HEADER
  9
$ACADVER
  1
AC1009
  9
$INSBASE
 10
1773.3647475151069557
 20
2.6794735845729458
 30
0.0
  9
$EXTMIN
 10
1743.2337515785229698
 20
-13.4622264154273203
 30
0.0
  9
$EXTMAX
 10
1803.4957434516909416
 20
18.821173584573021
 30
0.0
  9
$LIMMIN
 10
0.0
 20
0.0
  9
$LIMMAX
 10
11.6929133858000007
 20
8.2677165353999982
  9
$ORTHOMODE
 70
     1
  9
$REGENMODE
 70
     1
  9
$FILLMODE
 70
     1
  9
$QTEXTMODE
 70
     0
  9
$MIRRTEXT
 70
     0
  9
$DRAGMODE
 70
     2
  9
$LTSCALE
 40
0.6431102362
  9
$OSMODE
 70
  4095
  9
$ATTMODE
 70
     1
  9
$TEXTSIZE
 40
0.2
  9
$TRACEWID
 40
0.05
  9
$TEXTSTYLE
  7
STANDARD
  9
$CLAYER
  8
0
  9
$CELTYPE
  6
BYLAYER
  9
$CECOLOR
 62
   256
  9
$DIMSCALE
 40
1.0
  9
$DIMASZ
 40
0.1875
  9
$DIMEXO
 40
0.0625
  9
$DIMDLI
 40
0.4443307087
  9
$DIMRND
 40
0.0
  9
$DIMDLE
 40
0.0
  9
$DIMEXE
 40
0.125
  9
$DIMTP
 40
0.01
  9
$DIMTM
 40
0.01
  9
$DIMTXT
 40
2.0
  9
$DIMCEN
 40
0.1052362205
  9
$DIMTSZ
 40
0.0
  9
$DIMTOL
 70
     1
  9
$DIMLIM
 70
     0
  9
$DIMTIH
 70
     1
  9
$DIMTOH
 70
     1
  9
$DIMSE1
 70
     0
  9
$DIMSE2
 70
     0
  9
$DIMTAD
 70
     0
  9
$DIMZIN
 70
     0
  9
$DIMBLK
  1

  9
$DIMASO
 70
     1
  9
$DIMSHO
 70
     1
  9
$DIMPOST
  1
\X
  9
$DIMAPOST
  1

  9
$DIMALT
 70
     1
  9
$DIMALTD
 70
     2
  9
$DIMALTF
 40
25.3999999999999986
  9
$DIMLFAC
 40
1.0
  9
$DIMTOFL
 70
     0
  9
$DIMTVP
 40
0.0
  9
$DIMTIX
 70
     0
  9
$DIMSOXD
 70
     0
  9
$DIMSAH
 70
     0
  9
$DIMBLK1
  1

  9
$DIMBLK2
  1

  9
$DIMSTYLE
  2
STANDARD
  9
$DIMCLRD
 70
     0
  9
$DIMCLRE
 70
     0
  9
$DIMCLRT
 70
     0
  9
$DIMTFAC
 40
1.0
  9
$DIMGAP
 40
0.09
  9
$LUNITS
 70
     2
  9
$LUPREC
 70
     4
  9
$SKETCHINC
 40
0.1
  9
$FILLETRAD
 40
0.0
  9
$AUNITS
 70
     0
  9
$AUPREC
 70
     0
  9
$MENU
  1
.
  9
$ELEVATION
 40
0.0
  9
$PELEVATION
 40
0.0
  9
$THICKNESS
 40
0.0
  9
$LIMCHECK
 70
     0
  9
$BLIPMODE
 70
     0
  9
$CHAMFERA
 40
0.0
  9
$CHAMFERB
 40
0.0
  9
$SKPOLY
 70
     0
  9
$TDCREATE
 40
2458060.468368056230247
  9
$TDUPDATE
 40
2458655.8549999999813735
  9
$TDINDWG
 40
0.2606762731
  9
$TDUSRTIMER
 40
0.2606762731
  9
$USRTIMER
 70
     1
  9
$ANGBASE
 50
0.0
  9
$ANGDIR
 70
     0
  9
$PDMODE
 70
     0
  9
$PDSIZE
 40
0.3125
  9
$PLINEWID
 40
0.0
  9
$COORDS
 70
     1
  9
$SPLFRAME
 70
     0
  9
$SPLINETYPE
 70
     6
  9
$SPLINESEGS
 70
     8
  9
$ATTDIA
 70
     1
  9
$ATTREQ
 70
     1
  9
$HANDLING
 70
     1
  9
$HANDSEED
  5
4F50
  9
$SURFTAB1
 70
     6
  9
$SURFTAB2
 70
     6
  9
$SURFTYPE
 70
     6
  9
$SURFU
 70
     6
  9
$SURFV
 70
     6
  9
$UCSNAME
  2

  9
$UCSORG
 10
0.0
 20
0.0
 30
0.0
  9
$UCSXDIR
 10
1.0
 20
0.0
 30
0.0
  9
$UCSYDIR
 10
0.0
 20
1.0
 30
0.0
  9
$PUCSNAME
  2

  9
$PUCSORG
 10
0.0
 20
0.0
 30
0.0
  9
$PUCSXDIR
 10
1.0
 20
0.0
 30
0.0
  9
$PUCSYDIR
 10
0.0
 20
1.0
 30
0.0
  9
$USERI1
 70
     0
  9
$USERI2
 70
     0
  9
$USERI3
 70
     0
  9
$USERI4
 70
     0
  9
$USERI5
 70
     0
  9
$USERR1
 40
0.0
  9
$USERR2
 40
0.0
  9
$USERR3
 40
0.0
  9
$USERR4
 40
0.0
  9
$USERR5
 40
0.0
  9
$WORLDVIEW
 70
     1
  9
$SHADEDGE
 70
     3
  9
$SHADEDIF
 70
    70
  9
$TILEMODE
 70
     1
  9
$MAXACTVP
 70
    64
  9
$PLIMCHECK
 70
     0
  9
$PEXTMIN
 10
1.0000000000000000E+20
 20
1.0000000000000000E+20
 30
1.0000000000000000E+20
  9
$PEXTMAX
 10
-1.0000000000000000E+20
 20
-1.0000000000000000E+20
 30
-1.0000000000000000E+20
  9
$PLIMMIN
 10
0.0
 20
0.0
  9
$PLIMMAX
 10
12.0
 20
9.0
  9
$UNITMODE
 70
     0
  9
$VISRETAIN
 70
     1
  9
$PLINEGEN
 70
     0
  9
$PSLTSCALE
 70
     1
  0
ENDSEC
  0
SECTION
  2
TABLES
  0
TABLE
  2
VPORT
 70
     1
  0
VPORT
  2
*ACTIVE
 70
     0
 10
0.0
 20
0.0
 11
1.0
 21
1.0
 12
0.0
 22
0.0
 13
0.0
 23
0.0
 14
1.0
 24
1.0
 15
0.0
 25
0.0
 16
0.0
 26
0.0
 36
192.5635211876862058
 17
1773.36474609375
 27
2.6794729232788081
 37
0.0
 40
68.3739875105923574
 41
2.1027932960893851
 42
50.0
 43
0.0
 44
0.0
 50
0.0
 51
0.0
 71
     0
 72
   100
 73
     1
 74
     1
 75
     0
 76
     0
 77
     0
 78
     0
  0
ENDTAB
  0
TABLE
  2
LTYPE
 70
     2
  0
LTYPE
  2
CONTINUOUS
 70
     0
  3
Solid line
 72
    65
 73
     0
 40
0.0
  0
LTYPE
  2
PHANTOM2
 70
     0
  3
___ _ _ ___ _ _ ___ _ _ ___ _ _
 72
    65
 73
     6
 40
1.25
 49
0.625
 49
-0.125
 49
0.125
 49
-0.125
 49
0.125
 49
-0.125
  0
ENDTAB
  0
TABLE
  2
LAYER
 70
     2
  0
LAYER
  2
0
 70
     0
 62
   255
  6
CONTINUOUS
  0
LAYER
  2
DEFPOINTS
 70
     0
 62
     7
  6
CONTINUOUS
  0
ENDTAB
  0
TABLE
  2
STYLE
 70
     1
  0
STYLE
  2
STANDARD
 70
     0
 40
0.0
 41
0.8
 50
0.0
 71
     0
 42
0.2
  3
txt
  4

  0
ENDTAB
  0
TABLE
  2
VIEW
 70
     0
  0
ENDTAB
  0
TABLE
  2
UCS
 70
     0
  0
ENDTAB
  0
TABLE
  2
APPID
 70
     9
  0
APPID
  2
ACAD
 70
     0
  0
APPID
  2
ACAD_MLEADERVER
 70
     0
  0
APPID
  2
ACAD_EXEMPT_FROM_CAD_STANDARDS
 70
     0
  0
APPID
  2
ACAD_NAV_VCDISPLAY
 70
     0
  0
APPID
  2
ACAECLAYERSTANDARD
 70
     0
  0
APPID
  2
ACCMTRANSPARENCY
 70
     0
  0
APPID
  2
ACAD_DSTYLE_DIMJAG
 70
     0
  0
APPID
  2
ACAD_DSTYLE_DIMTALN
 70
     0
  0
APPID
  2
ACDBATTR
 70
     0
  0
ENDTAB
  0
TABLE
  2
DIMSTYLE
 70
     1
  0
DIMSTYLE
  2
STANDARD
 70
     0
  3

  4

  5

  6

  7

 40
1.0
 41
0.1875
 42
0.0625
 43
0.38
 44
0.125
 45
0.0
 46
0.0
 47
0.01
 48
0.01
140
0.15625
141
0.09
142
0.0
143
25.3999999999999986
144
1.0
145
0.0
146
1.0
147
0.09
 71
     1
 72
     0
 73
     1
 74
     1
 75
     0
 76
     0
 77
     0
 78
     4
170
     0
171
     2
172
     0
173
     0
174
     0
175
     0
176
     0
177
     0
178
     0
  0
ENDTAB
  0
ENDSEC
  0
SECTION
  2
BLOCKS
  0
BLOCK
  8
0
  2
$MODEL_SPACE
 70
     0
 10
0.0
 20
0.0
 30
0.0
  3
$MODEL_SPACE
  1

  0
ENDBLK
  5
21
  8
0
  0
BLOCK
 67
     1
  8
0
  2
$PAPER_SPACE
 70
     0
 10
0.0
 20
0.0
 30
0.0
  3
$PAPER_SPACE
  1

  0
ENDBLK
  5
1D
 67
     1
  8
0
  0
ENDSEC
  0
SECTION
  2
ENTITIES
  0
ATTDEF
  5
3930
  8
DEFPOINTS
 10
1773.3614978206230717
 20
2.6855076738924661
 30
0.0
 40
0.001
  1
95333
  3

  2
MODELNUMBER
 70
     0
1001
ACDBATTR
1070
     0
1070
     1
  0
ATTDEF
  5
3931
  8
DEFPOINTS
 10
1773.3614978206230717
 20
2.683841007225801
 30
0.0
 40
0.001
  1
SPECTACLE
  3

  2
TRADENAME
 70
     0
1001
ACDBATTR
1070
     0
1070
     1
  0
ATTDEF
  5
3932
  8
DEFPOINTS
 10
1773.3614978206230717
 20
2.6821743405591358
 30
0.0
 40
0.001
  1
BATH
  3

  2
PRODUCT
 70
     0
1001
ACDBATTR
1070
     0
1070
     1
  0
ATTDEF
  5
3933
  8
DEFPOINTS
 10
1773.3614978206230717
 20
2.6805076738924711
 30
0.0
 40
0.001
  1
ACRYLIC
  3

  2
MATERIAL
 70
     0
1001
ACDBATTR
1070
     0
1070
     1
  0
CIRCLE
  5
4DFC
  8
0
 10
1773.3647475135569493
 20
4.940173585115061
 30
0.0
 40
1.5
  0
CIRCLE
  5
4DFD
  8
0
 10
1773.3647475135569493
 20
4.940173585115061
 30
0.0
 40
1.0
  0
LINE
  5
4DFE
  8
0
 10
1777.5535182199189421
 20
-13.4622264154270503
 30
0.0
 11
1769.1759768102970156
 21
-13.4622264154270503
 31
0.0
  0
ARC
  5
4DFF
  8
0
 10
1772.6088607464801044
 20
186.1685188409769012
 30
0.0
 40
199.6602593000083061
 50
266.1461084368053207
 51
269.0148292203452911
  0
ARC
  5
4E00
  8
0
 10
1759.8740714785681121
 20
8.2045831128903615
 30
0.0
 40
21.2558656540909894
 50
243.0479357870559056
 51
268.1536384515923146
  0
ARC
  5
4E01
  8
0
 10
1757.4603332669009887
 20
1.299430140711251
 30
0.0
 40
14.0408071363006606
 50
193.8996003776144903
 51
239.053189869615295
  0
ARC
  5
4E02
  8
0
 10
1786.7291052234479594
 20
5.7295865890603324
 30
0.0
 40
43.6023361104561076
 50
184.014466986856803
 51
190.3091658123217087
  0
LINE
  5
4E03
  8
0
 10
1780.42066616508896
 20
18.8211735845729393
 30
0.0
 11
1766.3088288651249513
 21
18.8211735845729287
 31
0.0
  0
ARC
  5
4E04
  8
0
 10
1771.5423023062289758
 20
-129.0016211978849014
 30
0.0
 40
147.9154079247844891
 50
92.0276355413067932
 51
95.5696477994598439
  0
ARC
  5
4E05
  8
0
 10
1758.8033947212459225
 20
0.2936200093422911
 30
0.0
 40
17.9946613346499902
 50
95.1559397164472927
 51
118.6860104080386975
  0
ARC
  5
4E06
  8
0
 10
1757.2955809212310214
 20
4.2540200644630479
 30
0.0
 40
13.8086965498142202
 50
121.0861386329817009
 51
159.5325960509618142
  0
ARC
  5
4E07
  8
0
 10
1765.5562813096630634
 20
2.0585675258344902
 30
0.0
 40
22.331096370684751
 50
161.667013821570805
 51
178.4129093291637957
  0
LINE
  5
4E08
  8
0
 10
1779.1536761179970654
 20
16.9152709127964016
 30
0.0
 11
1767.5758189122200292
 21
16.91527091279643
 31
0.0
  0
ARC
  5
4E09
  8
0
 10
1770.1816181410199533
 20
-228.287825914733105
 30
0.0
 40
245.2169424885474882
 50
90.6088653851184773
 51
92.3834978835958509
  0
ARC
  5
4E0A
  8
0
 10
1760.6658195774739397
 20
-5.9851137986750436
 30
0.0
 40
22.7123302882350799
 50
91.7213683218971738
 51
109.0283879816448973
  0
ARC
  5
4E0B
  8
0
 10
1758.6173722902119607
 20
2.1546021946188172
 30
0.0
 40
14.3674412537689893
 50
111.8902147626126009
 51
143.1192944137964957
  0
ARC
  5
4E0C
  8
0
 10
1760.815163090634087
 20
2.4345159229770981
 30
0.0
 40
16.0318519654022111
 50
148.6419879823232861
 51
182.8374237863635017
  0
ARC
  5
4E0D
  8
0
 10
1759.3721656812961101
 20
2.051801830099194
 30
0.0
 40
14.5749929195759602
 50
181.6154919912644914
 51
218.4705307623158888
  0
ARC
  5
4E0E
  8
0
 10
1758.9676002913749926
 20
2.9633281973580798
 30
0.0
 40
14.85671454808889
 50
222.1960632514060023
 51
263.8138839947851011
  0
ARC
  5
4E0F
  8
0
 10
1765.0529140687619929
 20
52.7484563682403405
 30
0.0
 40
65.0113032034753218
 50
263.2100701917776178
 51
269.5914428472570989
  0
LINE
  5
4E10
  8
0
 10
1764.589344010521927
 20
-12.2611940462581508
 30
0.0
 11
1782.1401510196940308
 21
-12.2611940462581508
 31
0.0
  0
LINE
  5
4E11
  8
0
 10
1782.9578790031450808
 20
13.8661942999254499
 30
0.0
 11
1763.7716160270699675
 21
13.8661942999254499
 31
0.0
  0
ARC
  5
4E12
  8
0
 10
1764.2890248511209847
 20
-71.3640953799191919
 30
0.0
 40
85.2318601862087633
 50
90.3478220928472666
 51
95.7685400419452577
  0
ARC
  5
4E13
  8
0
 10
1756.6137351498819044
 20
1.4291580063573539
 30
0.0
 40
12.0400374316036807
 50
94.2456894675120367
 51
132.868349760147197
  0
ARC
  5
4E14
  8
0
 10
1758.7107821620850245
 20
2.3673339502091721
 30
0.0
 40
12.9628937424814996
 50
142.5284952843996109
 51
175.4699565609022045
  0
ARC
  5
4E15
  8
0
 10
1764.5894047177159791
 20
2.9413869839776079
 30
0.0
 40
18.8064002567963691
 50
178.6295648602462904
 51
198.8726864062437869
  0
ARC
  5
4E16
  8
0
 10
1758.1693867170879457
 20
1.1484078690021271
 30
0.0
 40
12.1574985396237807
 50
200.6641789673020071
 51
245.5045887569995955
  0
ARC
  5
4E17
  8
0
 10
1766.0492526273590101
 20
34.31590668972229
 30
0.0
 40
46.0793006254810606
 50
253.7159510677066976
 51
268.1931069077464258
  0
LINE
  5
4E18
  8
0
 10
1764.5963258932958979
 20
-11.7404821183345494
 30
0.0
 11
1782.1331691369180135
 21
-11.7404821183345494
 31
0.0
  0
LINE
  5
4E19
  8
0
 10
1779.1234352346800733
 20
11.1038969030969898
 30
0.0
 11
1767.6060597955340654
 21
11.1038969030969898
 31
0.0
  0
ARC
  5
4E1A
  8
0
 10
1768.6756548514870246
 20
-32.50131776444492
 30
0.0
 40
43.618330777164438
 50
91.4051300177034136
 51
100.6798092161832017
  0
ARC
  5
4E1B
  8
0
 10
1762.3731891990219083
 20
1.381594695037577
 30
0.0
 40
9.1547605220509212
 50
101.2174121946378023
 51
154.4857320538501995
  0
ARC
  5
4E1C
  8
0
 10
1767.0131258355329464
 20
1.397683185856891
 30
0.0
 40
13.4863659505290006
 50
163.0703422654154906
 51
181.766135224706602
  0
ARC
  5
4E1D
  8
0
 10
1766.4742222919899177
 20
1.316475083520217
 30
0.0
 40
12.9453765667711895
 50
181.4803914549422927
 51
207.854222088643894
  0
ARC
  5
4E1E
  8
0
 10
1763.8963687125180968
 20
2.972295378474612
 30
0.0
 40
11.7469228943964392
 50
220.9840412673646028
 51
265.6721870203397771
  0
ARC
  5
4E1F
  8
0
 10
1772.5908547334909144
 20
85.5057117688111674
 30
0.0
 40
94.7325820752934646
 50
264.1953690837773934
 51
268.5515604746698841
  0
LINE
  5
4E20
  8
0
 10
1770.1962664640880121
 20
-9.1966010523245671
 30
0.0
 11
1776.5332285661258993
 21
-9.1966010523245671
 31
0.0
  0
ARC
  5
4E21
  8
0
 10
1774.1206342837340344
 20
186.1685188409772991
 30
0.0
 40
199.660259300008704
 50
270.9851707796547089
 51
273.8538915631946793
  0
ARC
  5
4E22
  8
0
 10
1786.8554235516460267
 20
8.2045831128903615
 30
0.0
 40
21.2558656540909894
 50
271.8463615483947251
 51
296.9520642129440944
  0
ARC
  5
4E23
  8
0
 10
1789.2691617633129226
 20
1.299430140711251
 30
0.0
 40
14.0408071363006606
 50
300.9468101303847902
 51
346.1003996223855097
  0
ARC
  5
4E24
  8
0
 10
1760.000389806765952
 20
5.7295865890603324
 30
0.0
 40
43.6023361104561076
 50
349.6908341876783197
 51
355.9855330131430833
  0
ARC
  5
4E25
  8
0
 10
1775.1871927239849356
 20
-129.0016211978849014
 30
0.0
 40
147.9154079247844891
 50
84.4303522005401703
 51
87.9723644586932352
  0
ARC
  5
4E26
  8
0
 10
1787.9261003089679889
 20
0.2936200093422911
 30
0.0
 40
17.9946613346499902
 50
61.3139895919613309
 51
84.8440602835527073
  0
ARC
  5
4E27
  8
0
 10
1789.4339141089840268
 20
4.2540200644630479
 30
0.0
 40
13.8086965498142202
 50
20.4674039490381894
 51
58.913861367018292
  0
ARC
  5
4E28
  8
0
 10
1781.1732137205510753
 20
2.0585675258344902
 30
0.0
 40
22.331096370684751
 50
1.58709067083621
 51
18.3329861784292412
  0
ARC
  5
4E29
  8
0
 10
1776.547876889193958
 20
-228.287825914733105
 30
0.0
 40
245.2169424885474882
 50
87.6165021164041349
 51
89.3911346148815085
  0
ARC
  5
4E2A
  8
0
 10
1786.0636754527399717
 20
-5.9851137986750436
 30
0.0
 40
22.7123302882350799
 50
70.9716120183550885
 51
88.2786316781028262
  0
ARC
  5
4E2B
  8
0
 10
1788.1121227400019507
 20
2.1546021946188172
 30
0.0
 40
14.3674412537689893
 50
36.8807055862034474
 51
68.1097852373873707
  0
ARC
  5
4E2C
  8
0
 10
1785.9143319395800518
 20
2.4345159229770981
 30
0.0
 40
16.0318519654022111
 50
357.1625762136363846
 51
31.358012017676689
  0
ARC
  5
4E2D
  8
0
 10
1787.3573293489180287
 20
2.051801830099194
 30
0.0
 40
14.5749929195759602
 50
321.5294692376841112
 51
358.3845080087355086
  0
ARC
  5
4E2E
  8
0
 10
1787.7618947388389188
 20
2.9633281973580798
 30
0.0
 40
14.85671454808889
 50
276.1861160052147852
 51
317.8039367485940261
  0
ARC
  5
4E2F
  8
0
 10
1781.6765809614530554
 20
52.7484563682403405
 30
0.0
 40
65.0113032034753218
 50
270.4085571527298839
 51
276.7899298082224959
  0
ARC
  5
4E30
  8
0
 10
1782.4404701790929266
 20
-71.3640953799191919
 30
0.0
 40
85.2318601862087633
 50
84.2314599580547281
 51
89.6521779071657647
  0
ARC
  5
4E31
  8
0
 10
1790.115759880332007
 20
1.4291580063573539
 30
0.0
 40
12.0400374316036807
 50
47.1316502398527319
 51
85.7543105324879917
  0
ARC
  5
4E32
  8
0
 10
1788.0187128681300237
 20
2.3673339502091721
 30
0.0
 40
12.9628937424814996
 50
4.5300434390977964
 51
37.471504715600382
  0
ARC
  5
4E33
  8
0
 10
1782.1400903124979322
 20
2.9413869839776079
 30
0.0
 40
18.8064002567963691
 50
341.1273135937561847
 51
1.3704351397536829
  0
ARC
  5
4E34
  8
0
 10
1788.5601083131271025
 20
1.1484078690021271
 30
0.0
 40
12.1574985396237807
 50
294.4954112430003761
 51
339.3358210326979929
  0
ARC
  5
4E35
  8
0
 10
1780.6802424028539917
 20
34.31590668972229
 30
0.0
 40
46.0793006254810606
 50
271.8068930922535742
 51
286.2840489322933877
  0
ARC
  5
4E36
  8
0
 10
1778.0538401787268867
 20
-32.50131776444492
 30
0.0
 40
43.618330777164438
 50
79.3201907838167273
 51
88.5948699822965864
  0
ARC
  5
4E37
  8
0
 10
1784.3563058311920031
 20
1.381594695037577
 30
0.0
 40
9.1547605220509212
 50
25.5142679461497792
 51
78.7825878053622262
  0
ARC
  5
4E38
  8
0
 10
1779.7163691946809649
 20
1.397683185856891
 30
0.0
 40
13.4863659505290006
 50
358.2338647752932843
 51
16.9296577345844312
  0
ARC
  5
4E39
  8
0
 10
1780.2552727382239937
 20
1.316475083520217
 30
0.0
 40
12.9453765667711895
 50
332.1457779113562196
 51
358.519608545057622
  0
ARC
  5
4E3A
  8
0
 10
1782.8331263176969514
 20
2.972295378474612
 30
0.0
 40
11.7469228943964392
 50
274.3278129796472058
 51
319.0159587326355108
  0
ARC
  5
4E3B
  8
0
 10
1774.1386402967239064
 20
85.5057117688111674
 30
0.0
 40
94.7325820752934646
 50
271.4484395253301159
 51
275.8046309162224929
  0
LINE
  5
4E3C
  8
0
 10
1774.1761968813889325
 20
13.2122239638150507
 30
0.0
 11
1772.553298151125091
 21
13.2122239638150507
 31
0.0
  0
LINE
  5
4E3D
  8
0
 10
1774.1761968813889325
 20
13.1709448912808504
 30
0.0
 11
1772.553298151125091
 21
13.1709448912808504
 31
0.0
  0
ARC
  5
4E3E
  8
0
 10
1772.5647113059389994
 20
14.1758417079278392
 30
0.0
 40
1.0049616272326369
 50
258.5238563958681084
 51
269.3492889262793142
  0
ARC
  5
4E3F
  8
0
 10
1772.5940610574521088
 20
12.0037187429751402
 30
0.0
 40
1.209192492256526
 50
91.9318554280067133
 51
100.931078679789195
  0
ARC
  5
4E40
  8
0
 10
1774.164783726575024
 20
14.1758417079278392
 30
0.0
 40
1.0049616272326369
 50
270.6507110737206858
 51
281.4761436041318916
  0
ARC
  5
4E41
  8
0
 10
1774.1354339750619147
 20
12.0037187429751402
 30
0.0
 40
1.209192492256526
 50
79.0689213202107624
 51
88.0681445719933009
  0
ENDSEC
  0
EOF
