  0
SECTION
  2
HEADER
  9
$ACADVER
  1
AC1009
  9
$INSBASE
 10
4733.646061396899313
 20
281.7183549144917265
 30
0.0
  9
$EXTMIN
 10
4697.6460613968965845
 20
281.7183549144917265
 30
0.0
  9
$EXTMAX
 10
4733.653290678630583
 20
285.9021372639916763
 30
0.0
  9
$LIMMIN
 10
0.0
 20
0.0
  9
$LIMMAX
 10
11.6929133858000007
 20
8.2677165353999982
  9
$ORTHOMODE
 70
     1
  9
$REGENMODE
 70
     1
  9
$FILLMODE
 70
     1
  9
$QTEXTMODE
 70
     0
  9
$MIRRTEXT
 70
     0
  9
$DRAGMODE
 70
     2
  9
$LTSCALE
 40
0.6431102362
  9
$OSMODE
 70
  4095
  9
$ATTMODE
 70
     1
  9
$TEXTSIZE
 40
0.2
  9
$TRACEWID
 40
0.05
  9
$TEXTSTYLE
  7
STANDARD
  9
$CLAYER
  8
0
  9
$CELTYPE
  6
BYLAYER
  9
$CECOLOR
 62
   256
  9
$DIMSCALE
 40
1.0
  9
$DIMASZ
 40
0.1875
  9
$DIMEXO
 40
0.0625
  9
$DIMDLI
 40
0.4443307087
  9
$DIMRND
 40
0.0
  9
$DIMDLE
 40
0.0
  9
$DIMEXE
 40
0.125
  9
$DIMTP
 40
0.01
  9
$DIMTM
 40
0.01
  9
$DIMTXT
 40
2.0
  9
$DIMCEN
 40
0.1052362205
  9
$DIMTSZ
 40
0.0
  9
$DIMTOL
 70
     1
  9
$DIMLIM
 70
     0
  9
$DIMTIH
 70
     1
  9
$DIMTOH
 70
     1
  9
$DIMSE1
 70
     0
  9
$DIMSE2
 70
     0
  9
$DIMTAD
 70
     0
  9
$DIMZIN
 70
     0
  9
$DIMBLK
  1

  9
$DIMASO
 70
     1
  9
$DIMSHO
 70
     1
  9
$DIMPOST
  1
\X
  9
$DIMAPOST
  1

  9
$DIMALT
 70
     1
  9
$DIMALTD
 70
     2
  9
$DIMALTF
 40
25.3999999999999986
  9
$DIMLFAC
 40
1.0
  9
$DIMTOFL
 70
     0
  9
$DIMTVP
 40
0.0
  9
$DIMTIX
 70
     0
  9
$DIMSOXD
 70
     0
  9
$DIMSAH
 70
     0
  9
$DIMBLK1
  1

  9
$DIMBLK2
  1

  9
$DIMSTYLE
  2
STANDARD
  9
$DIMCLRD
 70
     0
  9
$DIMCLRE
 70
     0
  9
$DIMCLRT
 70
     0
  9
$DIMTFAC
 40
1.0
  9
$DIMGAP
 40
0.09
  9
$LUNITS
 70
     2
  9
$LUPREC
 70
     4
  9
$SKETCHINC
 40
0.1
  9
$FILLETRAD
 40
0.0
  9
$AUNITS
 70
     0
  9
$AUPREC
 70
     0
  9
$MENU
  1
.
  9
$ELEVATION
 40
0.0
  9
$PELEVATION
 40
0.0
  9
$THICKNESS
 40
0.0
  9
$LIMCHECK
 70
     0
  9
$BLIPMODE
 70
     0
  9
$CHAMFERA
 40
0.0
  9
$CHAMFERB
 40
0.0
  9
$SKPOLY
 70
     0
  9
$TDCREATE
 40
2458060.468368056230247
  9
$TDUPDATE
 40
2459188.7456828709691763
  9
$TDINDWG
 40
0.3485024306
  9
$TDUSRTIMER
 40
0.3485024306
  9
$USRTIMER
 70
     1
  9
$ANGBASE
 50
0.0
  9
$ANGDIR
 70
     0
  9
$PDMODE
 70
     0
  9
$PDSIZE
 40
0.3125
  9
$PLINEWID
 40
0.0
  9
$COORDS
 70
     1
  9
$SPLFRAME
 70
     0
  9
$SPLINETYPE
 70
     6
  9
$SPLINESEGS
 70
     8
  9
$ATTDIA
 70
     1
  9
$ATTREQ
 70
     1
  9
$HANDLING
 70
     1
  9
$HANDSEED
  5
C263
  9
$SURFTAB1
 70
     6
  9
$SURFTAB2
 70
     6
  9
$SURFTYPE
 70
     6
  9
$SURFU
 70
     6
  9
$SURFV
 70
     6
  9
$UCSNAME
  2

  9
$UCSORG
 10
0.0
 20
0.0
 30
0.0
  9
$UCSXDIR
 10
1.0
 20
0.0
 30
0.0
  9
$UCSYDIR
 10
0.0
 20
1.0
 30
0.0
  9
$PUCSNAME
  2

  9
$PUCSORG
 10
0.0
 20
0.0
 30
0.0
  9
$PUCSXDIR
 10
1.0
 20
0.0
 30
0.0
  9
$PUCSYDIR
 10
0.0
 20
1.0
 30
0.0
  9
$USERI1
 70
     0
  9
$USERI2
 70
     0
  9
$USERI3
 70
     0
  9
$USERI4
 70
     0
  9
$USERI5
 70
     0
  9
$USERR1
 40
0.0
  9
$USERR2
 40
0.0
  9
$USERR3
 40
0.0
  9
$USERR4
 40
0.0
  9
$USERR5
 40
0.0
  9
$WORLDVIEW
 70
     1
  9
$SHADEDGE
 70
     3
  9
$SHADEDIF
 70
    70
  9
$TILEMODE
 70
     1
  9
$MAXACTVP
 70
    64
  9
$PLIMCHECK
 70
     0
  9
$PEXTMIN
 10
1.0000000000000000E+20
 20
1.0000000000000000E+20
 30
1.0000000000000000E+20
  9
$PEXTMAX
 10
-1.0000000000000000E+20
 20
-1.0000000000000000E+20
 30
-1.0000000000000000E+20
  9
$PLIMMIN
 10
0.0
 20
0.0
  9
$PLIMMAX
 10
12.0
 20
9.0
  9
$UNITMODE
 70
     0
  9
$VISRETAIN
 70
     1
  9
$PLINEGEN
 70
     0
  9
$PSLTSCALE
 70
     1
  0
ENDSEC
  0
SECTION
  2
TABLES
  0
TABLE
  2
VPORT
 70
     1
  0
VPORT
  2
*ACTIVE
 70
     0
 10
0.0
 20
0.0
 11
1.0
 21
1.0
 12
0.0
 22
0.0
 13
0.0
 23
0.0
 14
1.0
 24
1.0
 15
0.0
 25
0.0
 16
0.0
 26
0.0
 36
102.7122292656305973
 17
4715.6496433863476341
 27
283.8102416992186932
 37
0.0
 40
36.2535203715035195
 41
2.1186252771618621
 42
50.0
 43
0.0
 44
0.0
 50
0.0
 51
0.0
 71
     0
 72
   100
 73
     1
 74
     1
 75
     0
 76
     0
 77
     0
 78
     0
  0
ENDTAB
  0
TABLE
  2
LTYPE
 70
     3
  0
LTYPE
  2
CONTINUOUS
 70
     0
  3
Solid line
 72
    65
 73
     0
 40
0.0
  0
LTYPE
  2
PHANTOM2
 70
     0
  3
___ _ _ ___ _ _ ___ _ _ ___ _ _
 72
    65
 73
     6
 40
1.25
 49
0.625
 49
-0.125
 49
0.125
 49
-0.125
 49
0.125
 49
-0.125
  0
ENDTAB
  0
TABLE
  2
LAYER
 70
     2
  0
LAYER
  2
0
 70
     0
 62
   255
  6
CONTINUOUS
  0
LAYER
  2
DEFPOINTS
 70
     0
 62
     7
  6
CONTINUOUS
  0
ENDTAB
  0
TABLE
  2
STYLE
 70
     1
  0
STYLE
  2
STANDARD
 70
     0
 40
0.0
 41
0.8
 50
0.0
 71
     0
 42
0.2
  3
txt
  4

  0
ENDTAB
  0
TABLE
  2
VIEW
 70
     0
  0
ENDTAB
  0
TABLE
  2
UCS
 70
     0
  0
ENDTAB
  0
TABLE
  2
APPID
 70
     9
  0
APPID
  2
ACAD
 70
     0
  0
APPID
  2
ACAD_MLEADERVER
 70
     0
  0
APPID
  2
ACAD_EXEMPT_FROM_CAD_STANDARDS
 70
     0
  0
APPID
  2
ACAD_NAV_VCDISPLAY
 70
     0
  0
APPID
  2
ACAECLAYERSTANDARD
 70
     0
  0
APPID
  2
ACCMTRANSPARENCY
 70
     0
  0
APPID
  2
ACAD_DSTYLE_DIMJAG
 70
     0
  0
APPID
  2
ACAD_DSTYLE_DIMTALN
 70
     0
  0
APPID
  2
ACDBATTR
 70
     0
  0
ENDTAB
  0
TABLE
  2
DIMSTYLE
 70
     2
  0
DIMSTYLE
  2
STANDARD
 70
     0
  3

  4

  5

  6

  7

 40
1.0
 41
0.1875
 42
0.0625
 43
0.38
 44
0.125
 45
0.0
 46
0.0
 47
0.01
 48
0.01
140
0.15625
141
0.09
142
0.0
143
25.3999999999999986
144
1.0
145
0.0
146
1.0
147
0.09
 71
     1
 72
     0
 73
     1
 74
     1
 75
     0
 76
     0
 77
     0
 78
     4
170
     0
171
     2
172
     0
173
     0
174
     0
175
     0
176
     0
177
     0
178
     0
  0
ENDTAB
  0
ENDSEC
  0
SECTION
  2
BLOCKS
  0
BLOCK
  8
0
  2
$MODEL_SPACE
 70
     0
 10
0.0
 20
0.0
 30
0.0
  3
$MODEL_SPACE
  1

  0
ENDBLK
  5
21
  8
0
  0
BLOCK
 67
     1
  8
0
  2
$PAPER_SPACE
 70
     0
 10
0.0
 20
0.0
 30
0.0
  3
$PAPER_SPACE
  1

  0
ENDBLK
  5
1D
 67
     1
  8
0
  0
ENDSEC
  0
SECTION
  2
ENTITIES
  0
ATTDEF
  5
3930
  8
DEFPOINTS
 10
4733.6426240119617432
 20
281.7306692637408219
 30
0.0
 40
0.001
  1
95080
  3

  2
MODELNUMBER
 70
     0
1001
ACDBATTR
1070
     0
1070
     1
  0
ATTDEF
  5
3931
  8
DEFPOINTS
 10
4733.6426240119617432
 20
281.7290025970740999
 30
0.0
 40
0.001
  1
GUARD+
  3

  2
TRADENAME
 70
     0
1001
ACDBATTR
1070
     0
1070
     1
  0
ATTDEF
  5
3932
  8
DEFPOINTS
 10
4733.6426240119617432
 20
281.7273359304074916
 30
0.0
 40
0.001
  1
SHOWER RECEPTOR
  3

  2
PRODUCT
 70
     0
1001
ACDBATTR
1070
     0
1070
     1
  0
LINE
  5
C12F
  8
0
 10
4700.765169514597801
 20
283.9789003556916782
 30
0.0
 11
4700.7581655509993652
 21
284.0359430616916825
 31
0.0
  0
LINE
  5
C130
  8
0
 10
4705.1984833598980913
 20
283.1967280737916894
 30
0.0
 11
4705.1853252831979262
 21
282.2552182206916882
 31
0.0
  0
LINE
  5
C131
  8
0
 10
4705.0034602646974236
 20
282.6805029799916724
 30
0.0
 11
4705.0149274339992189
 21
283.2905258861916877
 31
0.0
  0
LINE
  5
C132
  8
0
 10
4704.993860956898061
 20
282.4813686135917123
 30
0.0
 11
4704.9985434230902683
 21
282.6805954064470825
 31
0.0
  0
LINE
  5
C133
  8
0
 10
4704.9851391006977792
 20
282.3170416630916861
 30
0.0
 11
4704.9901066970378452
 21
282.4814588303050868
 31
0.0
  0
LINE
  5
C134
  8
0
 10
4704.9832186895573614
 20
282.3171005183695002
 30
0.0
 11
4704.9825679163977838
 21
282.2965479532916788
 31
0.0
  0
LINE
  5
C135
  8
0
 10
4708.9059824258984008
 20
282.4204661506917091
 30
0.0
 11
4708.892959327196877
 21
281.9955305298917096
 31
0.0
  0
LINE
  5
C136
  8
0
 10
4711.8915514399977837
 20
281.9036319942916862
 30
0.0
 11
4711.9045745387984425
 21
282.3285676150916856
 31
0.0
  0
LINE
  5
C137
  8
0
 10
4712.3960613968984035
 20
283.111200661391706
 30
0.0
 11
4712.3960613968984035
 21
282.0294962468917106
 31
0.0
  0
LINE
  5
C138
  8
0
 10
4712.1808419801982382
 20
282.0451786839917077
 30
0.0
 11
4712.1978813383975648
 21
283.1049242671916772
 31
0.0
  0
LINE
  5
C139
  8
0
 10
4730.6457881866981552
 20
282.9707076918916755
 30
0.0
 11
4726.4026829026979613
 21
282.6015328073917203
 31
0.0
  0
LINE
  5
C13A
  8
0
 10
4724.6414160980230008
 20
282.4482882935993757
 30
0.0
 11
4720.6595900079983039
 21
282.1018502602917124
 31
0.0
  0
LINE
  5
C13B
  8
0
 10
4723.8310834425183202
 20
282.1576166694118228
 30
0.0
 11
4720.6621945730976222
 21
282.046956631691728
 31
0.0
  0
LINE
  5
C13C
  8
0
 10
4727.6524575955982073
 20
281.8504579766917004
 30
0.0
 11
4724.6529266052993989
 21
281.7974123484917186
 31
0.0
  0
LINE
  5
C13D
  8
0
 10
4724.6474681879853961
 20
282.106065342022589
 30
0.0
 11
4727.6470181308632164
 21
282.1580392709258831
 31
0.0
  0
LINE
  5
C13E
  8
0
 10
4730.658026642097866
 20
282.2786690212917051
 30
0.0
 11
4727.6458188833021268
 21
282.2258522148354132
 31
0.0
  0
LINE
  5
C13F
  8
0
 10
4724.6463030202621667
 20
282.1719511996366236
 30
0.0
 11
4720.6595900079983039
 21
282.1018502602917124
 31
0.0
  0
LINE
  5
C140
  8
0
 10
4727.6454176365268722
 20
282.2485412124880213
 30
0.0
 11
4724.6458852294026656
 21
282.1955757031576013
 31
0.0
  0
LINE
  5
C141
  8
0
 10
4714.3010613968981488
 20
281.966354914491717
 30
0.0
 11
4718.4910346057986317
 21
281.966354914491717
 31
0.0
  0
LINE
  5
C142
  8
0
 10
4712.3960613968984035
 20
282.0294962468917106
 30
0.0
 11
4720.396061396899313
 21
282.0294962468917106
 31
0.0
  0
LINE
  5
C143
  8
0
 10
4705.1853252831979262
 20
282.2552182206916882
 30
0.0
 11
4708.8983573492296273
 21
282.1716646356135811
 31
0.0
  0
LINE
  5
C144
  8
0
 10
4711.8975714853968384
 20
282.1000623345585154
 30
0.0
 11
4712.1816238022329344
 21
282.0938033116422048
 31
0.0
  0
LINE
  5
C145
  8
0
 10
4708.892959327196877
 20
281.9955305298917096
 30
0.0
 11
4711.8915514399977837
 21
281.9036319942916862
 31
0.0
  0
LINE
  5
C146
  8
0
 10
4711.8931260064036906
 20
281.9550091176088245
 30
0.0
 11
4708.8944785515923286
 21
282.0451018781365065
 31
0.0
  0
LINE
  5
C147
  8
0
 10
4697.9866481351918992
 20
282.5315260101596095
 30
0.0
 11
4704.9851391006977792
 21
282.3170416630916861
 31
0.0
  0
LINE
  5
C148
  8
0
 10
4704.9891899963813557
 20
282.4511179340379954
 30
0.0
 11
4700.3544463861162512
 21
282.5928560306584814
 31
0.0
  0
LINE
  5
C149
  8
0
 10
4712.1808419801982382
 20
282.0451786839917077
 30
0.0
 11
4711.896175250863962
 21
282.0545040694526051
 31
0.0
  0
LINE
  5
C14A
  8
0
 10
4704.9825679163977838
 20
282.2965479532916788
 30
0.0
 11
4700.1686428197808709
 21
282.4646539219427837
 31
0.0
  0
LINE
  5
C14B
  8
0
 10
4720.3960613969002225
 20
282.4128916354865737
 30
0.0
 11
4720.6539301032580624
 21
282.421896609166879
 31
0.0
  0
LINE
  5
C14C
  8
0
 10
4730.6493209474101604
 20
282.770943348792116
 30
0.0
 11
4731.6172699584985821
 21
282.8047448730916926
 31
0.0
  0
LINE
  5
C14D
  8
0
 10
4727.6387885191979876
 20
282.6233928912917008
 30
0.0
 11
4724.6392575289974047
 21
282.5703472629916746
 31
0.0
  0
LINE
  5
C14E
  8
0
 10
4720.6473499599769639
 20
282.7939789902679877
 30
0.0
 11
4730.6457881866981552
 21
282.9707076918916755
 31
0.0
  0
LINE
  5
C14F
  8
0
 10
4720.6407238521978798
 20
283.168660491091714
 30
0.0
 11
4730.6391604862983513
 21
283.3454792519917191
 31
0.0
  0
LINE
  5
C150
  8
0
 10
4712.3960613968984035
 20
282.3874341341917216
 30
0.0
 11
4720.396061396899313
 21
282.3874341341917216
 31
0.0
  0
LINE
  5
C151
  8
0
 10
4720.396061396899313
 20
282.7364291011916748
 30
0.0
 11
4712.3960613968984035
 21
282.7364291011916748
 31
0.0
  0
LINE
  5
C152
  8
0
 10
4720.396061396899313
 20
283.111200661391706
 30
0.0
 11
4712.3960613968984035
 21
283.111200661391706
 31
0.0
  0
LINE
  5
C153
  8
0
 10
4705.1887257952575965
 20
282.4985376420979151
 30
0.0
 11
4712.1866559143891209
 21
282.4067704181039744
 31
0.0
  0
LINE
  5
C154
  8
0
 10
4712.1918557763847275
 20
282.7301705555685203
 30
0.0
 11
4705.1932454625120954
 21
282.8219368250607886
 31
0.0
  0
LINE
  5
C155
  8
0
 10
4712.1978813383975648
 20
283.1049242671916772
 30
0.0
 11
4705.1984833598980913
 21
283.1967280737916894
 31
0.0
  0
LINE
  5
C156
  8
0
 10
4697.9964501951371858
 20
282.8122202804252083
 30
0.0
 11
4705.0034602646974236
 21
282.6805029799916724
 31
0.0
  0
LINE
  5
C157
  8
0
 10
4705.0078849751553207
 20
282.9158858074035265
 30
0.0
 11
4698.0046628650106868
 21
283.0474003741588263
 31
0.0
  0
LINE
  5
C158
  8
0
 10
4705.0149274339992189
 20
283.2905258861916877
 30
0.0
 11
4698.0177462124747763
 21
283.4220584245401824
 31
0.0
  0
LINE
  5
C159
  8
0
 10
4712.1858361168506235
 20
282.355783942614778
 30
0.0
 11
4707.0636545008946996
 21
282.4739508000498063
 31
0.0
  0
LINE
  5
C15A
  8
0
 10
4697.9907733343698055
 20
282.6496562582107117
 30
0.0
 11
4704.993860956898061
 21
282.4813686135917123
 31
0.0
  0
LINE
  5
C15B
  8
0
 10
4704.9980292038690095
 20
282.6587167122032724
 30
0.0
 11
4700.7878385159174286
 21
282.7597479519391754
 31
0.0
  0
LINE
  5
C15C
  8
0
 10
4711.9045745387984425
 20
282.3285676150916856
 30
0.0
 11
4708.9059824258984008
 21
282.4204661506917091
 31
0.0
  0
LINE
  5
C15D
  8
0
 10
4712.3960613968984035
 20
282.4128908057065814
 30
0.0
 11
4712.1868686369280113
 21
282.4200004804338846
 31
0.0
  0
LINE
  5
C15E
  8
0
 10
4705.1910451521498544
 20
282.6644963468999094
 30
0.0
 11
4704.9983232202130239
 21
282.6712263451419744
 31
0.0
  0
LINE
  5
C15F
  8
0
 10
4720.6602770195013363
 20
282.1018623404568757
 30
0.0
 11
4720.6621945730976222
 21
282.046956631691728
 31
0.0
  0
LINE
  5
C160
  8
0
 10
4720.6595900079983039
 20
282.1018502602917124
 30
0.0
 11
4720.6407238521978798
 21
283.168660491091714
 31
0.0
  0
LINE
  5
C161
  8
0
 10
4720.396061396899313
 20
282.0294962468917106
 30
0.0
 11
4720.396061396899313
 21
283.111200661391706
 31
0.0
  0
LINE
  5
C162
  8
0
 10
4724.6392575289974047
 20
282.5703472629916746
 30
0.0
 11
4724.6529266052993989
 21
281.7974123484917186
 31
0.0
  0
LINE
  5
C163
  8
0
 10
4727.6524575955982073
 20
281.8504579766917004
 30
0.0
 11
4727.6387885191979876
 21
282.6233928912917008
 31
0.0
  0
LINE
  5
C164
  8
0
 10
4730.658026642097866
 20
282.2786690212917051
 30
0.0
 11
4730.6391604862983513
 21
283.3454792519917191
 31
0.0
  0
ARC
  5
C165
  8
0
 10
4700.7235518219758887
 20
284.0300333811372866
 30
0.0
 40
0.0351145918044322
 50
9.6888178638044682
 51
88.5849287489986352
  0
ARC
  5
C166
  8
0
 10
4718.4534317597308473
 20
282.6121468078272869
 30
0.0
 40
0.6468857267944828
 50
273.3324271431210946
 51
295.7496481598180935
  0
ARC
  5
C167
  8
0
 10
4714.3425260139811144
 20
282.6269142928986184
 30
0.0
 40
0.6618595068979691
 50
244.5067159018977918
 51
266.4081434773029855
  0
LINE
  5
C168
  8
0
 10
4701.0943530853983248
 20
283.6833525761916803
 30
0.0
 11
4701.7835408532973815
 21
283.672453189491705
 31
0.0
  0
LINE
  5
C169
  8
0
 10
4697.6460613968965845
 20
281.7183549144917265
 30
0.0
 11
4697.7869063324978924
 21
285.7516261757917277
 31
0.0
  0
LINE
  5
C16A
  8
0
 10
4697.7261101603980933
 20
281.7183549144917265
 30
0.0
 11
4697.8668575961983152
 21
285.7488341111916839
 31
0.0
  0
LINE
  5
C16B
  8
0
 10
4698.047253192397875
 20
284.2670277720916943
 30
0.0
 11
4697.9582515746969875
 21
281.7183549144917265
 31
0.0
  0
LINE
  5
C16C
  8
0
 10
4700.8399737654281125
 20
283.3690063822842262
 30
0.0
 11
4700.7791635837984359
 21
283.8642655679917084
 31
0.0
  0
LINE
  5
C16D
  8
0
 10
4732.7667363339451185
 20
284.0651372639916872
 30
0.0
 11
4732.1258859410982041
 21
283.9943386994917205
 31
0.0
  0
LINE
  5
C16E
  8
0
 10
4697.9582515746969875
 20
281.7183549144917265
 30
0.0
 11
4697.6460613968965845
 21
281.7183549144917265
 31
0.0
  0
LINE
  5
C16F
  8
0
 10
4733.1220226005980294
 20
284.0651372639916872
 30
0.0
 11
4698.1609133592983198
 21
284.0651372639916872
 31
0.0
  0
LINE
  5
C170
  8
0
 10
4700.6594577518981168
 20
283.9739557534916798
 30
0.0
 11
4698.1651368096981969
 21
284.06105936009169
 31
0.0
  0
LINE
  5
C171
  8
0
 10
4733.5058517498991932
 20
285.6901372639916872
 30
0.0
 11
4733.646061396899313
 21
285.6901372639916872
 31
0.0
  0
LINE
  5
C172
  8
0
 10
4697.9121379777971015
 20
285.7972864794916745
 30
0.0
 11
4733.1396690561014111
 21
285.7972854845767756
 31
0.0
  0
LINE
  5
C173
  8
0
 10
4733.5058517666993794
 20
285.8221372639916922
 30
0.0
 11
4733.646061396899313
 21
285.8221372639916922
 31
0.0
  0
LINE
  5
C174
  8
0
 10
4697.9124260069993397
 20
285.8829181383916875
 30
0.0
 11
4733.1396680610978365
 21
285.8829181383916875
 31
0.0
  0
LINE
  5
C175
  8
0
 10
4733.5058517830993878
 20
285.9021372639916763
 30
0.0
 11
4733.646061396899313
 21
285.9021372639916763
 31
0.0
  0
LINE
  5
C176
  8
0
 10
4733.646061396899313
 20
285.6390480793917277
 30
0.0
 11
4733.646061396899313
 21
285.9021372639916763
 31
0.0
  0
LINE
  5
C177
  8
0
 10
4733.5839522357982787
 20
284.5190742521916718
 30
0.0
 11
4733.6015976953985955
 21
285.5299819567918007
 31
0.0
  0
LINE
  5
C178
  8
0
 10
4732.015548170998045
 20
283.885350963091696
 30
0.0
 11
4731.9164087216968255
 21
283.0785871832916882
 31
0.0
  0
ARC
  5
C179
  8
0
 10
4733.0949873116023809
 20
284.5546485739454283
 30
0.0
 40
0.4902573094035899
 50
273.1611851332710899
 51
355.8388148667388009
  0
ARC
  5
C17A
  8
0
 10
4733.7645728705983856
 20
285.5271372639916763
 30
0.0
 40
0.163
 50
136.6408415426963074
 51
179.0000174064994098
  0
ARC
  5
C17B
  8
0
 10
4698.1610535812360467
 20
283.9352381004359813
 30
0.0
 40
0.1258874979337456
 50
88.1412546680888482
 51
170.0999508612767954
  0
ARC
  5
C17C
  8
0
 10
4698.1609133099800601
 20
283.9401380982025103
 30
0.0
 40
0.1249991657892373
 50
89.9999773941228227
 51
178.0095660976373892
  0
ARC
  5
C17D
  8
0
 10
4700.6514125188023172
 20
283.8450128334881128
 30
0.0
 40
0.1291936623178664
 50
8.5702706985781543
 51
86.4297296575188341
  0
ARC
  5
C17E
  8
0
 10
4732.1396136785288036
 20
283.870094784699404
 30
0.0
 40
0.1250000045514975
 50
96.3050487276262572
 51
172.9896046161437084
  0
ARC
  5
C17F
  8
0
 10
4697.9235101618987756
 20
285.7466747368443976
 30
0.0
 40
0.1366935366244335
 50
94.6510854583584234
 51
177.9241254739035014
  0
ARC
  5
C180
  8
0
 10
4697.9187450192675897
 20
285.7457277647583282
 30
0.0
 40
0.0519803237877758
 50
97.3024246869599807
 51
176.5739604170418033
  0
ARC
  5
C181
  8
0
 10
4698.2343059614795493
 20
285.5267431690793956
 30
0.0
 40
0.1135935428625434
 50
98.6383913393650147
 51
177.0745543450393029
  0
ARC
  5
C182
  8
0
 10
4921.4679553427777137
 20
274.4785786546057125
 30
0.0
 40
223.6204705952949894
 50
177.1666119031021083
 51
177.4258820244606056
  0
ARC
  5
C183
  8
0
 10
4664.2135812646210979
 20
287.8322734797984026
 30
0.0
 40
34.0209984138148727
 50
353.9846185295576788
 51
354.415827429581384
  0
ARC
  5
C184
  8
0
 10
4730.8963129591402321
 20
332.1238390848047857
 30
0.0
 40
46.2953065880971124
 50
272.7774982977884974
 51
273.2313178300672121
  0
ARC
  5
C185
  8
0
 10
4732.1988353000406278
 20
302.3703743720298007
 30
0.0
 40
16.599772390848031
 50
273.2491232171072966
 51
274.5159728042236225
  0
ARC
  5
C186
  8
0
 10
4733.0953942769929199
 20
286.6266488376601842
 30
0.0
 40
0.9885926492173449
 50
272.5668605889508171
 51
284.5261546221752269
  0
ARC
  5
C187
  8
0
 10
4733.519411183140619
 20
284.9276158772757981
 30
0.0
 40
0.7626419364790415
 50
91.0187470649567985
 51
103.3471436310632043
  0
LINE
  5
C188
  8
0
 10
4698.2172444576981434
 20
285.6390481024916994
 30
0.0
 11
4733.1396685808404072
 21
285.6390481024916994
 31
0.0
  0
ARC
  5
C189
  8
0
 10
4731.6043500310843228
 20
283.1191654470945878
 30
0.0
 40
0.3146859098858417
 50
272.3530301653210017
 51
352.5911678600867845
  0
ARC
  5
C18A
  8
0
 10
4701.1007752483237709
 20
284.0216032215511177
 30
0.0
 40
0.3383116067513896
 50
187.2514152682502129
 51
268.9122899518199006
  0
ARC
  5
C18B
  8
0
 10
4701.7862738877929587
 20
284.0128432617590875
 30
0.0
 40
0.3404010440286442
 50
269.5399749001032887
 51
353.7170010440672741
  0
ARC
  5
C18C
  8
0
 10
4702.2313878412660415
 20
283.9570810732641917
 30
0.0
 40
0.1083501345068302
 50
94.221368566166646
 51
170.1642104617181133
  0
ENDSEC
  0
EOF
