  0
SECTION
  2
HEADER
  9
$ACADVER
  1
AC1009
  9
$INSBASE
 10
4606.8768263681467943
 20
265.7733457444892906
 30
0.0
  9
$EXTMIN
 10
4568.8768263681467943
 20
265.7733457444892906
 30
0.0
  9
$EXTMAX
 10
4606.8837652135798635
 20
269.9571280939894109
 30
0.0
  9
$LIMMIN
 10
0.0
 20
0.0
  9
$LIMMAX
 10
11.6929133858000007
 20
8.2677165353999982
  9
$ORTHOMODE
 70
     1
  9
$REGENMODE
 70
     1
  9
$FILLMODE
 70
     1
  9
$QTEXTMODE
 70
     0
  9
$MIRRTEXT
 70
     0
  9
$DRAGMODE
 70
     2
  9
$LTSCALE
 40
0.6431102362
  9
$OSMODE
 70
  4095
  9
$ATTMODE
 70
     1
  9
$TEXTSIZE
 40
0.2
  9
$TRACEWID
 40
0.05
  9
$TEXTSTYLE
  7
STANDARD
  9
$CLAYER
  8
0
  9
$CELTYPE
  6
BYLAYER
  9
$CECOLOR
 62
   256
  9
$DIMSCALE
 40
1.0
  9
$DIMASZ
 40
0.1875
  9
$DIMEXO
 40
0.0625
  9
$DIMDLI
 40
0.4443307087
  9
$DIMRND
 40
0.0
  9
$DIMDLE
 40
0.0
  9
$DIMEXE
 40
0.125
  9
$DIMTP
 40
0.01
  9
$DIMTM
 40
0.01
  9
$DIMTXT
 40
2.0
  9
$DIMCEN
 40
0.1052362205
  9
$DIMTSZ
 40
0.0
  9
$DIMTOL
 70
     1
  9
$DIMLIM
 70
     0
  9
$DIMTIH
 70
     1
  9
$DIMTOH
 70
     1
  9
$DIMSE1
 70
     0
  9
$DIMSE2
 70
     0
  9
$DIMTAD
 70
     0
  9
$DIMZIN
 70
     0
  9
$DIMBLK
  1

  9
$DIMASO
 70
     1
  9
$DIMSHO
 70
     1
  9
$DIMPOST
  1
\X
  9
$DIMAPOST
  1

  9
$DIMALT
 70
     1
  9
$DIMALTD
 70
     2
  9
$DIMALTF
 40
25.3999999999999986
  9
$DIMLFAC
 40
1.0
  9
$DIMTOFL
 70
     0
  9
$DIMTVP
 40
0.0
  9
$DIMTIX
 70
     0
  9
$DIMSOXD
 70
     0
  9
$DIMSAH
 70
     0
  9
$DIMBLK1
  1

  9
$DIMBLK2
  1

  9
$DIMSTYLE
  2
STANDARD
  9
$DIMCLRD
 70
     0
  9
$DIMCLRE
 70
     0
  9
$DIMCLRT
 70
     0
  9
$DIMTFAC
 40
1.0
  9
$DIMGAP
 40
0.09
  9
$LUNITS
 70
     2
  9
$LUPREC
 70
     4
  9
$SKETCHINC
 40
0.1
  9
$FILLETRAD
 40
0.0
  9
$AUNITS
 70
     0
  9
$AUPREC
 70
     0
  9
$MENU
  1
.
  9
$ELEVATION
 40
0.0
  9
$PELEVATION
 40
0.0
  9
$THICKNESS
 40
0.0
  9
$LIMCHECK
 70
     0
  9
$BLIPMODE
 70
     0
  9
$CHAMFERA
 40
0.0
  9
$CHAMFERB
 40
0.0
  9
$SKPOLY
 70
     0
  9
$TDCREATE
 40
2458060.468368056230247
  9
$TDUPDATE
 40
2459185.9449537037871778
  9
$TDINDWG
 40
0.3433056713
  9
$TDUSRTIMER
 40
0.3433056713
  9
$USRTIMER
 70
     1
  9
$ANGBASE
 50
0.0
  9
$ANGDIR
 70
     0
  9
$PDMODE
 70
     0
  9
$PDSIZE
 40
0.3125
  9
$PLINEWID
 40
0.0
  9
$COORDS
 70
     1
  9
$SPLFRAME
 70
     0
  9
$SPLINETYPE
 70
     6
  9
$SPLINESEGS
 70
     8
  9
$ATTDIA
 70
     1
  9
$ATTREQ
 70
     1
  9
$HANDLING
 70
     1
  9
$HANDSEED
  5
C11C
  9
$SURFTAB1
 70
     6
  9
$SURFTAB2
 70
     6
  9
$SURFTYPE
 70
     6
  9
$SURFU
 70
     6
  9
$SURFV
 70
     6
  9
$UCSNAME
  2

  9
$UCSORG
 10
0.0
 20
0.0
 30
0.0
  9
$UCSXDIR
 10
1.0
 20
0.0
 30
0.0
  9
$UCSYDIR
 10
0.0
 20
1.0
 30
0.0
  9
$PUCSNAME
  2

  9
$PUCSORG
 10
0.0
 20
0.0
 30
0.0
  9
$PUCSXDIR
 10
1.0
 20
0.0
 30
0.0
  9
$PUCSYDIR
 10
0.0
 20
1.0
 30
0.0
  9
$USERI1
 70
     0
  9
$USERI2
 70
     0
  9
$USERI3
 70
     0
  9
$USERI4
 70
     0
  9
$USERI5
 70
     0
  9
$USERR1
 40
0.0
  9
$USERR2
 40
0.0
  9
$USERR3
 40
0.0
  9
$USERR4
 40
0.0
  9
$USERR5
 40
0.0
  9
$WORLDVIEW
 70
     1
  9
$SHADEDGE
 70
     3
  9
$SHADEDIF
 70
    70
  9
$TILEMODE
 70
     1
  9
$MAXACTVP
 70
    64
  9
$PLIMCHECK
 70
     0
  9
$PEXTMIN
 10
1.0000000000000000E+20
 20
1.0000000000000000E+20
 30
1.0000000000000000E+20
  9
$PEXTMAX
 10
-1.0000000000000000E+20
 20
-1.0000000000000000E+20
 30
-1.0000000000000000E+20
  9
$PLIMMIN
 10
0.0
 20
0.0
  9
$PLIMMAX
 10
12.0
 20
9.0
  9
$UNITMODE
 70
     0
  9
$VISRETAIN
 70
     1
  9
$PLINEGEN
 70
     0
  9
$PSLTSCALE
 70
     1
  0
ENDSEC
  0
SECTION
  2
TABLES
  0
TABLE
  2
VPORT
 70
     1
  0
VPORT
  2
*ACTIVE
 70
     0
 10
0.0
 20
0.0
 11
1.0
 21
1.0
 12
0.0
 22
0.0
 13
0.0
 23
0.0
 14
1.0
 24
1.0
 15
0.0
 25
0.0
 16
0.0
 26
0.0
 36
108.3419270305489022
 17
4587.8803591694486386
 27
267.865234375
 37
0.0
 40
38.2543082437936377
 41
2.1186252771618621
 42
50.0
 43
0.0
 44
0.0
 50
0.0
 51
0.0
 71
     0
 72
   100
 73
     1
 74
     1
 75
     0
 76
     0
 77
     0
 78
     0
  0
ENDTAB
  0
TABLE
  2
LTYPE
 70
     3
  0
LTYPE
  2
CONTINUOUS
 70
     0
  3
Solid line
 72
    65
 73
     0
 40
0.0
  0
LTYPE
  2
PHANTOM2
 70
     0
  3
___ _ _ ___ _ _ ___ _ _ ___ _ _
 72
    65
 73
     6
 40
1.25
 49
0.625
 49
-0.125
 49
0.125
 49
-0.125
 49
0.125
 49
-0.125
  0
ENDTAB
  0
TABLE
  2
LAYER
 70
     2
  0
LAYER
  2
0
 70
     0
 62
   255
  6
CONTINUOUS
  0
LAYER
  2
DEFPOINTS
 70
     0
 62
     7
  6
CONTINUOUS
  0
ENDTAB
  0
TABLE
  2
STYLE
 70
     1
  0
STYLE
  2
STANDARD
 70
     0
 40
0.0
 41
0.8
 50
0.0
 71
     0
 42
0.2
  3
txt
  4

  0
ENDTAB
  0
TABLE
  2
VIEW
 70
     0
  0
ENDTAB
  0
TABLE
  2
UCS
 70
     0
  0
ENDTAB
  0
TABLE
  2
APPID
 70
     9
  0
APPID
  2
ACAD
 70
     0
  0
APPID
  2
ACAD_MLEADERVER
 70
     0
  0
APPID
  2
ACAD_EXEMPT_FROM_CAD_STANDARDS
 70
     0
  0
APPID
  2
ACAD_NAV_VCDISPLAY
 70
     0
  0
APPID
  2
ACAECLAYERSTANDARD
 70
     0
  0
APPID
  2
ACCMTRANSPARENCY
 70
     0
  0
APPID
  2
ACAD_DSTYLE_DIMJAG
 70
     0
  0
APPID
  2
ACAD_DSTYLE_DIMTALN
 70
     0
  0
APPID
  2
ACDBATTR
 70
     0
  0
ENDTAB
  0
TABLE
  2
DIMSTYLE
 70
     2
  0
DIMSTYLE
  2
STANDARD
 70
     0
  3

  4

  5

  6

  7

 40
1.0
 41
0.1875
 42
0.0625
 43
0.38
 44
0.125
 45
0.0
 46
0.0
 47
0.01
 48
0.01
140
0.15625
141
0.09
142
0.0
143
25.3999999999999986
144
1.0
145
0.0
146
1.0
147
0.09
 71
     1
 72
     0
 73
     1
 74
     1
 75
     0
 76
     0
 77
     0
 78
     4
170
     0
171
     2
172
     0
173
     0
174
     0
175
     0
176
     0
177
     0
178
     0
  0
ENDTAB
  0
ENDSEC
  0
SECTION
  2
BLOCKS
  0
BLOCK
  8
0
  2
$MODEL_SPACE
 70
     0
 10
0.0
 20
0.0
 30
0.0
  3
$MODEL_SPACE
  1

  0
ENDBLK
  5
21
  8
0
  0
BLOCK
 67
     1
  8
0
  2
$PAPER_SPACE
 70
     0
 10
0.0
 20
0.0
 30
0.0
  3
$PAPER_SPACE
  1

  0
ENDBLK
  5
1D
 67
     1
  8
0
  0
ENDSEC
  0
SECTION
  2
ENTITIES
  0
ATTDEF
  5
3930
  8
DEFPOINTS
 10
4606.8730985469119332
 20
265.784792271264223
 30
0.0
 40
0.001
  1
95078
  3

  2
MODELNUMBER
 70
     0
1001
ACDBATTR
1070
     0
1070
     1
  0
ATTDEF
  5
3931
  8
DEFPOINTS
 10
4606.8730985469119332
 20
265.7831256045976147
 30
0.0
 40
0.001
  1
GUARD+
  3

  2
TRADENAME
 70
     0
1001
ACDBATTR
1070
     0
1070
     1
  0
ATTDEF
  5
3932
  8
DEFPOINTS
 10
4606.8730985469119332
 20
265.7814589379308927
 30
0.0
 40
0.001
  1
SHOWER RECEPTOR
  3

  2
PRODUCT
 70
     0
1001
ACDBATTR
1070
     0
1070
     1
  0
LINE
  5
BFEF
  8
0
 10
4573.3737359030474181
 20
266.4058914359893038
 30
0.0
 11
4573.3861404516474067
 21
266.8411403488893257
 31
0.0
  0
LINE
  5
BFF0
  8
0
 10
4573.3649312573470525
 20
266.2141455113892903
 30
0.0
 11
4573.3776739725681182
 21
266.5889564581818831
 31
0.0
  0
LINE
  5
BFF1
  8
0
 10
4576.3092280816472339
 20
266.7578326563893256
 30
0.0
 11
4576.3168188570471102
 21
267.3038241717893015
 31
0.0
  0
LINE
  5
BFF2
  8
0
 10
4576.2335889823461912
 20
266.7599883627892723
 30
0.0
 11
4576.2466282006471374
 21
267.3485380207893058
 31
0.0
  0
LINE
  5
BFF3
  8
0
 10
4576.3725182786465666
 20
266.3204264511892916
 30
0.0
 11
4576.3849228272465552
 21
266.7556753639893259
 31
0.0
  0
LINE
  5
BFF4
  8
0
 10
4576.3631928592467375
 20
266.1120310326892877
 30
0.0
 11
4576.3702925975367179
 21
266.3204898828686851
 31
0.0
  0
LINE
  5
BFF5
  8
0
 10
4585.3774272649479826
 20
266.1791074674893025
 30
0.0
 11
4585.3767461966463088
 21
267.1929597030892864
 31
0.0
  0
LINE
  5
BFF6
  8
0
 10
4585.3076235294465732
 20
266.5798606736893248
 30
0.0
 11
4585.3159491959477236
 21
267.1787116451893098
 31
0.0
  0
LINE
  5
BFF7
  8
0
 10
4585.2990393364470947
 20
266.175498578789302
 30
0.0
 11
4585.3076235294465732
 21
266.5798606736893248
 31
0.0
  0
LINE
  5
BFF8
  8
0
 10
4602.4388941250472271
 20
266.9998434928892834
 30
0.0
 11
4598.8678509066021434
 21
266.696057412023606
 31
0.0
  0
LINE
  5
BFF9
  8
0
 10
4595.8725331236555576
 20
266.4412313276828854
 30
0.0
 11
4592.4546787667477474
 21
266.1504934657892818
 31
0.0
  0
LINE
  5
BFFA
  8
0
 10
4595.8851664872472611
 20
265.8489602466892734
 30
0.0
 11
4598.8844839399462217
 21
265.9129510104892802
 31
0.0
  0
LINE
  5
BFFB
  8
0
 10
4592.4546787667477474
 20
266.1504934657892818
 30
0.0
 11
4595.8771707678952225
 21
266.2238115925221109
 31
0.0
  0
LINE
  5
BFFC
  8
0
 10
4598.876518595023299
 20
266.2879705557015768
 30
0.0
 11
4602.5154618324477269
 21
266.3655036562893201
 31
0.0
  0
LINE
  5
BFFD
  8
0
 10
4598.8764224170408852
 20
266.2924987492079936
 30
0.0
 11
4595.8770645136992243
 21
266.2287929489181124
 31
0.0
  0
LINE
  5
BFFE
  8
0
 10
4586.5318263681474491
 20
266.0213457444892811
 30
0.0
 11
4590.7217995719465762
 21
266.0213457444892811
 31
0.0
  0
LINE
  5
BFFF
  8
0
 10
4576.3725182786465666
 20
266.3204264511892916
 30
0.0
 11
4573.3737359030474181
 21
266.4058914359893038
 31
0.0
  0
LINE
  5
C000
  8
0
 10
4573.3754595012878781
 20
266.4663687886737762
 30
0.0
 11
4576.3742418768470088
 21
266.3809038038892822
 31
0.0
  0
LINE
  5
C001
  8
0
 10
4585.2990393364470947
 20
266.175498578789302
 30
0.0
 11
4576.3764126257210592
 21
266.4570707084258174
 31
0.0
  0
LINE
  5
C002
  8
0
 10
4573.3649312573470525
 20
266.2141455113892903
 30
0.0
 11
4576.3631928592467375
 21
266.1120310326892877
 31
0.0
  0
LINE
  5
C003
  8
0
 10
4573.378952002072765
 20
266.5889131245652948
 30
0.0
 11
4569.2224183055614048
 21
266.7298469893465267
 31
0.0
  0
LINE
  5
C004
  8
0
 10
4586.1768587640472106
 20
266.1683781403893931
 30
0.0
 11
4586.1652424430467363
 21
266.179994461389299
 31
0.0
  0
LINE
  5
C005
  8
0
 10
4602.4939115382476302
 20
267.375589636589325
 30
0.0
 11
4602.4310264988771451
 21
267.3702623060326005
 31
0.0
  0
LINE
  5
C006
  8
0
 10
4595.8752744887760855
 20
266.3127120089088749
 30
0.0
 11
4598.8746834725016015
 21
266.3743706827153801
 31
0.0
  0
LINE
  5
C007
  8
0
 10
4595.8673007455472543
 20
266.6865330809893067
 30
0.0
 11
4598.8667000836458101
 21
266.7502397613457106
 31
0.0
  0
LINE
  5
C008
  8
0
 10
4602.4388941250472271
 20
266.9998434928892834
 30
0.0
 11
4592.4411421118929866
 21
266.7878180506800163
 31
0.0
  0
LINE
  5
C009
  8
0
 10
4602.430934047347364
 20
267.3746150529893271
 30
0.0
 11
4592.4331889326467717
 21
267.1622648187893105
 31
0.0
  0
LINE
  5
C00A
  8
0
 10
4592.3774228282472905
 20
266.1869886980892943
 30
0.0
 11
4585.3774272649479826
 21
266.1791074674893025
 31
0.0
  0
LINE
  5
C00B
  8
0
 10
4592.3772068329062677
 20
266.5088246878066229
 30
0.0
 11
4585.3772089290596341
 21
266.5041267454295166
 31
0.0
  0
LINE
  5
C00C
  8
0
 10
4585.3769979542503279
 20
266.8181881734482204
 30
0.0
 11
4592.3769967960970462
 21
266.8217823865870173
 31
0.0
  0
LINE
  5
C00D
  8
0
 10
4585.3767461966463088
 20
267.1929597030892864
 30
0.0
 11
4592.3767452737465646
 21
267.196554099089326
 31
0.0
  0
LINE
  5
C00E
  8
0
 10
4585.3076235294465732
 20
266.5798606736893248
 30
0.0
 11
4576.3834284679296616
 21
266.7032415117644746
 31
0.0
  0
LINE
  5
C00F
  8
0
 10
4576.3116085073061186
 20
266.929052610130725
 30
0.0
 11
4585.3107388461467053
 21
266.8039400849892786
 31
0.0
  0
LINE
  5
C010
  8
0
 10
4576.3168188570471102
 20
267.3038241717893015
 30
0.0
 11
4585.3159491959477236
 21
267.1787116451893098
 31
0.0
  0
LINE
  5
C011
  8
0
 10
4585.3025776195745493
 20
266.3421709238808148
 30
0.0
 11
4576.3783210137089554
 21
266.5240319356013856
 31
0.0
  0
LINE
  5
C012
  8
0
 10
4579.251616659346837
 20
266.6640557339893007
 30
0.0
 11
4585.3067720372982876
 21
266.5397507705959015
 31
0.0
  0
LINE
  5
C013
  8
0
 10
4573.3855818916126736
 20
266.8215416794374164
 30
0.0
 11
4569.228815000128634
 21
266.9130243544655059
 31
0.0
  0
LINE
  5
C014
  8
0
 10
4569.2363504426029976
 20
267.1288111929388833
 30
0.0
 11
4576.2383382019761484
 21
266.9743533288386175
 31
0.0
  0
LINE
  5
C015
  8
0
 10
4569.2494369457936045
 20
267.5035596115112071
 30
0.0
 11
4576.2466282006471374
 21
267.3485380207893058
 31
0.0
  0
LINE
  5
C016
  8
0
 10
4573.3807275126846434
 20
266.6512119706308113
 30
0.0
 11
4569.2236997678492116
 21
266.7665432678136881
 31
0.0
  0
LINE
  5
C017
  8
0
 10
4573.3861404516474067
 20
266.8411403488893257
 30
0.0
 11
4576.3849228272465552
 21
266.7556753639893259
 31
0.0
  0
LINE
  5
C018
  8
0
 10
4579.4883471578468743
 20
266.4615288864893046
 30
0.0
 11
4585.3011905718549315
 21
266.2768334458036747
 31
0.0
  0
LINE
  5
C019
  8
0
 10
4585.3771730820835728
 20
266.5574892885277904
 30
0.0
 11
4585.3072004808000202
 21
266.5599327856120908
 31
0.0
  0
LINE
  5
C01A
  8
0
 10
4576.3108467118481713
 20
266.8742579633862988
 30
0.0
 11
4576.2361747086470132
 21
266.876699985708683
 31
0.0
  0
LINE
  5
C01B
  8
0
 10
4591.0767939723473319
 20
266.1683781403893931
 30
0.0
 11
4591.0939594904466503
 21
266.18554365848928
 31
0.0
  0
LINE
  5
C01C
  8
0
 10
4592.4331889326467717
 20
267.1622648187893105
 30
0.0
 11
4592.4546787667477474
 21
266.1504934657892818
 31
0.0
  0
LINE
  5
C01D
  8
0
 10
4592.3774228282472905
 20
266.1869886980892943
 30
0.0
 11
4592.3767452737465646
 21
267.196554099089326
 31
0.0
  0
LINE
  5
C01E
  8
0
 10
4595.8851664872472611
 20
265.8489602466892734
 30
0.0
 11
4595.8673007455472543
 21
266.6865330809893067
 31
0.0
  0
LINE
  5
C01F
  8
0
 10
4598.8844839399462217
 20
265.9129510104892802
 30
0.0
 11
4598.8667000836458101
 21
266.7502397613457106
 31
0.0
  0
LINE
  5
C020
  8
0
 10
4602.5154618324477269
 20
266.3655036562893201
 30
0.0
 11
4602.4939115382476302
 21
267.375589636589325
 31
0.0
  0
LINE
  5
C021
  8
0
 10
4602.430934047347364
 20
267.3746150529893271
 30
0.0
 11
4602.4388941250472271
 21
266.9998434928892834
 31
0.0
  0
ARC
  5
C022
  8
0
 10
4590.7218263654867769
 20
266.5233457484710016
 30
0.0
 40
0.5020000046967015
 50
269.9969419189096129
 51
314.9999998933728875
  0
ARC
  5
C023
  8
0
 10
4586.5318263681474491
 20
266.5233457444894043
 30
0.0
 40
0.502
 50
224.9999999999951115
 51
270.0
  0
LINE
  5
C024
  8
0
 10
4568.8768263681467943
 20
265.7733457444892906
 30
0.0
 11
4569.0176713037471927
 21
269.8066170057892919
 31
0.0
  0
LINE
  5
C025
  8
0
 10
4568.9568751316473936
 20
265.7733457444892906
 30
0.0
 11
4569.0976225674467059
 21
269.8038249411893048
 31
0.0
  0
LINE
  5
C026
  8
0
 10
4569.2780181636471752
 20
268.3220186020893152
 30
0.0
 11
4569.1890165459471973
 21
265.7733457444892906
 31
0.0
  0
LINE
  5
C027
  8
0
 10
4572.0686386957913783
 20
267.4411006727838185
 30
0.0
 11
4572.0099285550468267
 21
267.9192563979892725
 31
0.0
  0
LINE
  5
C028
  8
0
 10
4605.9975013051953283
 20
268.1201280939893081
 30
0.0
 11
4605.3566509123465949
 21
268.0493295294893983
 31
0.0
  0
LINE
  5
C029
  8
0
 10
4569.1890165459471973
 20
265.7733457444892906
 30
0.0
 11
4568.8768263681467943
 21
265.7733457444892906
 31
0.0
  0
LINE
  5
C02A
  8
0
 10
4602.5031028474586492
 20
266.9447828694463283
 30
0.0
 11
4604.7390427898471899
 21
267.0066598908892956
 31
0.0
  0
LINE
  5
C02B
  8
0
 10
4606.3527875718473297
 20
268.1201280939893081
 30
0.0
 11
4569.3916783305467106
 21
268.1201280939893081
 31
0.0
  0
LINE
  5
C02C
  8
0
 10
4571.8902227231474171
 20
268.0289465834893008
 30
0.0
 11
4569.3959017809465877
 21
268.1160501900893109
 31
0.0
  0
LINE
  5
C02D
  8
0
 10
4606.7366167211466745
 20
269.7451280939893081
 30
0.0
 11
4606.8768263681467943
 21
269.7451280939893081
 31
0.0
  0
LINE
  5
C02E
  8
0
 10
4569.1429029490473113
 20
269.8522773094892955
 30
0.0
 11
4606.3704330323471368
 21
269.8522762580893186
 31
0.0
  0
LINE
  5
C02F
  8
0
 10
4606.7366167379468607
 20
269.8771280939893131
 30
0.0
 11
4606.8768263681467943
 21
269.8771280939893131
 31
0.0
  0
LINE
  5
C030
  8
0
 10
4569.143190978246821
 20
269.9379089683893085
 30
0.0
 11
4606.3704330323471368
 21
269.9379089683893085
 31
0.0
  0
LINE
  5
C031
  8
0
 10
4606.7366167543468691
 20
269.9571280939891835
 30
0.0
 11
4606.8768263681467943
 21
269.9571280939894109
 31
0.0
  0
LINE
  5
C032
  8
0
 10
4606.8768263681467943
 20
269.6940389093892918
 30
0.0
 11
4606.8768263681467943
 21
269.9571280939894109
 31
0.0
  0
LINE
  5
C033
  8
0
 10
4606.8147172070466695
 20
268.5740650821894064
 30
0.0
 11
4606.8323626666469863
 21
269.584972786789308
 31
0.0
  0
LINE
  5
C034
  8
0
 10
4605.2463131422482547
 20
267.940341793089317
 30
0.0
 11
4605.1814543323471298
 21
267.4121091760893023
 31
0.0
  0
ARC
  5
C035
  8
0
 10
4606.3257522828516812
 20
268.6096394039429924
 30
0.0
 40
0.4902573094035899
 50
273.1611851332710899
 51
355.8388148667388009
  0
ARC
  5
C036
  8
0
 10
4606.9953378418467764
 20
269.5821280939894109
 30
0.0
 40
0.163
 50
136.6408415426963074
 51
179.0000174064994098
  0
ARC
  5
C037
  8
0
 10
4569.391818552485347
 20
267.990228930433716
 30
0.0
 40
0.1258874979337456
 50
88.1412546680888482
 51
170.0999508612767954
  0
ARC
  5
C038
  8
0
 10
4569.3916782812293604
 20
267.9951289282000744
 30
0.0
 40
0.1249991657892373
 50
89.9999773941228227
 51
178.0095660976357976
  0
ARC
  5
C039
  8
0
 10
4571.8821774900516175
 20
267.900003663485677
 30
0.0
 40
0.1291936623178664
 50
8.5702706985797636
 51
86.4297296575188341
  0
ARC
  5
C03A
  8
0
 10
4605.3703786497781039
 20
267.925085614697025
 30
0.0
 40
0.1250000045514975
 50
96.3050487276262572
 51
172.9896046161420884
  0
ARC
  5
C03B
  8
0
 10
4569.1542751331489853
 20
269.8016655668419048
 30
0.0
 40
0.1366935366244335
 50
94.6510854583584234
 51
177.9241254739035014
  0
ARC
  5
C03C
  8
0
 10
4569.1495099905187089
 20
269.8007185947558924
 30
0.0
 40
0.0519803237877758
 50
97.3024246869599807
 51
176.5739604170418033
  0
ARC
  5
C03D
  8
0
 10
4569.4650709327297591
 20
269.5817339990770165
 30
0.0
 40
0.1135935428625434
 50
98.6383913393650147
 51
177.0745543450393029
  0
ARC
  5
C03E
  8
0
 10
4792.698720314027014
 20
258.5335694846032766
 30
0.0
 40
223.6204705952949894
 50
177.1666119031004882
 51
177.4258820244606056
  0
ARC
  5
C03F
  8
0
 10
4535.4443462358703982
 20
271.8872643097959099
 30
0.0
 40
34.0209984138148727
 50
353.9846185295576788
 51
354.415827429581384
  0
ARC
  5
C040
  8
0
 10
4604.1270779303886229
 20
316.1788299148025203
 30
0.0
 40
46.2953065880971124
 50
272.7774982977884974
 51
273.2313178300672121
  0
ARC
  5
C041
  8
0
 10
4605.4296002712926565
 20
286.4253652019881997
 30
0.0
 40
16.5997723908087202
 50
273.2491197772545206
 51
274.5159728042236225
  0
ARC
  5
C042
  8
0
 10
4606.3261592482431297
 20
270.6816396676579188
 30
0.0
 40
0.9885926492173449
 50
272.5668605889508171
 51
284.5261546221752269
  0
ARC
  5
C043
  8
0
 10
4606.7501761543899192
 20
268.982606707273419
 30
0.0
 40
0.7626419364790415
 50
91.0187470649567985
 51
103.3471436310632043
  0
ARC
  5
C044
  8
0
 10
4604.7228936785177211
 20
267.4683775655532827
 30
0.0
 40
0.4620000052963566
 50
272.0031697789976874
 51
353.0044041320908832
  0
LINE
  5
C045
  8
0
 10
4569.4480094289474437
 20
269.6940389324893204
 30
0.0
 11
4606.370433552088798
 21
269.6940389324893204
 31
0.0
  0
ENDSEC
  0
EOF
