  0
SECTION
  2
HEADER
  9
$ACADVER
  1
AC1009
  9
$INSBASE
 10
4621.590339966409374
 20
178.4924363468691126
 30
0.0
  9
$EXTMIN
 10
4596.590339966407555
 20
140.4924363468691126
 30
0.0
  9
$EXTMAX
 10
4646.590339966407555
 20
178.4978018567402103
 30
0.0
  9
$LIMMIN
 10
0.0
 20
0.0
  9
$LIMMAX
 10
11.6929133858000007
 20
8.2677165353999982
  9
$ORTHOMODE
 70
     1
  9
$REGENMODE
 70
     1
  9
$FILLMODE
 70
     1
  9
$QTEXTMODE
 70
     0
  9
$MIRRTEXT
 70
     0
  9
$DRAGMODE
 70
     2
  9
$LTSCALE
 40
0.6431102362
  9
$OSMODE
 70
  4095
  9
$ATTMODE
 70
     1
  9
$TEXTSIZE
 40
0.2
  9
$TRACEWID
 40
0.05
  9
$TEXTSTYLE
  7
STANDARD
  9
$CLAYER
  8
0
  9
$CELTYPE
  6
BYLAYER
  9
$CECOLOR
 62
   256
  9
$DIMSCALE
 40
1.0
  9
$DIMASZ
 40
0.1875
  9
$DIMEXO
 40
0.0625
  9
$DIMDLI
 40
0.4443307087
  9
$DIMRND
 40
0.0
  9
$DIMDLE
 40
0.0
  9
$DIMEXE
 40
0.125
  9
$DIMTP
 40
0.01
  9
$DIMTM
 40
0.01
  9
$DIMTXT
 40
2.0
  9
$DIMCEN
 40
0.1052362205
  9
$DIMTSZ
 40
0.0
  9
$DIMTOL
 70
     1
  9
$DIMLIM
 70
     0
  9
$DIMTIH
 70
     1
  9
$DIMTOH
 70
     1
  9
$DIMSE1
 70
     0
  9
$DIMSE2
 70
     0
  9
$DIMTAD
 70
     0
  9
$DIMZIN
 70
     0
  9
$DIMBLK
  1

  9
$DIMASO
 70
     1
  9
$DIMSHO
 70
     1
  9
$DIMPOST
  1
\X
  9
$DIMAPOST
  1

  9
$DIMALT
 70
     1
  9
$DIMALTD
 70
     2
  9
$DIMALTF
 40
25.3999999999999986
  9
$DIMLFAC
 40
1.0
  9
$DIMTOFL
 70
     0
  9
$DIMTVP
 40
0.0
  9
$DIMTIX
 70
     0
  9
$DIMSOXD
 70
     0
  9
$DIMSAH
 70
     0
  9
$DIMBLK1
  1

  9
$DIMBLK2
  1

  9
$DIMSTYLE
  2
STANDARD
  9
$DIMCLRD
 70
     0
  9
$DIMCLRE
 70
     0
  9
$DIMCLRT
 70
     0
  9
$DIMTFAC
 40
1.0
  9
$DIMGAP
 40
0.09
  9
$LUNITS
 70
     2
  9
$LUPREC
 70
     4
  9
$SKETCHINC
 40
0.1
  9
$FILLETRAD
 40
0.0
  9
$AUNITS
 70
     0
  9
$AUPREC
 70
     0
  9
$MENU
  1
.
  9
$ELEVATION
 40
0.0
  9
$PELEVATION
 40
0.0
  9
$THICKNESS
 40
0.0
  9
$LIMCHECK
 70
     0
  9
$BLIPMODE
 70
     0
  9
$CHAMFERA
 40
0.0
  9
$CHAMFERB
 40
0.0
  9
$SKPOLY
 70
     0
  9
$TDCREATE
 40
2458060.468368056230247
  9
$TDUPDATE
 40
2459185.9448495372198522
  9
$TDINDWG
 40
0.3431204861
  9
$TDUSRTIMER
 40
0.3431204861
  9
$USRTIMER
 70
     1
  9
$ANGBASE
 50
0.0
  9
$ANGDIR
 70
     0
  9
$PDMODE
 70
     0
  9
$PDSIZE
 40
0.3125
  9
$PLINEWID
 40
0.0
  9
$COORDS
 70
     1
  9
$SPLFRAME
 70
     0
  9
$SPLINETYPE
 70
     6
  9
$SPLINESEGS
 70
     8
  9
$ATTDIA
 70
     1
  9
$ATTREQ
 70
     1
  9
$HANDLING
 70
     1
  9
$HANDSEED
  5
C09F
  9
$SURFTAB1
 70
     6
  9
$SURFTAB2
 70
     6
  9
$SURFTYPE
 70
     6
  9
$SURFU
 70
     6
  9
$SURFV
 70
     6
  9
$UCSNAME
  2

  9
$UCSORG
 10
0.0
 20
0.0
 30
0.0
  9
$UCSXDIR
 10
1.0
 20
0.0
 30
0.0
  9
$UCSYDIR
 10
0.0
 20
1.0
 30
0.0
  9
$PUCSNAME
  2

  9
$PUCSORG
 10
0.0
 20
0.0
 30
0.0
  9
$PUCSXDIR
 10
1.0
 20
0.0
 30
0.0
  9
$PUCSYDIR
 10
0.0
 20
1.0
 30
0.0
  9
$USERI1
 70
     0
  9
$USERI2
 70
     0
  9
$USERI3
 70
     0
  9
$USERI4
 70
     0
  9
$USERI5
 70
     0
  9
$USERR1
 40
0.0
  9
$USERR2
 40
0.0
  9
$USERR3
 40
0.0
  9
$USERR4
 40
0.0
  9
$USERR5
 40
0.0
  9
$WORLDVIEW
 70
     1
  9
$SHADEDGE
 70
     3
  9
$SHADEDIF
 70
    70
  9
$TILEMODE
 70
     1
  9
$MAXACTVP
 70
    64
  9
$PLIMCHECK
 70
     0
  9
$PEXTMIN
 10
1.0000000000000000E+20
 20
1.0000000000000000E+20
 30
1.0000000000000000E+20
  9
$PEXTMAX
 10
-1.0000000000000000E+20
 20
-1.0000000000000000E+20
 30
-1.0000000000000000E+20
  9
$PLIMMIN
 10
0.0
 20
0.0
  9
$PLIMMAX
 10
12.0
 20
9.0
  9
$UNITMODE
 70
     0
  9
$VISRETAIN
 70
     1
  9
$PLINEGEN
 70
     0
  9
$PSLTSCALE
 70
     1
  0
ENDSEC
  0
SECTION
  2
TABLES
  0
TABLE
  2
VPORT
 70
     1
  0
VPORT
  2
*ACTIVE
 70
     0
 10
0.0
 20
0.0
 11
1.0
 21
1.0
 12
0.0
 22
0.0
 13
0.0
 23
0.0
 14
1.0
 24
1.0
 15
0.0
 25
0.0
 16
0.0
 26
0.0
 36
177.9551509052323865
 17
4621.5903320312490905
 27
159.4951167486825909
 37
0.0
 40
62.8302183687069231
 41
2.1186252771618621
 42
50.0
 43
0.0
 44
0.0
 50
0.0
 51
0.0
 71
     0
 72
   100
 73
     1
 74
     1
 75
     0
 76
     0
 77
     0
 78
     0
  0
ENDTAB
  0
TABLE
  2
LTYPE
 70
     2
  0
LTYPE
  2
CONTINUOUS
 70
     0
  3
Solid line
 72
    65
 73
     0
 40
0.0
  0
LTYPE
  2
PHANTOM2
 70
     0
  3
___ _ _ ___ _ _ ___ _ _ ___ _ _
 72
    65
 73
     6
 40
1.25
 49
0.625
 49
-0.125
 49
0.125
 49
-0.125
 49
0.125
 49
-0.125
  0
ENDTAB
  0
TABLE
  2
LAYER
 70
     2
  0
LAYER
  2
0
 70
     0
 62
   255
  6
CONTINUOUS
  0
LAYER
  2
DEFPOINTS
 70
     0
 62
     7
  6
CONTINUOUS
  0
ENDTAB
  0
TABLE
  2
STYLE
 70
     1
  0
STYLE
  2
STANDARD
 70
     0
 40
0.0
 41
0.8
 50
0.0
 71
     0
 42
0.2
  3
txt
  4

  0
ENDTAB
  0
TABLE
  2
VIEW
 70
     0
  0
ENDTAB
  0
TABLE
  2
UCS
 70
     0
  0
ENDTAB
  0
TABLE
  2
APPID
 70
     9
  0
APPID
  2
ACAD
 70
     0
  0
APPID
  2
ACAD_MLEADERVER
 70
     0
  0
APPID
  2
ACAD_EXEMPT_FROM_CAD_STANDARDS
 70
     0
  0
APPID
  2
ACAD_NAV_VCDISPLAY
 70
     0
  0
APPID
  2
ACAECLAYERSTANDARD
 70
     0
  0
APPID
  2
ACCMTRANSPARENCY
 70
     0
  0
APPID
  2
ACAD_DSTYLE_DIMJAG
 70
     0
  0
APPID
  2
ACAD_DSTYLE_DIMTALN
 70
     0
  0
APPID
  2
ACDBATTR
 70
     0
  0
ENDTAB
  0
TABLE
  2
DIMSTYLE
 70
     1
  0
DIMSTYLE
  2
STANDARD
 70
     0
  3

  4

  5

  6

  7

 40
1.0
 41
0.1875
 42
0.0625
 43
0.38
 44
0.125
 45
0.0
 46
0.0
 47
0.01
 48
0.01
140
0.15625
141
0.09
142
0.0
143
25.3999999999999986
144
1.0
145
0.0
146
1.0
147
0.09
 71
     1
 72
     0
 73
     1
 74
     1
 75
     0
 76
     0
 77
     0
 78
     4
170
     0
171
     2
172
     0
173
     0
174
     0
175
     0
176
     0
177
     0
178
     0
  0
ENDTAB
  0
ENDSEC
  0
SECTION
  2
BLOCKS
  0
BLOCK
  8
0
  2
$MODEL_SPACE
 70
     0
 10
0.0
 20
0.0
 30
0.0
  3
$MODEL_SPACE
  1

  0
ENDBLK
  5
21
  8
0
  0
BLOCK
 67
     1
  8
0
  2
$PAPER_SPACE
 70
     0
 10
0.0
 20
0.0
 30
0.0
  3
$PAPER_SPACE
  1

  0
ENDBLK
  5
1D
 67
     1
  8
0
  0
ENDSEC
  0
SECTION
  2
ENTITIES
  0
ATTDEF
  5
3930
  8
DEFPOINTS
 10
4621.5873660424549598
 20
178.4968018567400918
 30
0.0
 40
0.001
  1
95078
  3

  2
MODELNUMBER
 70
     0
1001
ACDBATTR
1070
     0
1070
     1
  0
ATTDEF
  5
3931
  8
DEFPOINTS
 10
4621.5873660424549598
 20
178.4951351900735119
 30
0.0
 40
0.001
  1
GUARD+
  3

  2
TRADENAME
 70
     0
1001
ACDBATTR
1070
     0
1070
     1
  0
ATTDEF
  5
3932
  8
DEFPOINTS
 10
4621.5873660424549598
 20
178.4934685234067899
 30
0.0
 40
0.001
  1
SHOWER RECEPTOR
  3

  2
PRODUCT
 70
     0
1001
ACDBATTR
1070
     0
1070
     1
  0
LINE
  5
BFB5
  8
0
 10
4596.590339966407555
 20
140.4924363468691126
 30
0.0
 11
4596.590339966407555
 21
178.4924363468691126
 31
0.0
  0
LINE
  5
BFB6
  8
0
 10
4596.8644168389082552
 20
177.968397550569108
 30
0.0
 11
4596.8644168400232957
 21
140.4924363468691126
 31
0.0
  0
LINE
  5
BFB7
  8
0
 10
4597.5360774050250257
 20
176.8235311299791022
 30
0.0
 11
4597.5360774043047059
 21
141.5745747894135036
 31
0.0
  0
LINE
  5
BFB8
  8
0
 10
4596.590339966407555
 20
140.4924363468691126
 30
0.0
 11
4646.590339966407555
 21
140.4924363468691126
 31
0.0
  0
LINE
  5
BFB9
  8
0
 10
4598.4180672855090961
 20
144.4134363468691049
 30
0.0
 11
4598.4180657215083556
 21
176.0714363469691079
 31
0.0
  0
LINE
  5
BFBA
  8
0
 10
4597.1143787627088386
 20
178.2183594743690946
 30
0.0
 11
4646.0663011701089999
 21
178.2183594743690946
 31
0.0
  0
LINE
  5
BFBB
  8
0
 10
4596.590339966407555
 20
178.4924363468691126
 30
0.0
 11
4646.590339966407555
 21
178.4924363468691126
 31
0.0
  0
ARC
  5
BFBC
  8
0
 10
4599.0635932237037196
 20
144.4673619584148128
 30
0.0
 40
0.6477744277508326
 50
184.7752576964165883
 51
265.3731617256188997
  0
CIRCLE
  5
BFBD
  8
0
 10
4621.590339966409374
 20
160.2424363468691126
 30
0.0
 40
2.2293502884
  0
CIRCLE
  5
BFBE
  8
0
 10
4621.590339966409374
 20
160.2424363468691126
 30
0.0
 40
1.6899999999999991
  0
ARC
  5
BFBF
  8
0
 10
4599.081998775664033
 20
176.0007758174425021
 30
0.0
 40
0.6676825674174248
 50
96.0748127400238303
 51
173.9250388130593876
  0
ARC
  5
BFC0
  8
0
 10
4597.1321199517424247
 20
177.9506563615364882
 30
0.0
 40
0.2682903397600169
 50
93.7915548210466028
 51
176.2084451789453112
  0
ARC
  5
BFC1
  8
0
 10
4598.3087619171501501
 20
176.7740143850645893
 30
0.0
 40
0.7742695030185575
 50
93.6667179681181636
 51
176.3332689750064901
  0
ARC
  5
BFC2
  8
0
 10
4596.9991734581108176
 20
140.9873830437934998
 30
0.0
 40
0.1351938929843693
 50
184.6094964661139954
 51
266.1407830659098863
  0
ARC
  5
BFC3
  8
0
 10
4598.3643184211459811
 20
141.5590601417225969
 30
0.0
 40
0.8283863145882783
 50
178.9268583676733897
 51
238.5329750038926875
  0
LINE
  5
BFC4
  8
0
 10
4596.9900742165082193
 20
140.8524957111690981
 30
0.0
 11
4646.1906057163078003
 21
140.8524957111690981
 31
0.0
  0
LINE
  5
BFC5
  8
0
 10
4599.0113399664078315
 20
143.8216984962691072
 30
0.0
 11
4644.1693399664090975
 21
143.8216984962691072
 31
0.0
  0
LINE
  5
BFC6
  8
0
 10
4598.2592453483193822
 20
177.5466989084735872
 30
0.0
 11
4644.9214345844993659
 21
177.5466989084735872
 31
0.0
  0
LINE
  5
BFC7
  8
0
 10
4599.0113399663123346
 20
176.664709054669089
 30
0.0
 11
4644.1693399665027755
 21
176.664709054669089
 31
0.0
  0
LINE
  5
BFC8
  8
0
 10
4646.590339966407555
 20
140.4924363468691126
 30
0.0
 11
4646.590339966407555
 21
178.4924363468691126
 31
0.0
  0
LINE
  5
BFC9
  8
0
 10
4646.3162630939077644
 20
177.968397550569108
 30
0.0
 11
4646.3162630927954524
 21
140.4924363468691126
 31
0.0
  0
LINE
  5
BFCA
  8
0
 10
4645.6446025277909939
 20
176.8235311299791022
 30
0.0
 11
4645.6446025285113137
 21
141.5745747894135036
 31
0.0
  0
LINE
  5
BFCB
  8
0
 10
4644.762612647307833
 20
144.4134363468691049
 30
0.0
 11
4644.7626142113076639
 21
176.0714363469691079
 31
0.0
  0
ARC
  5
BFCC
  8
0
 10
4644.1170867091150285
 20
144.4673619584148128
 30
0.0
 40
0.6477744277508326
 50
274.6268382743811003
 51
355.2247423035832981
  0
ARC
  5
BFCD
  8
0
 10
4644.0986811571519866
 20
176.0007758174425021
 30
0.0
 40
0.6676825674174248
 50
6.0749611869405564
 51
83.9251872599761839
  0
ARC
  5
BFCE
  8
0
 10
4646.0485599810772328
 20
177.9506563615364882
 30
0.0
 40
0.2682903397600169
 50
3.7915548210547052
 51
86.2084451789533972
  0
ARC
  5
BFCF
  8
0
 10
4644.8719180156658695
 20
176.7740143850645893
 30
0.0
 40
0.7742695030185575
 50
3.6667310249934761
 51
86.3332820318818506
  0
ARC
  5
BFD0
  8
0
 10
4646.1815064747061115
 20
140.9873830437934998
 30
0.0
 40
0.1351938929843693
 50
273.8592169340901137
 51
355.3905035338859193
  0
ARC
  5
BFD1
  8
0
 10
4644.8163615116709479
 20
141.5590601417225969
 30
0.0
 40
0.8283863145882783
 50
301.4670249961072273
 51
1.0731416323266341
  0
ENDSEC
  0
EOF
