  0
SECTION
  2
HEADER
  9
$ACADVER
  1
AC1009
  9
$INSBASE
 10
12.06549577969999
 20
-32.146761177800002
 30
0.0
  9
$EXTMIN
 10
-21.18497491414017
 20
-32.159462254372038
 30
0.0
  9
$EXTMAX
 10
12.07186531737092
 20
43.159803848253773
 30
0.0
  9
$LIMMIN
 10
0.0
 20
0.0
  9
$LIMMAX
 10
22.0
 20
17.0
  9
$ORTHOMODE
 70
     1
  9
$REGENMODE
 70
     1
  9
$FILLMODE
 70
     1
  9
$QTEXTMODE
 70
     0
  9
$MIRRTEXT
 70
     0
  9
$DRAGMODE
 70
     2
  9
$LTSCALE
 40
1.2099999999999991
  9
$OSMODE
 70
   439
  9
$ATTMODE
 70
     1
  9
$TEXTSIZE
 40
0.2
  9
$TRACEWID
 40
0.05
  9
$TEXTSTYLE
  7
STANDARD
  9
$CLAYER
  8
0
  9
$CELTYPE
  6
BYLAYER
  9
$CECOLOR
 62
   256
  9
$DIMSCALE
 40
1.0
  9
$DIMASZ
 40
0.1875
  9
$DIMEXO
 40
0.0625
  9
$DIMDLI
 40
0.8359999999999999
  9
$DIMRND
 40
0.0
  9
$DIMDLE
 40
0.0
  9
$DIMEXE
 40
0.125
  9
$DIMTP
 40
0.0
  9
$DIMTM
 40
0.0
  9
$DIMTXT
 40
0.15625
  9
$DIMCEN
 40
0.198
  9
$DIMTSZ
 40
0.0
  9
$DIMTOL
 70
     0
  9
$DIMLIM
 70
     0
  9
$DIMTIH
 70
     1
  9
$DIMTOH
 70
     1
  9
$DIMSE1
 70
     0
  9
$DIMSE2
 70
     0
  9
$DIMTAD
 70
     0
  9
$DIMZIN
 70
     0
  9
$DIMBLK
  1

  9
$DIMASO
 70
     1
  9
$DIMSHO
 70
     1
  9
$DIMPOST
  1
\X
  9
$DIMAPOST
  1

  9
$DIMALT
 70
     1
  9
$DIMALTD
 70
     2
  9
$DIMALTF
 40
25.399999999999999
  9
$DIMLFAC
 40
1.0
  9
$DIMTOFL
 70
     0
  9
$DIMTVP
 40
0.0
  9
$DIMTIX
 70
     0
  9
$DIMSOXD
 70
     0
  9
$DIMSAH
 70
     0
  9
$DIMBLK1
  1

  9
$DIMBLK2
  1

  9
$DIMSTYLE
  2
STANDARD
  9
$DIMCLRD
 70
     0
  9
$DIMCLRE
 70
     0
  9
$DIMCLRT
 70
     0
  9
$DIMTFAC
 40
1.0
  9
$DIMGAP
 40
0.09
  9
$LUNITS
 70
     2
  9
$LUPREC
 70
     4
  9
$SKETCHINC
 40
0.1
  9
$FILLETRAD
 40
0.0
  9
$AUNITS
 70
     0
  9
$AUPREC
 70
     0
  9
$MENU
  1
.
  9
$ELEVATION
 40
0.0
  9
$PELEVATION
 40
0.0
  9
$THICKNESS
 40
0.0
  9
$LIMCHECK
 70
     0
  9
$BLIPMODE
 70
     0
  9
$CHAMFERA
 40
0.0
  9
$CHAMFERB
 40
0.0
  9
$SKPOLY
 70
     0
  9
$TDCREATE
 40
2458086.7581259948
  9
$TDUPDATE
 40
2458372.6038458911
  9
$TDINDWG
 40
0.949625787
  9
$TDUSRTIMER
 40
0.9496256829000001
  9
$USRTIMER
 70
     1
  9
$ANGBASE
 50
0.0
  9
$ANGDIR
 70
     0
  9
$PDMODE
 70
     0
  9
$PDSIZE
 40
0.3125
  9
$PLINEWID
 40
0.0
  9
$COORDS
 70
     1
  9
$SPLFRAME
 70
     0
  9
$SPLINETYPE
 70
     6
  9
$SPLINESEGS
 70
     8
  9
$ATTDIA
 70
     1
  9
$ATTREQ
 70
     1
  9
$HANDLING
 70
     1
  9
$HANDSEED
  5
8337
  9
$SURFTAB1
 70
     6
  9
$SURFTAB2
 70
     6
  9
$SURFTYPE
 70
     6
  9
$SURFU
 70
     6
  9
$SURFV
 70
     6
  9
$UCSNAME
  2

  9
$UCSORG
 10
0.0
 20
0.0
 30
0.0
  9
$UCSXDIR
 10
1.0
 20
0.0
 30
0.0
  9
$UCSYDIR
 10
0.0
 20
1.0
 30
0.0
  9
$PUCSNAME
  2

  9
$PUCSORG
 10
0.0
 20
0.0
 30
0.0
  9
$PUCSXDIR
 10
1.0
 20
0.0
 30
0.0
  9
$PUCSYDIR
 10
0.0
 20
1.0
 30
0.0
  9
$USERI1
 70
     0
  9
$USERI2
 70
     0
  9
$USERI3
 70
     0
  9
$USERI4
 70
     0
  9
$USERI5
 70
     0
  9
$USERR1
 40
0.0
  9
$USERR2
 40
0.0
  9
$USERR3
 40
0.0
  9
$USERR4
 40
0.0
  9
$USERR5
 40
0.0
  9
$WORLDVIEW
 70
     1
  9
$SHADEDGE
 70
     3
  9
$SHADEDIF
 70
    70
  9
$TILEMODE
 70
     1
  9
$MAXACTVP
 70
    48
  9
$PLIMCHECK
 70
     0
  9
$PEXTMIN
 10
1.0000000000000000E+020
 20
1.0000000000000000E+020
 30
1.0000000000000000E+020
  9
$PEXTMAX
 10
-1.0000000000000000E+020
 20
-1.0000000000000000E+020
 30
-1.0000000000000000E+020
  9
$PLIMMIN
 10
0.0
 20
0.0
  9
$PLIMMAX
 10
12.0
 20
9.0
  9
$UNITMODE
 70
     0
  9
$VISRETAIN
 70
     1
  9
$PLINEGEN
 70
     0
  9
$PSLTSCALE
 70
     1
  0
ENDSEC
  0
SECTION
  2
TABLES
  0
TABLE
  2
VPORT
 70
     1
  0
VPORT
  2
*ACTIVE
 70
     0
 10
0.0
 20
0.0
 11
1.0
 21
1.0
 12
39.723387151413711
 22
-7.3177601107289831
 13
0.0
 23
0.0
 14
1.0
 24
1.0
 15
0.0
 25
0.0
 16
0.0
 26
0.0
 36
1.0
 17
0.0
 27
0.0
 37
0.0
 40
144.70904972178849
 41
2.0930851063829778
 42
50.0
 43
0.0
 44
0.0
 50
0.0
 51
0.0
 71
     0
 72
   100
 73
     1
 74
     1
 75
     0
 76
     0
 77
     0
 78
     0
  0
ENDTAB
  0
TABLE
  2
LTYPE
 70
     2
  0
LTYPE
  2
CONTINUOUS
 70
     0
  3
Solid line
 72
    65
 73
     0
 40
0.0
  0
LTYPE
  2
PHANTOM2
 70
     0
  3
___ _ _ ___ _ _ ___ _ _ ___ _ _
 72
    65
 73
     6
 40
1.25
 49
0.625
 49
-0.125
 49
0.125
 49
-0.125
 49
0.125
 49
-0.125
  0
ENDTAB
  0
TABLE
  2
LAYER
 70
     2
  0
LAYER
  2
0
 70
     0
 62
     7
  6
CONTINUOUS
  0
LAYER
  2
DEFPOINTS
 70
     0
 62
     7
  6
CONTINUOUS
  0
ENDTAB
  0
TABLE
  2
STYLE
 70
     2
  0
STYLE
  2
STANDARD
 70
     0
 40
0.0
 41
0.8
 50
0.0
 71
     0
 42
0.2
  3
txt
  4

  0
STYLE
  2
ANNOTATIVE
 70
     0
 40
0.0
 41
1.0
 50
0.0
 71
     0
 42
0.2
  3
txt
  4

  0
ENDTAB
  0
TABLE
  2
VIEW
 70
     0
  0
ENDTAB
  0
TABLE
  2
UCS
 70
     0
  0
ENDTAB
  0
TABLE
  2
APPID
 70
     8
  0
APPID
  2
ACAD
 70
     0
  0
APPID
  2
ACADANNOTATIVE
 70
     0
  0
APPID
  2
ACAD_MLEADERVER
 70
     0
  0
APPID
  2
ACAD_NAV_VCDISPLAY
 70
     0
  0
APPID
  2
ACAD_EXEMPT_FROM_CAD_STANDARDS
 70
     0
  0
APPID
  2
ACAD_DSTYLE_DIMJAG
 70
     0
  0
APPID
  2
ACAD_DSTYLE_DIMTALN
 70
     0
  0
APPID
  2
ACDBATTR
 70
     0
  0
ENDTAB
  0
TABLE
  2
DIMSTYLE
 70
     2
  0
DIMSTYLE
  2
STANDARD
 70
     0
  3

  4

  5

  6

  7

 40
1.0
 41
0.1875
 42
0.0625
 43
0.38
 44
0.125
 45
0.0
 46
0.0
 47
1.5
 48
1.5
140
0.15625
141
0.09
142
0.0
143
25.399999999999999
144
1.0
145
0.0
146
1.0
147
0.09
 71
     0
 72
     0
 73
     1
 74
     1
 75
     0
 76
     0
 77
     0
 78
     4
170
     0
171
     2
172
     0
173
     0
174
     0
175
     0
176
     0
177
     0
178
     0
  0
DIMSTYLE
  2
ANNOTATIVE
 70
     0
  3

  4

  5

  6

  7

 40
1.0
 41
0.18
 42
0.0625
 43
0.38
 44
0.18
 45
0.0
 46
0.0
 47
0.0
 48
0.0
140
0.18
141
0.09
142
0.0
143
25.399999999999999
144
1.0
145
0.0
146
1.0
147
0.09
 71
     0
 72
     0
 73
     1
 74
     1
 75
     0
 76
     0
 77
     0
 78
     0
170
     0
171
     2
172
     0
173
     0
174
     0
175
     0
176
     0
177
     0
178
     0
  0
ENDTAB
  0
ENDSEC
  0
SECTION
  2
BLOCKS
  0
BLOCK
  8
0
  2
$MODEL_SPACE
 70
     0
 10
0.0
 20
0.0
 30
0.0
  3
$MODEL_SPACE
  1

  0
ENDBLK
  5
82D5
  8
0
  0
BLOCK
 67
     1
  8
0
  2
$PAPER_SPACE
 70
     0
 10
0.0
 20
0.0
 30
0.0
  3
$PAPER_SPACE
  1

  0
ENDBLK
  5
82D1
 67
     1
  8
0
  0
ENDSEC
  0
SECTION
  2
ENTITIES
  0
LINE
  5
7472
  8
0
 10
-19.672912980999978
 20
-31.641291973600008
 30
0.0
 11
-19.744681682799989
 21
-31.646310282999998
 31
0.0
  0
LINE
  5
7473
  8
0
 10
-19.644709737900001
 20
-31.942161177799999
 30
0.0
 11
-19.282059711700001
 21
-31.9212434473
 31
0.0
  0
LINE
  5
7474
  8
0
 10
2.9013808139678678
 20
-31.9795628544917
 30
0.0
 11
5.6452949872000033
 21
-31.895723565299999
 31
0.0
  0
LINE
  5
7482
  8
0
 10
-19.34061923609999
 20
-26.983424107600001
 30
0.0
 11
-19.403991745330149
 21
-26.933524128852291
 31
0.0
  0
LINE
  5
7483
  8
0
 10
-19.427016934699999
 20
-26.406336473900001
 30
0.0
 11
-18.8809516102
 21
-26.4017208918
 31
0.0
  0
LINE
  5
7484
  8
0
 10
-19.473870639400001
 20
-23.7879529328
 30
0.0
 11
-19.473866894852488
 21
-23.787952704264871
 31
0.0
  0
LINE
  5
7485
  8
0
 10
-19.468931667606011
 20
-23.912297626950689
 30
0.0
 11
-19.195248363699999
 21
-23.895605556
 31
0.0
  0
LINE
  5
7487
  8
0
 10
-19.485665254540319
 20
-23.427452699184801
 30
0.0
 11
-19.2115477963
 21
-23.425150302799999
 31
0.0
  0
LINE
  5
7488
  8
0
 10
-19.556648992496051
 20
-18.621433596812889
 30
0.0
 11
-19.39625444159606
 21
-18.706773358212882
 31
0.0
  0
LINE
  5
7489
  8
0
 10
-19.599866921496051
 20
-19.19885563601289
 30
0.0
 11
-19.74338313713919
 21
-19.040535417978209
 31
0.0
  0
LINE
  5
748A
  8
0
 10
-13.893732825400001
 20
27.21333002130001
 30
0.0
 11
-13.867609011300001
 21
27.226379147500001
 31
0.0
  0
LINE
  5
748C
  8
0
 10
-13.867442658599989
 20
27.126440290899989
 30
0.0
 11
-13.8936766531
 21
27.0870706619
 31
0.0
  0
LINE
  5
748D
  8
0
 10
-19.417418670696051
 20
-18.85864452071289
 30
0.0
 11
-19.743362966491159
 21
-18.89024392230527
 31
0.0
  0
LINE
  5
748F
  8
0
 10
-19.399376895107299
 20
-19.014058906683371
 30
0.0
 11
-19.743380778873998
 21
-19.022963984358881
 31
0.0
  0
LINE
  5
7490
  8
0
 10
-19.644709737900001
 20
-31.942161177799999
 30
0.0
 11
-19.672912980999978
 21
-31.641291973600008
 31
0.0
  0
LINE
  5
7491
  8
0
 10
-19.5801840944
 20
-17.090012123699999
 30
0.0
 11
-19.707655472500001
 21
-17.116747413399999
 31
0.0
  0
LINE
  5
7493
  8
0
 10
-19.282059711700001
 20
-31.9212434473
 30
0.0
 11
-19.743963874633121
 21
-23.3676104053181
 31
0.0
  0
LINE
  5
7494
  8
0
 10
-19.74298914812535
 20
-16.104923330099719
 30
0.0
 11
-19.65315362529606
 21
-18.677476114712888
 31
0.0
  0
LINE
  5
7495
  8
0
 10
-19.636359192796071
 20
-19.15859910941289
 30
0.0
 11
-19.485665254540319
 21
-23.427452699184801
 31
0.0
  0
LINE
  5
7496
  8
0
 10
-19.485665254540319
 20
-23.427452699184801
 30
0.0
 11
-19.42701693470001
 21
-26.406336473900001
 31
0.0
  0
LINE
  5
7497
  8
0
 10
-20.136912852199998
 20
-16.287480071400001
 30
0.0
 11
-19.950965697693121
 21
-21.65453362806316
 31
0.0
  0
LINE
  5
7498
  8
0
 10
-19.532536237399999
 20
-17.029212278300001
 30
0.0
 11
-19.550872720400001
 21
-16.499960146799999
 31
0.0
  0
LINE
  5
7499
  8
0
 10
-19.364442598586368
 20
-18.760541980995029
 30
0.0
 11
-19.363244339096049
 21
-18.796846996612889
 31
0.0
  0
LINE
  5
749A
  8
0
 10
-19.354072205796051
 20
-19.057873829012891
 30
0.0
 11
-19.355409372778489
 21
-19.019278872865211
 31
0.0
  0
LINE
  5
749B
  8
0
 10
-18.8809516102
 20
-26.4017208918
 30
0.0
 11
-18.869390650900002
 21
-26.735408784299999
 31
0.0
  0
LINE
  5
749C
  8
0
 10
-19.2115477963
 20
-23.425150302799999
 30
0.0
 11
-19.195248363699999
 21
-23.895605556
 31
0.0
  0
LINE
  5
749D
  8
0
 10
-21.178680568400001
 20
41.853239626099999
 30
0.0
 11
-21.178680568400001
 21
-10.371708460100001
 31
0.0
  0
LINE
  5
749E
  8
0
 10
-19.395072990349998
 20
-27.137729073599999
 30
0.0
 11
-19.42701693470001
 21
-26.406336473900001
 31
0.0
  0
LINE
  5
749F
  8
0
 10
-13.861907545899999
 20
14.6904402909
 30
0.0
 11
-13.888141540499999
 21
14.6510706618
 31
0.0
  0
LINE
  5
74A0
  8
0
 10
-13.8881977128
 20
14.77733007909999
 30
0.0
 11
-13.8620738986
 21
14.790379103999991
 31
0.0
  0
LINE
  5
74A1
  8
0
 10
-19.070142130299999
 20
-11.1467611778
 30
0.0
 11
12.0548745854
 21
-11.1467611778
 31
0.0
  0
LINE
  5
74A2
  8
0
 10
-13.907697308099991
 20
-10.3813736419
 30
0.0
 11
4.7146626420999969
 21
-10.3813736419
 31
0.0
  0
LINE
  5
74A3
  8
0
 10
-13.51222866255055
 20
-30.681254754733889
 30
0.0
 11
-13.470965837599991
 21
-31.07384440320001
 31
0.0
  0
LINE
  5
74AA
  8
0
 10
-19.72175094719984
 20
-16.713105830856279
 30
0.0
 11
-19.683743934999999
 21
-16.4408442812
 31
0.0
  0
LINE
  5
74AB
  8
0
 10
-7.7516733494999901
 20
22.454399272100002
 30
0.0
 11
-7.7647512215000027
 21
22.428237424599999
 31
0.0
  0
LINE
  5
74AC
  8
0
 10
8.4653740029109876
 20
41.672425270301822
 30
0.0
 11
7.4654957797000003
 21
40.415257115000003
 31
0.0
  0
LINE
  5
74AD
  8
0
 10
10.821744624999999
 20
40.778153436600007
 30
0.0
 11
11.48789295329148
 21
41.613218312949101
 31
0.0
  0
LINE
  5
74B1
  8
0
 10
-13.8565387855
 20
2.3543791042999942
 30
0.0
 11
-13.85637243889999
 21
2.2544438881999991
 31
0.0
  0
LINE
  5
74B2
  8
0
 10
-13.8620738986
 20
14.790379103999991
 30
0.0
 11
-13.861907545899999
 21
14.6904402909
 31
0.0
  0
LINE
  5
74B3
  8
0
 10
-13.867609011300001
 20
27.226379147500001
 30
0.0
 11
-13.867442658599989
 21
27.126440290899989
 31
0.0
  0
LINE
  5
74B4
  8
0
 10
-13.8936766531
 20
27.0870706619
 30
0.0
 11
-13.893732825400001
 21
27.21333002130001
 31
0.0
  0
LINE
  5
74B5
  8
0
 10
-13.888141540499999
 20
14.6510706618
 30
0.0
 11
-13.8881977128
 21
14.77733007909999
 31
0.0
  0
LINE
  5
74B6
  8
0
 10
-13.88260642779999
 20
2.215070557099998
 30
0.0
 11
-13.8826626002
 21
2.3413300789999951
 31
0.0
  0
LINE
  5
74B7
  8
0
 10
-14.141985125399991
 20
39.538277531059187
 30
0.0
 11
-14.141985125399991
 21
-10.1466443608
 31
0.0
  0
LINE
  5
74B8
  8
0
 10
-13.707218239299999
 20
33.578624924500019
 30
0.0
 11
-13.707218239299999
 21
39.367852719799998
 31
0.0
  0
LINE
  5
74B9
  8
0
 10
-13.4455655337
 20
33.873029152500003
 30
0.0
 11
-13.4455655337
 21
39.073448491799986
 31
0.0
  0
LINE
  5
74BA
  8
0
 10
-7.751651294799994
 20
27.1263815324
 30
0.0
 11
-7.7647503130000031
 21
27.0870713893
 31
0.0
  0
LINE
  5
74BB
  8
0
 10
-7.6385682679999958
 20
19.428238264200001
 30
0.0
 11
-7.6516686694000038
 21
19.402044065399998
 31
0.0
  0
LINE
  5
74BE
  8
0
 10
-7.751651294799994
 20
14.69038153239998
 30
0.0
 11
-7.7647503133999951
 21
14.651071388199981
 31
0.0
  0
LINE
  5
74BF
  8
0
 10
-7.7516733494999901
 20
10.0243992722
 30
0.0
 11
-7.7647512207000027
 21
9.9982374263999976
 31
0.0
  0
LINE
  5
74C0
  8
0
 10
-1.534179582299994
 20
22.454399272100002
 30
0.0
 11
-1.5472574542999911
 21
22.428237424599999
 31
0.0
  0
LINE
  5
74C1
  8
0
 10
-13.85637243889999
 20
2.2544438881999991
 30
0.0
 11
-13.88260642779999
 21
2.215070557099998
 31
0.0
  0
LINE
  5
74C3
  8
0
 10
-8.1816760396999904
 20
39.073448491799986
 30
0.0
 11
-8.1816760396999904
 21
33.873029152500003
 31
0.0
  0
LINE
  5
74C4
  8
0
 10
-7.9184617686999932
 20
39.367852719799998
 30
0.0
 11
-7.9184617686999932
 21
33.578624924500019
 31
0.0
  0
LINE
  5
74C5
  8
0
 10
-7.7647522581999988
 20
27.226393601800002
 30
0.0
 11
-7.7647489235000027
 21
39.578258605500011
 31
0.0
  0
LINE
  5
74C6
  8
0
 10
-7.7647512215000027
 20
22.428237424599999
 30
0.0
 11
-7.7647499636999928
 21
27.0870725431
 31
0.0
  0
LINE
  5
74C7
  8
0
 10
-7.764751216900005
 20
14.790393917399991
 30
0.0
 11
-7.7647499648
 21
19.428237426999999
 31
0.0
  0
LINE
  5
74C8
  8
0
 10
-7.7647512207000027
 20
9.9982374263999976
 30
0.0
 11
-7.7647499644999929
 21
14.651072540499991
 31
0.0
  0
LINE
  5
74C9
  8
0
 10
-7.7647512176999909
 20
2.354393917199999
 30
0.0
 11
-7.7647499639999982
 21
6.998237425200001
 31
0.0
  0
LINE
  5
74CA
  8
0
 10
-7.7516819712999983
 20
27.1946852578
 30
0.0
 11
-7.7516816173999921
 21
27.226386119000001
 31
0.0
  0
LINE
  5
74CB
  8
0
 10
-7.7516816173999921
 20
27.226386119000001
 30
0.0
 11
-7.7516812636000001
 21
39.57823624760001
 31
0.0
  0
LINE
  5
74CC
  8
0
 10
-7.751681762200004
 20
14.758685181500001
 30
0.0
 11
-7.7516811877999983
 21
19.402068728399978
 31
0.0
  0
LINE
  5
74CD
  8
0
 10
-7.7516655406999977
 20
2.3071773949999961
 30
0.0
 11
-7.7516807782999928
 21
6.9720687279999964
 31
0.0
  0
LINE
  5
74CE
  8
0
 10
-7.7516598912000019
 20
10.0244132199
 30
0.0
 11
-7.7516598912000019
 21
14.690405381199991
 31
0.0
  0
LINE
  5
74CF
  8
0
 10
-7.7516598912000019
 20
22.454413219399999
 30
0.0
 11
-7.7516598912000019
 21
27.126405381600001
 31
0.0
  0
LINE
  5
74D0
  8
0
 10
-7.6516775124999956
 20
10.02443233619999
 30
0.0
 11
-7.651678772099995
 21
14.69040090439999
 31
0.0
  0
LINE
  5
74D1
  8
0
 10
-7.6516775115999929
 20
22.454432334300002
 30
0.0
 11
-7.6516787728999951
 21
27.126400906699999
 31
0.0
  0
LINE
  5
74D2
  8
0
 10
-7.6516573907999934
 20
2.307179082499998
 30
0.0
 11
-7.6516733491999922
 21
6.9720544230999959
 31
0.0
  0
LINE
  5
74D3
  8
0
 10
-7.6516541249000012
 20
27.158137754999998
 30
0.0
 11
-7.651664088300004
 21
39.578219026699998
 31
0.0
  0
LINE
  5
74D4
  8
0
 10
-7.6516508125000051
 20
14.722136544899991
 30
0.0
 11
-7.6516733492999931
 21
19.402054423199999
 31
0.0
  0
LINE
  5
74D5
  8
0
 10
-7.6385679889999896
 20
2.354403781499995
 30
0.0
 11
-7.6385679889999896
 21
6.9982381239999949
 31
0.0
  0
LINE
  5
74D6
  8
0
 10
-7.638567988900002
 20
9.9982381245999914
 30
0.0
 11
-7.638567988900002
 21
14.6510715971
 31
0.0
  0
LINE
  5
74D7
  8
0
 10
-7.6385679889999896
 20
14.79040378169999
 30
0.0
 11
-7.6385679889999896
 21
19.428238124899991
 31
0.0
  0
LINE
  5
74D8
  8
0
 10
-7.638567988900002
 20
22.428238123700002
 30
0.0
 11
-7.638567988900002
 21
27.0870715985
 31
0.0
  0
LINE
  5
74D9
  8
0
 10
-7.6385679898999932
 20
27.226406419499991
 30
0.0
 11
-7.6385679898999932
 21
39.578241392099997
 31
0.0
  0
LINE
  5
74DA
  8
0
 10
2.9100361694926522
 20
41.595214008592137
 30
0.0
 11
2.8927012551926441
 21
41.542440999992159
 31
0.0
  0
LINE
  5
74DB
  8
0
 10
-1.5341575276999979
 20
27.1263815314
 30
0.0
 11
-1.5472565457999921
 21
27.087071389599998
 31
0.0
  0
LINE
  5
74DC
  8
0
 10
-7.638568268300002
 20
6.9982382633999958
 30
0.0
 11
-7.6516681711999972
 21
6.9720440651999951
 31
0.0
  0
LINE
  5
74DD
  8
0
 10
-1.4210745007999981
 20
19.428238264200001
 30
0.0
 11
-1.434174902299997
 21
19.402044065399998
 31
0.0
  0
LINE
  5
74DE
  8
0
 10
-13.8826626002
 20
2.3413300789999951
 30
0.0
 11
-13.8565387855
 21
2.3543791042999942
 31
0.0
  0
LINE
  5
74DF
  8
0
 10
-1.5341575276999979
 20
14.690381531399989
 30
0.0
 11
-1.547256546199999
 21
14.6510713885
 31
0.0
  0
LINE
  5
74E0
  8
0
 10
4.7558635323000011
 20
2.2150705578999981
 30
0.0
 11
-13.882618906299991
 21
2.2150705464999998
 31
0.0
  0
LINE
  5
74E1
  8
0
 10
-13.856399504300001
 20
2.2544438768999981
 30
0.0
 11
4.7296340847999989
 21
2.2544438408
 31
0.0
  0
LINE
  5
74E2
  8
0
 10
-1.5341699955000041
 20
2.3044134345999918
 30
0.0
 11
-1.4341622656999911
 21
2.3044134345999918
 31
0.0
  0
LINE
  5
74E3
  8
0
 10
-7.7516655406999977
 20
2.3071773949999961
 30
0.0
 11
-7.6516568208999978
 21
2.3071773949999961
 31
0.0
  0
LINE
  5
74E4
  8
0
 10
-1.5341893250999981
 20
2.354393914999994
 30
0.0
 11
-7.6516606266000009
 21
2.354403781499995
 31
0.0
  0
LINE
  5
74E5
  8
0
 10
-7.7516831583999952
 20
2.3543939135999992
 30
0.0
 11
-13.856511725000001
 21
2.3543829930000002
 31
0.0
  0
LINE
  5
74E6
  8
0
 10
4.7296572477999952
 20
2.3543830064999991
 30
0.0
 11
-1.4341672051999941
 21
2.3544037806999949
 31
0.0
  0
LINE
  5
74E7
  8
0
 10
-7.6516746982999928
 20
10.024436725799999
 30
0.0
 11
-7.6385677097999958
 21
9.9982382638999994
 31
0.0
  0
LINE
  5
74E8
  8
0
 10
-7.7647499639999982
 20
6.998237425200001
 30
0.0
 11
-7.7516778915000044
 21
6.972088252499999
 31
0.0
  0
LINE
  5
74E9
  8
0
 10
-1.5472584905999971
 20
27.226393603399998
 30
0.0
 11
-1.547255156699999
 21
39.575487899300001
 31
0.0
  0
LINE
  5
74EA
  8
0
 10
-1.5472574542999911
 20
22.428237424599999
 30
0.0
 11
-1.547256196499996
 21
27.087072647900001
 31
0.0
  0
LINE
  5
74EB
  8
0
 10
-1.5472574496999929
 20
14.790393918699991
 30
0.0
 11
-1.5472561976000021
 21
19.428237426999999
 31
0.0
  0
LINE
  5
74EC
  8
0
 10
-1.5472574535000041
 20
9.9982374263999976
 30
0.0
 11
-1.5472561973999981
 21
14.651072645199999
 31
0.0
  0
LINE
  5
74ED
  8
0
 10
-1.5472574505000081
 20
2.354393918599996
 30
0.0
 11
-1.547256196799988
 21
6.998237425200001
 31
0.0
  0
LINE
  5
74EE
  8
0
 10
-1.5341882023999991
 20
27.194685257
 30
0.0
 11
-1.534187848599994
 21
27.226379502
 31
0.0
  0
LINE
  5
74EF
  8
0
 10
-1.534187848599994
 20
27.226379502
 30
0.0
 11
-1.534187494700002
 21
39.575465541399993
 31
0.0
  0
LINE
  5
74F0
  8
0
 10
-1.534187993499994
 20
14.758685180900001
 30
0.0
 11
-1.5341874190000011
 21
19.402068728100001
 31
0.0
  0
LINE
  5
74F1
  8
0
 10
-1.5341699955000041
 20
2.3044134345999918
 30
0.0
 11
-1.5341869769999861
 21
6.9720687275999964
 31
0.0
  0
LINE
  5
74F2
  8
0
 10
-1.5341661238000011
 20
10.024413219699991
 30
0.0
 11
-1.5341661238000011
 21
14.69040543379999
 31
0.0
  0
LINE
  5
74F3
  8
0
 10
-1.5341661238000011
 20
22.454413219199999
 30
0.0
 11
-1.5341661238000011
 21
27.126405434300001
 31
0.0
  0
LINE
  5
74F4
  8
0
 10
-1.434183744999995
 20
10.02443233559999
 30
0.0
 11
-1.4341850046999931
 21
14.6904019674
 31
0.0
  0
LINE
  5
74F5
  8
0
 10
-1.4341837441999941
 20
22.4544323338
 30
0.0
 11
-1.434185005500008
 21
27.1264019698
 31
0.0
  0
LINE
  5
74F6
  8
0
 10
-1.434163759899997
 20
2.3044134370999951
 30
0.0
 11
-1.434179581999995
 21
6.9720544230999959
 31
0.0
  0
LINE
  5
74F7
  8
0
 10
-1.434160357899994
 20
27.158137754999998
 30
0.0
 11
-1.4341703199000011
 21
39.575448320500001
 31
0.0
  0
LINE
  5
74F8
  8
0
 10
-1.4341570452000061
 20
14.722136544799991
 30
0.0
 11
-1.4341795821999981
 21
19.402054423199999
 31
0.0
  0
LINE
  5
74F9
  8
0
 10
-1.4210742217999941
 20
2.3544037806999949
 30
0.0
 11
-1.4210742217999941
 21
6.9982381239999949
 31
0.0
  0
LINE
  5
74FA
  8
0
 10
-1.4210742217999941
 20
9.9982381245999914
 30
0.0
 11
-1.4210742217999941
 21
14.65107107419999
 31
0.0
  0
LINE
  5
74FB
  8
0
 10
-1.4210742217999941
 20
14.79040378089999
 30
0.0
 11
-1.4210742217999941
 21
19.428238124899991
 31
0.0
  0
LINE
  5
74FC
  8
0
 10
-1.4210742217999941
 20
22.428238123700002
 30
0.0
 11
-1.4210742217999941
 21
27.087071074899988
 31
0.0
  0
LINE
  5
74FD
  8
0
 10
-1.4210742226999951
 20
27.226406419
 30
0.0
 11
-1.4210742226999951
 21
39.575470685899987
 31
0.0
  0
LINE
  5
74FE
  8
0
 10
-1.421074501199991
 20
6.9982382633999958
 30
0.0
 11
-1.434174469699993
 21
6.9720440651999951
 31
0.0
  0
LINE
  5
7500
  8
0
 10
4.7558323222999981
 20
2.3413301183000002
 30
0.0
 11
4.7296572477999952
 21
2.3543830064999991
 31
0.0
  0
LINE
  5
7501
  8
0
 10
-7.651678772099995
 20
14.69040090439999
 30
0.0
 11
-7.6385686169999989
 21
14.651072643599999
 31
0.0
  0
LINE
  5
7502
  8
0
 10
-7.7516807782999928
 20
6.9720687279999964
 30
0.0
 11
-7.6516643943999956
 21
6.9720687279999964
 31
0.0
  0
LINE
  5
7503
  8
0
 10
-1.5341869769999861
 20
6.9720687275999964
 30
0.0
 11
-1.4341708332999961
 21
6.9720687275999964
 31
0.0
  0
LINE
  5
7504
  8
0
 10
-1.4210742217999941
 20
6.9982381239999949
 30
0.0
 11
-1.5472568253999941
 21
6.9982381239999949
 31
0.0
  0
LINE
  5
7505
  8
0
 10
-7.6385679889999896
 20
6.9982381239999949
 30
0.0
 11
-7.764750592600004
 21
6.9982381239999949
 31
0.0
  0
LINE
  5
7506
  8
0
 10
-7.6516747032999977
 20
22.454436725099988
 30
0.0
 11
-7.638567709400002
 21
22.428238263200001
 31
0.0
  0
LINE
  5
7507
  8
0
 10
-7.7647499648
 20
19.428237426999999
 30
0.0
 11
-7.751677892499993
 21
19.402088254500001
 31
0.0
  0
LINE
  5
7508
  8
0
 10
-1.547256196799988
 20
6.998237425200001
 30
0.0
 11
-1.534184122499989
 21
6.9720882487999969
 31
0.0
  0
LINE
  5
7509
  8
0
 10
-7.6516787728999951
 20
27.126400906699999
 30
0.0
 11
-7.638568617799999
 21
27.087072646300001
 31
0.0
  0
LINE
  5
750C
  8
0
 10
-7.7516684693999984
 20
10.024389052299989
 30
0.0
 11
-7.6516746982999928
 21
10.024436725799999
 31
0.0
  0
LINE
  5
750D
  8
0
 10
-7.6385677097999958
 20
9.9982382638999994
 30
0.0
 11
-7.764750871699996
 21
9.9982382638999994
 31
0.0
  0
LINE
  5
750E
  8
0
 10
4.7296340847999989
 20
2.2544438408
 30
0.0
 11
4.7558635323000011
 21
2.2150705578999981
 31
0.0
  0
LINE
  5
750F
  8
0
 10
-1.4341850046999931
 20
14.6904019674
 30
0.0
 11
-1.4210748497999881
 21
14.651072538899991
 31
0.0
  0
LINE
  5
751B
  8
0
 10
4.7296234073000001
 20
2.354360442199996
 30
0.0
 11
4.729667933200008
 21
2.2544439001000001
 31
0.0
  0
LINE
  5
751C
  8
0
 10
4.7240882942000031
 20
14.79036044209999
 30
0.0
 11
4.7241328235000033
 21
14.6904362347
 31
0.0
  0
LINE
  5
751D
  8
0
 10
4.7185531820999991
 20
27.2263590771
 30
0.0
 11
4.718597710800001
 21
27.126436234900002
 31
0.0
  0
LINE
  5
751E
  8
0
 10
4.744777701999995
 20
27.087071074899988
 30
0.0
 11
4.744777701999995
 21
27.213329657300001
 31
0.0
  0
LINE
  5
751F
  8
0
 10
4.7503128146999991
 20
14.65107107419999
 30
0.0
 11
4.7503128146999991
 21
14.777329945999989
 31
0.0
  0
LINE
  5
7520
  8
0
 10
4.7558479272999987
 20
2.2150705514999971
 30
0.0
 11
4.7558479272999987
 21
2.341329945799997
 31
0.0
  0
LINE
  5
7521
  8
0
 10
4.9489742602000071
 20
-10.1466686251
 30
0.0
 11
4.9489742602000071
 21
39.525881917200003
 31
0.0
  0
LINE
  5
7523
  8
0
 10
6.8654959440000081
 20
41.668211315899988
 30
0.0
 11
6.8654959440000081
 21
41.617802703791142
 31
0.0
  0
LINE
  5
7524
  8
0
 10
7.4375908563032489
 20
41.637475061733511
 30
0.0
 11
7.4370660968999989
 21
-11.1467611778
 31
0.0
  0
LINE
  5
7525
  8
0
 10
-19.38223405569606
 20
-19.111448515412881
 30
0.0
 11
-19.536337720430272
 21
-19.20768438305285
 31
0.0
  0
LINE
  5
7526
  8
0
 10
4.7503284196999989
 20
14.651070558200001
 30
0.0
 11
-1.4210745007999981
 21
14.6510713878
 31
0.0
  0
LINE
  5
7527
  8
0
 10
-1.547256546199999
 20
14.6510713885
 30
0.0
 11
-7.6385682678999931
 21
14.651071388099981
 31
0.0
  0
LINE
  5
7528
  8
0
 10
-7.7647503133999951
 20
14.651071388199981
 30
0.0
 11
-13.8881540188
 21
14.6510705468
 31
0.0
  0
LINE
  5
7529
  8
0
 10
-13.861934616299999
 20
14.690443872299991
 30
0.0
 11
-1.5341575276999979
 21
14.690381531399989
 31
0.0
  0
LINE
  5
752A
  8
0
 10
-1.5341661238000011
 20
14.69040543379999
 30
0.0
 11
4.7240989700000018
 21
14.690443836499989
 31
0.0
  0
LINE
  5
752B
  8
0
 10
-1.534190208700007
 20
14.790393915199999
 30
0.0
 11
-7.6516632498999932
 21
14.79040378169999
 31
0.0
  0
LINE
  5
752C
  8
0
 10
-7.751683977199999
 20
14.790393913799999
 30
0.0
 11
-13.862046837699999
 21
14.790382992999991
 31
0.0
  0
LINE
  5
752D
  8
0
 10
4.7241221351999929
 20
14.79038300649999
 30
0.0
 11
-1.434169482899998
 21
14.79040378089999
 31
0.0
  0
LINE
  5
752E
  8
0
 10
-7.7516786957000026
 20
14.7586840611
 30
0.0
 11
-7.6516508125000051
 21
14.722136544899991
 31
0.0
  0
LINE
  5
752F
  8
0
 10
-1.5341849282000011
 20
14.75868406089999
 30
0.0
 11
-1.4341570452000061
 21
14.722136544799991
 31
0.0
  0
LINE
  5
7530
  8
0
 10
-1.434180931399988
 20
22.454436724800001
 30
0.0
 11
-1.4210739423000081
 21
22.428238263200001
 31
0.0
  0
LINE
  5
7531
  8
0
 10
-1.5472561976000021
 20
19.428237426999999
 30
0.0
 11
-1.534184123499994
 21
19.402088250799999
 31
0.0
  0
LINE
  5
7532
  8
0
 10
-1.434185005500008
 20
27.1264019698
 30
0.0
 11
-1.421074850600003
 21
27.0870725415
 31
0.0
  0
LINE
  5
7533
  8
0
 10
4.7502972096999958
 20
14.7773301183
 30
0.0
 11
4.7241221351999929
 21
14.79038300649999
 31
0.0
  0
LINE
  5
7534
  8
0
 10
4.7240989700000018
 20
14.690443836499989
 30
0.0
 11
4.7503284196999989
 21
14.651070558200001
 31
0.0
  0
LINE
  5
7536
  8
0
 10
11.680495779699999
 20
39.645042971637508
 30
0.0
 11
11.680495779699999
 21
41.6048006364
 31
0.0
  0
LINE
  5
7537
  8
0
 10
11.805495779699999
 20
39.647224854699999
 30
0.0
 11
11.805495779699999
 21
-11.1467611778
 31
0.0
  0
LINE
  5
7538
  8
0
 10
-7.7516811877999983
 20
19.402068728399978
 30
0.0
 11
-7.6516659551999959
 21
19.402068728399978
 31
0.0
  0
LINE
  5
7539
  8
0
 10
-1.5341874190000011
 20
19.402068728100001
 30
0.0
 11
-1.4341721884999961
 21
19.402068728100001
 31
0.0
  0
LINE
  5
753A
  8
0
 10
-1.4210742217999941
 20
19.428238124899991
 30
0.0
 11
-1.5472568253999941
 21
19.428238124899991
 31
0.0
  0
LINE
  5
753B
  8
0
 10
-7.6385679889999896
 20
19.428238124899991
 30
0.0
 11
-7.764750592600004
 21
19.428238124899991
 31
0.0
  0
LINE
  5
753C
  8
0
 10
-18.869390650900002
 20
-26.735408784299999
 30
0.0
 11
-19.114685912599999
 21
-26.875532697699992
 31
0.0
  0
LINE
  5
753D
  8
0
 10
-1.5341747022000001
 20
22.454389052300002
 30
0.0
 11
-1.434180931399988
 21
22.454436724800001
 31
0.0
  0
LINE
  5
753E
  8
0
 10
-7.7516684693999984
 20
22.454389052300002
 30
0.0
 11
-7.6516747032999977
 21
22.454436725099988
 31
0.0
  0
LINE
  5
753F
  8
0
 10
-1.4210739423000081
 20
22.428238263200001
 30
0.0
 11
-1.547257104899993
 21
22.428238263200001
 31
0.0
  0
LINE
  5
7540
  8
0
 10
-7.638567709400002
 20
22.428238263200001
 30
0.0
 11
-7.7647508720999898
 21
22.428238263200001
 31
0.0
  0
LINE
  5
7541
  8
0
 10
2.996950732792651
 20
41.59530168669216
 30
0.0
 11
3.014348464092659
 21
41.542359644092151
 31
0.0
  0
LINE
  5
7542
  8
0
 10
-7.7516787895000014
 20
27.1946840952
 30
0.0
 11
-7.6516541249000012
 21
27.158137754999998
 31
0.0
  0
LINE
  5
7543
  8
0
 10
-1.5341850219999991
 20
27.194684095
 30
0.0
 11
-1.434160357899994
 21
27.158137754999998
 31
0.0
  0
LINE
  5
7544
  8
0
 10
4.7185638574000031
 20
27.126443836499998
 30
0.0
 11
4.7447933071000001
 21
27.087070558200001
 31
0.0
  0
LINE
  5
7545
  8
0
 10
4.7447933071000001
 20
27.087070558200001
 30
0.0
 11
-1.421074501199991
 21
27.0870713889
 31
0.0
  0
LINE
  5
7546
  8
0
 10
-1.5472565457999921
 20
27.087071389599998
 30
0.0
 11
-7.638568268300002
 21
27.087071389199998
 31
0.0
  0
LINE
  5
7547
  8
0
 10
-7.7647503130000031
 20
27.0870713893
 30
0.0
 11
-13.8936891314
 21
27.0870705468
 31
0.0
  0
LINE
  5
7548
  8
0
 10
-13.8674697289
 20
27.126443872300001
 30
0.0
 11
-1.5341575276999979
 21
27.1263815314
 31
0.0
  0
LINE
  5
7549
  8
0
 10
-1.5341661238000011
 20
27.126405434300001
 30
0.0
 11
4.7185638574000031
 21
27.126443836499998
 31
0.0
  0
LINE
  5
754A
  8
0
 10
-1.5341905438000041
 20
27.2263935999
 30
0.0
 11
-7.651666453399991
 21
27.226406419499991
 31
0.0
  0
LINE
  5
754B
  8
0
 10
-7.7516843125000001
 20
27.2263935983
 30
0.0
 11
-13.8675819503
 21
27.226382993000001
 31
0.0
  0
LINE
  5
754C
  8
0
 10
4.7185870227000093
 20
27.226383006700001
 30
0.0
 11
-1.4341726867000051
 21
27.226406419
 31
0.0
  0
LINE
  5
754D
  8
0
 10
4.7447620970000077
 20
27.2133301183
 30
0.0
 11
4.7185870227000093
 21
27.226383006700001
 31
0.0
  0
LINE
  5
754E
  8
0
 10
-7.9184617686999932
 20
33.578624924500019
 30
0.0
 11
-13.707218239299999
 21
33.578624924500019
 31
0.0
  0
LINE
  5
754F
  8
0
 10
-8.2136228108000005
 20
33.841079780300021
 30
0.0
 11
-13.413618762600001
 21
33.841079780300021
 31
0.0
  0
LINE
  5
7550
  8
0
 10
12.06549577969999
 20
41.794848961999989
 30
0.0
 11
6.9899730047000004
 21
41.622253623900001
 31
0.0
  0
LINE
  5
7551
  8
0
 10
11.6054957797
 20
39.543718667972939
 30
0.0
 11
11.805495779699999
 21
39.547209621900009
 31
0.0
  0
LINE
  5
7552
  8
0
 10
11.805495779699999
 20
39.647224854699999
 30
0.0
 11
11.6054957797
 21
39.6437338418
 31
0.0
  0
LINE
  5
7553
  8
0
 10
-13.41361876269999
 20
39.105397864000011
 30
0.0
 11
-8.2136228109000022
 21
39.105397864000011
 31
0.0
  0
LINE
  5
7554
  8
0
 10
-13.707218239299999
 20
39.367852719799998
 30
0.0
 11
-7.9184617686999932
 21
39.367852719799998
 31
0.0
  0
LINE
  5
7555
  8
0
 10
-1.421074972199998
 20
39.575439994599989
 30
0.0
 11
-1.5472560777999951
 21
39.575496224800013
 31
0.0
  0
LINE
  5
7556
  8
0
 10
-7.6385687396000002
 20
39.5782107008
 30
0.0
 11
-7.7647498448000034
 21
39.578266930999987
 31
0.0
  0
LINE
  5
7557
  8
0
 10
4.7148839223999932
 20
39.760709324199993
 30
0.0
 11
-13.907742737999991
 21
39.773163873200012
 31
0.0
  0
LINE
  5
7559
  8
0
 10
6.6654957796999987
 20
41.728238822199998
 30
0.0
 11
6.805541451699999
 21
41.728238822199998
 31
0.0
  0
LINE
  5
755A
  8
0
 10
-19.934504220315201
 20
42.978215828653767
 30
0.0
 11
5.4154957796999987
 21
42.978215828653717
 31
0.0
  0
LINE
  5
755B
  8
0
 10
5.8940107188762001
 20
41.540321372318111
 30
0.0
 11
3.014348464092659
 21
41.542359644092151
 31
0.0
  0
LINE
  5
755C
  8
0
 10
2.8927012551926441
 20
41.542440999992159
 30
0.0
 11
0.0136930147699223
 21
41.544354204495917
 31
0.0
  0
LINE
  5
755D
  8
0
 10
-0.1066438580972056
 20
41.544434684032822
 30
0.0
 11
-2.984822016625615
 21
41.54613882210846
 31
0.0
  0
LINE
  5
755E
  8
0
 10
-3.1038405135426381
 20
41.54621841990528
 30
0.0
 11
-5.9876259272447507
 21
41.548367801620898
 31
0.0
  0
LINE
  5
755F
  8
0
 10
-6.1053260481789122
 20
41.548446517777627
 30
0.0
 11
-8.9882853982520761
 21
41.550374600183389
 31
0.0
  0
LINE
  5
7560
  8
0
 10
-9.1046671432361617
 20
41.550452434600082
 30
0.0
 11
-11.988944869259401
 21
41.552381398745851
 31
0.0
  0
LINE
  5
7561
  8
0
 10
-12.1040082382934
 20
41.552458351422523
 30
0.0
 11
-14.989604340266739
 21
41.55438819730837
 31
0.0
  0
LINE
  5
7562
  8
0
 10
-15.53915605910001
 20
41.564198973000003
 30
0.0
 11
-17.993376582876561
 21
41.56586729337581
 31
0.0
  0
LINE
  5
7563
  8
0
 10
-18.099574629928942
 20
41.565955669511197
 30
0.0
 11
-19.727532942799989
 21
41.567000100199976
 31
0.0
  0
LINE
  5
7564
  8
0
 10
-15.10334928794328
 20
41.554464406479589
 30
0.0
 11
-15.53915605910001
 21
41.564198973000003
 31
0.0
  0
ARC
  5
7565
  8
0
 10
-19.937032140193129
 20
-16.28057356956316
 30
0.0
 40
0.199999997
 50
92.323976599357039
 51
181.9789605114
  0
ARC
  5
7566
  8
0
 10
-19.414015247396051
 20
-19.060556906612891
 30
0.0
 40
0.06
 50
301.98427736220049
 51
4.7286679922000578
  0
ARC
  5
7567
  8
0
 10
-19.415372532296061
 20
-19.0213811337129
 30
0.0
 40
0.0600000000000051
 50
2.0079222104044541
 51
88.431725610096137
  0
ARC
  5
7568
  8
0
 10
-19.42443727169605
 20
-18.759742482112891
 30
0.0
 40
0.06
 50
359.23651221079967
 51
61.98427737210028
  0
ARC
  5
7569
  8
0
 10
-19.42320836099606
 20
-18.798924511612888
 30
0.0
 40
0.06
 50
275.53736311759991
 51
1.984277378400181
  0
ARC
  5
756A
  8
0
 10
-19.610836742299998
 20
-16.502037661799999
 30
0.0
 40
0.06
 50
1.9842773717997959
 51
94.862467041800073
  0
ARC
  5
756B
  8
0
 10
-19.592500259399991
 20
-17.031289793300001
 30
0.0
 40
0.06
 50
281.8452708164001
 51
1.98427737330009
  0
ARC
  5
756C
  8
0
 10
-19.562822058893762
 20
-19.165274716523651
 30
0.0
 40
0.0499999999896582
 50
222.19209612346069
 51
301.98429354029918
  0
ARC
  5
756D
  8
0
 10
-19.580134684277319
 20
-18.66557453362007
 30
0.0
 40
0.0500000002066046
 50
61.984277534693099
 51
141.7764584881478
  0
ARC
  5
756E
  8
0
 10
-19.39909255222809
 20
-19.059063753758519
 30
0.0
 40
0.0450057453124563
 50
4.4003576536582507
 51
90.361992789743681
  0
ARC
  5
756F
  8
0
 10
-19.40944439989606
 20
-18.760204861912879
 30
0.0
 40
0.045
 50
273.60337977239971
 51
359.56956436579981
  0
LINE
  5
7570
  8
0
 10
-8.1816760396999904
 20
33.873029152500003
 30
0.0
 11
-8.2136228108000005
 21
33.841079780300021
 31
0.0
  0
LINE
  5
7571
  8
0
 10
-8.1816760396999904
 20
39.073448491699608
 30
0.0
 11
-8.2136228107999418
 21
39.10539786409997
 31
0.0
  0
LINE
  5
7572
  8
0
 10
-13.41361876279999
 20
39.105397863799993
 30
0.0
 11
-13.4455655337
 21
39.073448491799986
 31
0.0
  0
LINE
  5
7573
  8
0
 10
-13.44556553360052
 20
33.873029152500003
 30
0.0
 11
-13.413618762600001
 21
33.841079780300021
 31
0.0
  0
LINE
  5
7574
  8
0
 10
-7.9184617686999932
 20
39.367852719799998
 30
0.0
 11
-8.1976494252499741
 21
39.089423177899782
 31
0.0
  0
LINE
  5
7575
  8
0
 10
-13.707218239299999
 20
39.367852719799998
 30
0.0
 11
-13.42959214825
 21
39.089423177799993
 31
0.0
  0
LINE
  5
7576
  8
0
 10
-13.707218239299999
 20
33.578624924500019
 30
0.0
 11
-13.42959214810026
 21
33.857054466400001
 31
0.0
  0
LINE
  5
7577
  8
0
 10
-7.9184617686999932
 20
33.578624924500019
 30
0.0
 11
-8.1976494252500007
 21
33.857054466400001
 31
0.0
  0
LINE
  5
7578
  8
0
 10
-7.48972447209999
 20
33.578624924500019
 30
0.0
 11
-7.48972447209999
 21
39.367852719799998
 31
0.0
  0
LINE
  5
7579
  8
0
 10
-7.2280717664999878
 20
33.873029152500003
 30
0.0
 11
-7.2280717664999878
 21
39.073448491799986
 31
0.0
  0
LINE
  5
757A
  8
0
 10
-1.964182272499992
 20
39.073448491799986
 30
0.0
 11
-1.964182272499992
 21
33.873029152500003
 31
0.0
  0
LINE
  5
757B
  8
0
 10
-1.7009680014999971
 20
39.367852719799998
 30
0.0
 11
-1.7009680014999971
 21
33.578624924500019
 31
0.0
  0
LINE
  5
757C
  8
0
 10
-1.7009680014999971
 20
33.578624924500019
 30
0.0
 11
-7.48972447209999
 21
33.578624924500019
 31
0.0
  0
LINE
  5
757D
  8
0
 10
-1.996129043600003
 20
33.841079780300021
 30
0.0
 11
-7.1961249953999928
 21
33.841079780300021
 31
0.0
  0
LINE
  5
757E
  8
0
 10
-7.1961249954999964
 20
39.105397864000011
 30
0.0
 11
-1.996129043699991
 21
39.105397864000011
 31
0.0
  0
LINE
  5
757F
  8
0
 10
-7.48972447209999
 20
39.367852719799998
 30
0.0
 11
-1.7009680014999971
 21
39.367852719799998
 31
0.0
  0
LINE
  5
7580
  8
0
 10
-1.964182272499992
 20
33.873029152500003
 30
0.0
 11
-1.996129043600003
 21
33.841079780300021
 31
0.0
  0
LINE
  5
7581
  8
0
 10
-1.964182272499992
 20
39.073448491699608
 30
0.0
 11
-1.996129043599945
 21
39.10539786409997
 31
0.0
  0
LINE
  5
7582
  8
0
 10
-7.1961249955999982
 20
39.105397863799993
 30
0.0
 11
-7.2280717664999878
 21
39.073448491799986
 31
0.0
  0
LINE
  5
7583
  8
0
 10
-7.2280717664005127
 20
33.873029152500003
 30
0.0
 11
-7.1961249953999928
 21
33.841079780300021
 31
0.0
  0
LINE
  5
7584
  8
0
 10
-1.7009680014999971
 20
39.367852719799998
 30
0.0
 11
-1.9801556580499611
 21
39.089423177899782
 31
0.0
  0
LINE
  5
7585
  8
0
 10
-7.48972447209999
 20
39.367852719799998
 30
0.0
 11
-7.2120983810499926
 21
39.089423177799993
 31
0.0
  0
LINE
  5
7586
  8
0
 10
-7.48972447209999
 20
33.578624924500019
 30
0.0
 11
-7.2120983809002679
 21
33.857054466400001
 31
0.0
  0
LINE
  5
7587
  8
0
 10
-1.7009680014999971
 20
33.578624924500019
 30
0.0
 11
-1.9801556580499911
 21
33.857054466400001
 31
0.0
  0
LINE
  5
7588
  8
0
 10
-1.272230704999993
 20
33.578624924500019
 30
0.0
 11
-1.272230704999993
 21
39.367852719799998
 31
0.0
  0
LINE
  5
7589
  8
0
 10
-1.010577999399995
 20
33.873029152500003
 30
0.0
 11
-1.010577999399995
 21
39.073448491799986
 31
0.0
  0
LINE
  5
758A
  8
0
 10
4.253311494600001
 20
39.073448491799986
 30
0.0
 11
4.253311494600001
 21
33.873029152500003
 31
0.0
  0
LINE
  5
758B
  8
0
 10
4.5165257655999964
 20
39.367852719799998
 30
0.0
 11
4.5165257655999964
 21
33.578624924500019
 31
0.0
  0
LINE
  5
758C
  8
0
 10
4.5165257655999964
 20
33.578624924500019
 30
0.0
 11
-1.272230704999993
 21
33.578624924500019
 31
0.0
  0
LINE
  5
758D
  8
0
 10
4.221364723500006
 20
33.841079780300021
 30
0.0
 11
-0.9786312282999992
 21
33.841079780300021
 31
0.0
  0
LINE
  5
758E
  8
0
 10
-0.9786312284000011
 20
39.105397864000011
 30
0.0
 11
4.2213647234000042
 21
39.105397864000011
 31
0.0
  0
LINE
  5
758F
  8
0
 10
-1.272230704999993
 20
39.367852719799998
 30
0.0
 11
4.5165257655999964
 21
39.367852719799998
 31
0.0
  0
LINE
  5
7590
  8
0
 10
4.253311494600001
 20
33.873029152500003
 30
0.0
 11
4.221364723500006
 21
33.841079780300021
 31
0.0
  0
LINE
  5
7591
  8
0
 10
4.253311494600001
 20
39.073448491699608
 30
0.0
 11
4.2213647235000469
 21
39.10539786409997
 31
0.0
  0
LINE
  5
7592
  8
0
 10
-0.978631228500003
 20
39.105397863799993
 30
0.0
 11
-1.010577999399995
 21
39.073448491799986
 31
0.0
  0
LINE
  5
7593
  8
0
 10
-1.0105779993005191
 20
33.873029152500003
 30
0.0
 11
-0.9786312282999992
 21
33.841079780300021
 31
0.0
  0
LINE
  5
7594
  8
0
 10
4.5165257655999964
 20
39.367852719799998
 30
0.0
 11
4.2373381090500324
 21
39.089423177899782
 31
0.0
  0
LINE
  5
7595
  8
0
 10
-1.272230704999993
 20
39.367852719799998
 30
0.0
 11
-0.9946046139499992
 21
39.089423177799993
 31
0.0
  0
LINE
  5
7596
  8
0
 10
-1.272230704999993
 20
33.578624924500019
 30
0.0
 11
-0.9946046138002591
 21
33.857054466400001
 31
0.0
  0
LINE
  5
7597
  8
0
 10
4.5165257655999964
 20
33.578624924500019
 30
0.0
 11
4.2373381090500031
 21
33.857054466400001
 31
0.0
  0
LINE
  5
7598
  8
0
 10
-1.2727383976999911
 20
27.358539759199999
 30
0.0
 11
-1.2727383976999911
 21
33.1477675545
 31
0.0
  0
LINE
  5
7599
  8
0
 10
-1.0110856920999911
 20
27.6529439872
 30
0.0
 11
-1.0110856920999911
 21
32.853363326500002
 31
0.0
  0
LINE
  5
759A
  8
0
 10
4.2528038019000043
 20
32.853363326500002
 30
0.0
 11
4.2528038019000043
 21
27.6529439872
 31
0.0
  0
LINE
  5
759B
  8
0
 10
4.5160180728999979
 20
33.1477675545
 30
0.0
 11
4.5160180728999979
 21
27.358539759199999
 31
0.0
  0
LINE
  5
759C
  8
0
 10
4.5160180728999979
 20
27.358539759199999
 30
0.0
 11
-1.2727383976999911
 21
27.358539759199999
 31
0.0
  0
LINE
  5
759D
  8
0
 10
4.2208570308000084
 20
27.620994615000001
 30
0.0
 11
-0.9791389209999968
 21
27.620994615000001
 31
0.0
  0
LINE
  5
759E
  8
0
 10
-0.9791389210999987
 20
32.885312698699991
 30
0.0
 11
4.2208570307000048
 21
32.885312698699991
 31
0.0
  0
LINE
  5
759F
  8
0
 10
-1.2727383976999911
 20
33.1477675545
 30
0.0
 11
4.5160180728999979
 21
33.1477675545
 31
0.0
  0
LINE
  5
75A0
  8
0
 10
4.2528038019000043
 20
27.6529439872
 30
0.0
 11
4.2208570308000084
 21
27.620994615000001
 31
0.0
  0
LINE
  5
75A1
  8
0
 10
4.2528038019000043
 20
32.853363326399602
 30
0.0
 11
4.2208570308000644
 21
32.88531269879995
 31
0.0
  0
LINE
  5
75A2
  8
0
 10
-0.9791389212000004
 20
32.885312698499988
 30
0.0
 11
-1.0110856920999911
 21
32.853363326500002
 31
0.0
  0
LINE
  5
75A3
  8
0
 10
-1.011085692000516
 20
27.6529439872
 30
0.0
 11
-0.9791389209999968
 21
27.620994615000001
 31
0.0
  0
LINE
  5
75A4
  8
0
 10
4.5160180728999979
 20
33.1477675545
 30
0.0
 11
4.236830416350033
 21
32.86933801259979
 31
0.0
  0
LINE
  5
75A5
  8
0
 10
-1.2727383976999911
 20
33.1477675545
 30
0.0
 11
-0.995112306649997
 21
32.869338012500002
 31
0.0
  0
LINE
  5
75A6
  8
0
 10
-1.2727383976999911
 20
27.358539759199999
 30
0.0
 11
-0.9951123065002571
 21
27.636969301099999
 31
0.0
  0
LINE
  5
75A7
  8
0
 10
4.5160180728999979
 20
27.358539759199999
 30
0.0
 11
4.2368304163500063
 21
27.636969301099999
 31
0.0
  0
LINE
  5
75A8
  8
0
 10
-7.4902321646499921
 20
27.358539759199999
 30
0.0
 11
-7.4902321646499921
 21
33.1477675545
 31
0.0
  0
LINE
  5
75A9
  8
0
 10
-7.2285794590499899
 20
27.6529439872
 30
0.0
 11
-7.2285794590499899
 21
32.853363326500002
 31
0.0
  0
LINE
  5
75AA
  8
0
 10
-1.964689965049994
 20
32.853363326500002
 30
0.0
 11
-1.964689965049994
 21
27.6529439872
 31
0.0
  0
LINE
  5
75AB
  8
0
 10
-1.7014756940499991
 20
33.1477675545
 30
0.0
 11
-1.7014756940499991
 21
27.358539759199999
 31
0.0
  0
LINE
  5
75AC
  8
0
 10
-1.7014756940499991
 20
27.358539759199999
 30
0.0
 11
-7.4902321646499921
 21
27.358539759199999
 31
0.0
  0
LINE
  5
75AD
  8
0
 10
-1.9966367361500039
 20
27.620994615000001
 30
0.0
 11
-7.1966326879499949
 21
27.620994615000001
 31
0.0
  0
LINE
  5
75AE
  8
0
 10
-7.1966326880499967
 20
32.885312698699991
 30
0.0
 11
-1.996636736249993
 21
32.885312698699991
 31
0.0
  0
LINE
  5
75AF
  8
0
 10
-7.4902321646499921
 20
33.1477675545
 30
0.0
 11
-1.7014756940499991
 21
33.1477675545
 31
0.0
  0
LINE
  5
75B0
  8
0
 10
-1.964689965049994
 20
27.6529439872
 30
0.0
 11
-1.9966367361500039
 21
27.620994615000001
 31
0.0
  0
LINE
  5
75B1
  8
0
 10
-1.964689965049994
 20
32.853363326399602
 30
0.0
 11
-1.996636736149948
 21
32.88531269879995
 31
0.0
  0
LINE
  5
75B2
  8
0
 10
-7.1966326881500002
 20
32.885312698499988
 30
0.0
 11
-7.2285794590499899
 21
32.853363326500002
 31
0.0
  0
LINE
  5
75B3
  8
0
 10
-7.2285794589505139
 20
27.6529439872
 30
0.0
 11
-7.1966326879499949
 21
27.620994615000001
 31
0.0
  0
LINE
  5
75B4
  8
0
 10
-1.7014756940499991
 20
33.1477675545
 30
0.0
 11
-1.980663350599964
 21
32.86933801259979
 31
0.0
  0
LINE
  5
75B5
  8
0
 10
-7.4902321646499921
 20
33.1477675545
 30
0.0
 11
-7.2126060735999964
 21
32.869338012500002
 31
0.0
  0
LINE
  5
75B6
  8
0
 10
-7.4902321646499921
 20
27.358539759199999
 30
0.0
 11
-7.2126060734502699
 21
27.636969301099999
 31
0.0
  0
LINE
  5
75B7
  8
0
 10
-1.7014756940499991
 20
27.358539759199999
 30
0.0
 11
-1.980663350599992
 21
27.636969301099999
 31
0.0
  0
LINE
  5
75B8
  8
0
 10
-13.707725932149989
 20
27.358539759199999
 30
0.0
 11
-13.707725932149989
 21
33.1477675545
 31
0.0
  0
LINE
  5
75B9
  8
0
 10
-13.44607322654999
 20
27.6529439872
 30
0.0
 11
-13.44607322654999
 21
32.853363326500002
 31
0.0
  0
LINE
  5
75BA
  8
0
 10
-8.1821837325499942
 20
32.853363326500002
 30
0.0
 11
-8.1821837325499942
 21
27.6529439872
 31
0.0
  0
LINE
  5
75BB
  8
0
 10
-7.9189694615500006
 20
33.1477675545
 30
0.0
 11
-7.9189694615500006
 21
27.358539759199999
 31
0.0
  0
LINE
  5
75BC
  8
0
 10
-7.9189694615500006
 20
27.358539759199999
 30
0.0
 11
-13.707725932149989
 21
27.358539759199999
 31
0.0
  0
LINE
  5
75BD
  8
0
 10
-8.2141305036499936
 20
27.620994615000001
 30
0.0
 11
-13.414126455450001
 21
27.620994615000001
 31
0.0
  0
LINE
  5
75BE
  8
0
 10
-13.414126455550001
 20
32.885312698699991
 30
0.0
 11
-8.2141305037499954
 21
32.885312698699991
 31
0.0
  0
LINE
  5
75BF
  8
0
 10
-13.707725932149989
 20
33.1477675545
 30
0.0
 11
-7.9189694615500006
 21
33.1477675545
 31
0.0
  0
LINE
  5
75C0
  8
0
 10
-8.1821837325499942
 20
27.6529439872
 30
0.0
 11
-8.2141305036499936
 21
27.620994615000001
 31
0.0
  0
LINE
  5
75C1
  8
0
 10
-8.1821837325499942
 20
32.853363326399602
 30
0.0
 11
-8.214130503649951
 21
32.88531269879995
 31
0.0
  0
LINE
  5
75C2
  8
0
 10
-13.414126455650001
 20
32.885312698499988
 30
0.0
 11
-13.44607322654999
 21
32.853363326500002
 31
0.0
  0
LINE
  5
75C3
  8
0
 10
-13.446073226450521
 20
27.6529439872
 30
0.0
 11
-13.414126455450001
 21
27.620994615000001
 31
0.0
  0
LINE
  5
75C4
  8
0
 10
-7.9189694615500006
 20
33.1477675545
 30
0.0
 11
-8.1981571180999673
 21
32.86933801259979
 31
0.0
  0
LINE
  5
75C5
  8
0
 10
-13.707725932149989
 20
33.1477675545
 30
0.0
 11
-13.430099841100001
 21
32.869338012500002
 31
0.0
  0
LINE
  5
75C6
  8
0
 10
-13.707725932149989
 20
27.358539759199999
 30
0.0
 11
-13.430099840950261
 21
27.636969301099999
 31
0.0
  0
LINE
  5
75C7
  8
0
 10
-7.9189694615500006
 20
27.358539759199999
 30
0.0
 11
-8.1981571180999957
 21
27.636969301099999
 31
0.0
  0
LINE
  5
75C8
  8
0
 10
-13.707725932149989
 20
21.140539759199999
 30
0.0
 11
-13.707725932149989
 21
26.9297675545
 31
0.0
  0
LINE
  5
75C9
  8
0
 10
-13.44607322654999
 20
21.43494398719999
 30
0.0
 11
-13.44607322654999
 21
26.635363326499991
 31
0.0
  0
LINE
  5
75CA
  8
0
 10
-8.1821837325499942
 20
26.635363326499991
 30
0.0
 11
-8.1821837325499942
 21
21.43494398719999
 31
0.0
  0
LINE
  5
75CB
  8
0
 10
-7.9189694615500006
 20
26.9297675545
 30
0.0
 11
-7.9189694615500006
 21
21.140539759199999
 31
0.0
  0
LINE
  5
75CC
  8
0
 10
-7.9189694615500006
 20
21.140539759199999
 30
0.0
 11
-13.707725932149989
 21
21.140539759199999
 31
0.0
  0
LINE
  5
75CD
  8
0
 10
-8.2141305036499936
 20
21.402994615000001
 30
0.0
 11
-13.414126455450001
 21
21.402994615000001
 31
0.0
  0
LINE
  5
75CE
  8
0
 10
-13.414126455550001
 20
26.667312698700002
 30
0.0
 11
-8.2141305037499954
 21
26.667312698700002
 31
0.0
  0
LINE
  5
75CF
  8
0
 10
-13.707725932149989
 20
26.9297675545
 30
0.0
 11
-7.9189694615500006
 21
26.9297675545
 31
0.0
  0
LINE
  5
75D0
  8
0
 10
-8.1821837325499942
 20
21.43494398719999
 30
0.0
 11
-8.2141305036499936
 21
21.402994615000001
 31
0.0
  0
LINE
  5
75D1
  8
0
 10
-8.1821837325499942
 20
26.635363326399609
 30
0.0
 11
-8.214130503649951
 21
26.667312698799961
 31
0.0
  0
LINE
  5
75D2
  8
0
 10
-13.414126455650001
 20
26.667312698499991
 30
0.0
 11
-13.44607322654999
 21
26.635363326499991
 31
0.0
  0
LINE
  5
75D3
  8
0
 10
-13.446073226450521
 20
21.43494398719999
 30
0.0
 11
-13.414126455450001
 21
21.402994615000001
 31
0.0
  0
LINE
  5
75D4
  8
0
 10
-7.9189694615500006
 20
26.9297675545
 30
0.0
 11
-8.1981571180999673
 21
26.651338012599769
 31
0.0
  0
LINE
  5
75D5
  8
0
 10
-13.707725932149989
 20
26.9297675545
 30
0.0
 11
-13.430099841100001
 21
26.651338012499991
 31
0.0
  0
LINE
  5
75D6
  8
0
 10
-13.707725932149989
 20
21.140539759199999
 30
0.0
 11
-13.430099840950261
 21
21.418969301099999
 31
0.0
  0
LINE
  5
75D7
  8
0
 10
-7.9189694615500006
 20
21.140539759199999
 30
0.0
 11
-8.1981571180999957
 21
21.418969301099999
 31
0.0
  0
LINE
  5
75D8
  8
0
 10
-7.48972447209999
 20
21.142624924500002
 30
0.0
 11
-7.48972447209999
 21
26.931852719799998
 31
0.0
  0
LINE
  5
75D9
  8
0
 10
-7.2280717664999878
 20
21.437029152499999
 30
0.0
 11
-7.2280717664999878
 21
26.63744849179999
 31
0.0
  0
LINE
  5
75DA
  8
0
 10
-1.964182272499992
 20
26.63744849179999
 30
0.0
 11
-1.964182272499992
 21
21.437029152499999
 31
0.0
  0
LINE
  5
75DB
  8
0
 10
-1.7009680014999971
 20
26.931852719799998
 30
0.0
 11
-1.7009680014999971
 21
21.142624924500002
 31
0.0
  0
LINE
  5
75DC
  8
0
 10
-1.7009680014999971
 20
21.142624924500002
 30
0.0
 11
-7.48972447209999
 21
21.142624924500002
 31
0.0
  0
LINE
  5
75DD
  8
0
 10
-1.996129043600003
 20
21.405079780299999
 30
0.0
 11
-7.1961249953999928
 21
21.405079780299999
 31
0.0
  0
LINE
  5
75DE
  8
0
 10
-7.1961249954999964
 20
26.669397864
 30
0.0
 11
-1.996129043699991
 21
26.669397864
 31
0.0
  0
LINE
  5
75DF
  8
0
 10
-7.48972447209999
 20
26.931852719799998
 30
0.0
 11
-1.7009680014999971
 21
26.931852719799998
 31
0.0
  0
LINE
  5
75E0
  8
0
 10
-1.964182272499992
 20
21.437029152499999
 30
0.0
 11
-1.996129043600003
 21
21.405079780299999
 31
0.0
  0
LINE
  5
75E1
  8
0
 10
-1.964182272499992
 20
26.637448491699601
 30
0.0
 11
-1.996129043599945
 21
26.66939786409996
 31
0.0
  0
LINE
  5
75E2
  8
0
 10
-7.1961249955999982
 20
26.66939786379999
 30
0.0
 11
-7.2280717664999878
 21
26.63744849179999
 31
0.0
  0
LINE
  5
75E3
  8
0
 10
-7.2280717664005127
 20
21.437029152499999
 30
0.0
 11
-7.1961249953999928
 21
21.405079780299999
 31
0.0
  0
LINE
  5
75E4
  8
0
 10
-1.7009680014999971
 20
26.931852719799998
 30
0.0
 11
-1.9801556580499611
 21
26.653423177899779
 31
0.0
  0
LINE
  5
75E5
  8
0
 10
-7.48972447209999
 20
26.931852719799998
 30
0.0
 11
-7.2120983810499926
 21
26.65342317779999
 31
0.0
  0
LINE
  5
75E6
  8
0
 10
-7.48972447209999
 20
21.142624924500002
 30
0.0
 11
-7.2120983809002679
 21
21.421054466400001
 31
0.0
  0
LINE
  5
75E7
  8
0
 10
-1.7009680014999971
 20
21.142624924500002
 30
0.0
 11
-1.9801556580499911
 21
21.421054466400001
 31
0.0
  0
LINE
  5
75E8
  8
0
 10
-1.272230704999993
 20
21.142624924500002
 30
0.0
 11
-1.272230704999993
 21
26.931852719799998
 31
0.0
  0
LINE
  5
75E9
  8
0
 10
-1.010577999399995
 20
21.437029152499999
 30
0.0
 11
-1.010577999399995
 21
26.63744849179999
 31
0.0
  0
LINE
  5
75EA
  8
0
 10
4.253311494600001
 20
26.63744849179999
 30
0.0
 11
4.253311494600001
 21
21.437029152499999
 31
0.0
  0
LINE
  5
75EB
  8
0
 10
4.5165257655999964
 20
26.931852719799998
 30
0.0
 11
4.5165257655999964
 21
21.142624924500002
 31
0.0
  0
LINE
  5
75EC
  8
0
 10
4.5165257655999964
 20
21.142624924500002
 30
0.0
 11
-1.272230704999993
 21
21.142624924500002
 31
0.0
  0
LINE
  5
75ED
  8
0
 10
4.221364723500006
 20
21.405079780299999
 30
0.0
 11
-0.9786312282999992
 21
21.405079780299999
 31
0.0
  0
LINE
  5
75EE
  8
0
 10
-0.9786312284000011
 20
26.669397864
 30
0.0
 11
4.2213647234000042
 21
26.669397864
 31
0.0
  0
LINE
  5
75EF
  8
0
 10
-1.272230704999993
 20
26.931852719799998
 30
0.0
 11
4.5165257655999964
 21
26.931852719799998
 31
0.0
  0
LINE
  5
75F0
  8
0
 10
4.253311494600001
 20
21.437029152499999
 30
0.0
 11
4.221364723500006
 21
21.405079780299999
 31
0.0
  0
LINE
  5
75F1
  8
0
 10
4.253311494600001
 20
26.637448491699601
 30
0.0
 11
4.2213647235000469
 21
26.66939786409996
 31
0.0
  0
LINE
  5
75F2
  8
0
 10
-0.978631228500003
 20
26.66939786379999
 30
0.0
 11
-1.010577999399995
 21
26.63744849179999
 31
0.0
  0
LINE
  5
75F3
  8
0
 10
-1.0105779993005191
 20
21.437029152499999
 30
0.0
 11
-0.9786312282999992
 21
21.405079780299999
 31
0.0
  0
LINE
  5
75F4
  8
0
 10
4.5165257655999964
 20
26.931852719799998
 30
0.0
 11
4.2373381090500324
 21
26.653423177899779
 31
0.0
  0
LINE
  5
75F5
  8
0
 10
-1.272230704999993
 20
26.931852719799998
 30
0.0
 11
-0.9946046139499992
 21
26.65342317779999
 31
0.0
  0
LINE
  5
75F6
  8
0
 10
-1.272230704999993
 20
21.142624924500002
 30
0.0
 11
-0.9946046138002591
 21
21.421054466400001
 31
0.0
  0
LINE
  5
75F7
  8
0
 10
4.5165257655999964
 20
21.142624924500002
 30
0.0
 11
4.2373381090500031
 21
21.421054466400001
 31
0.0
  0
LINE
  5
75F8
  8
0
 10
-1.272230704999993
 20
14.924624924499989
 30
0.0
 11
-1.272230704999993
 21
20.713852719799998
 31
0.0
  0
LINE
  5
75F9
  8
0
 10
-1.010577999399995
 20
15.219029152499999
 30
0.0
 11
-1.010577999399995
 21
20.419448491800001
 31
0.0
  0
LINE
  5
75FA
  8
0
 10
4.253311494600001
 20
20.419448491800001
 30
0.0
 11
4.253311494600001
 21
15.219029152499999
 31
0.0
  0
LINE
  5
75FB
  8
0
 10
4.5165257655999964
 20
20.713852719799998
 30
0.0
 11
4.5165257655999964
 21
14.924624924499989
 31
0.0
  0
LINE
  5
75FC
  8
0
 10
4.5165257655999964
 20
14.924624924499989
 30
0.0
 11
-1.272230704999993
 21
14.924624924499989
 31
0.0
  0
LINE
  5
75FD
  8
0
 10
4.221364723500006
 20
15.187079780299991
 30
0.0
 11
-0.9786312282999992
 21
15.187079780299991
 31
0.0
  0
LINE
  5
75FE
  8
0
 10
-0.9786312284000011
 20
20.451397864
 30
0.0
 11
4.2213647234000042
 21
20.451397864
 31
0.0
  0
LINE
  5
75FF
  8
0
 10
-1.272230704999993
 20
20.713852719799998
 30
0.0
 11
4.5165257655999964
 21
20.713852719799998
 31
0.0
  0
LINE
  5
7600
  8
0
 10
4.253311494600001
 20
15.219029152499999
 30
0.0
 11
4.221364723500006
 21
15.187079780299991
 31
0.0
  0
LINE
  5
7601
  8
0
 10
4.253311494600001
 20
20.419448491699601
 30
0.0
 11
4.2213647235000469
 21
20.45139786409996
 31
0.0
  0
LINE
  5
7602
  8
0
 10
-0.978631228500003
 20
20.4513978638
 30
0.0
 11
-1.010577999399995
 21
20.419448491800001
 31
0.0
  0
LINE
  5
7603
  8
0
 10
-1.0105779993005191
 20
15.219029152499999
 30
0.0
 11
-0.9786312282999992
 21
15.187079780299991
 31
0.0
  0
LINE
  5
7604
  8
0
 10
4.5165257655999964
 20
20.713852719799998
 30
0.0
 11
4.2373381090500324
 21
20.435423177899771
 31
0.0
  0
LINE
  5
7605
  8
0
 10
-1.272230704999993
 20
20.713852719799998
 30
0.0
 11
-0.9946046139499992
 21
20.43542317779999
 31
0.0
  0
LINE
  5
7606
  8
0
 10
-1.272230704999993
 20
14.924624924499989
 30
0.0
 11
-0.9946046138002591
 21
15.203054466399999
 31
0.0
  0
LINE
  5
7607
  8
0
 10
4.5165257655999964
 20
14.924624924499989
 30
0.0
 11
4.2373381090500031
 21
15.203054466399999
 31
0.0
  0
LINE
  5
7608
  8
0
 10
-7.4902321646499921
 20
14.92253975919999
 30
0.0
 11
-7.4902321646499921
 21
20.7117675545
 31
0.0
  0
LINE
  5
7609
  8
0
 10
-7.2285794590499899
 20
15.216943987200001
 30
0.0
 11
-7.2285794590499899
 21
20.417363326499999
 31
0.0
  0
LINE
  5
760A
  8
0
 10
-1.964689965049994
 20
20.417363326499999
 30
0.0
 11
-1.964689965049994
 21
15.216943987200001
 31
0.0
  0
LINE
  5
760B
  8
0
 10
-1.7014756940499991
 20
20.7117675545
 30
0.0
 11
-1.7014756940499991
 21
14.92253975919999
 31
0.0
  0
LINE
  5
760C
  8
0
 10
-1.7014756940499991
 20
14.92253975919999
 30
0.0
 11
-7.4902321646499921
 21
14.92253975919999
 31
0.0
  0
LINE
  5
760D
  8
0
 10
-1.9966367361500039
 20
15.18499461499999
 30
0.0
 11
-7.1966326879499949
 21
15.18499461499999
 31
0.0
  0
LINE
  5
760E
  8
0
 10
-7.1966326880499967
 20
20.449312698699998
 30
0.0
 11
-1.996636736249993
 21
20.449312698699998
 31
0.0
  0
LINE
  5
760F
  8
0
 10
-7.4902321646499921
 20
20.7117675545
 30
0.0
 11
-1.7014756940499991
 21
20.7117675545
 31
0.0
  0
LINE
  5
7610
  8
0
 10
-1.964689965049994
 20
15.216943987200001
 30
0.0
 11
-1.9966367361500039
 21
15.18499461499999
 31
0.0
  0
LINE
  5
7611
  8
0
 10
-1.964689965049994
 20
20.417363326399599
 30
0.0
 11
-1.996636736149948
 21
20.449312698799961
 31
0.0
  0
LINE
  5
7612
  8
0
 10
-7.1966326881500002
 20
20.449312698500002
 30
0.0
 11
-7.2285794590499899
 21
20.417363326499999
 31
0.0
  0
LINE
  5
7613
  8
0
 10
-7.2285794589505139
 20
15.216943987200001
 30
0.0
 11
-7.1966326879499949
 21
15.18499461499999
 31
0.0
  0
LINE
  5
7614
  8
0
 10
-1.7014756940499991
 20
20.7117675545
 30
0.0
 11
-1.980663350599964
 21
20.433338012599769
 31
0.0
  0
LINE
  5
7615
  8
0
 10
-7.4902321646499921
 20
20.7117675545
 30
0.0
 11
-7.2126060735999964
 21
20.433338012499991
 31
0.0
  0
LINE
  5
7616
  8
0
 10
-7.4902321646499921
 20
14.92253975919999
 30
0.0
 11
-7.2126060734502699
 21
15.200969301100001
 31
0.0
  0
LINE
  5
7617
  8
0
 10
-1.7014756940499991
 20
14.92253975919999
 30
0.0
 11
-1.980663350599992
 21
15.200969301100001
 31
0.0
  0
LINE
  5
7618
  8
0
 10
-13.707725932149989
 20
14.92253975919999
 30
0.0
 11
-13.707725932149989
 21
20.7117675545
 31
0.0
  0
LINE
  5
7619
  8
0
 10
-13.44607322654999
 20
15.216943987200001
 30
0.0
 11
-13.44607322654999
 21
20.417363326499999
 31
0.0
  0
LINE
  5
761A
  8
0
 10
-8.1821837325499942
 20
20.417363326499999
 30
0.0
 11
-8.1821837325499942
 21
15.216943987200001
 31
0.0
  0
LINE
  5
761B
  8
0
 10
-7.9189694615500006
 20
20.7117675545
 30
0.0
 11
-7.9189694615500006
 21
14.92253975919999
 31
0.0
  0
LINE
  5
761C
  8
0
 10
-7.9189694615500006
 20
14.92253975919999
 30
0.0
 11
-13.707725932149989
 21
14.92253975919999
 31
0.0
  0
LINE
  5
761D
  8
0
 10
-8.2141305036499936
 20
15.18499461499999
 30
0.0
 11
-13.414126455450001
 21
15.18499461499999
 31
0.0
  0
LINE
  5
761E
  8
0
 10
-13.414126455550001
 20
20.449312698699998
 30
0.0
 11
-8.2141305037499954
 21
20.449312698699998
 31
0.0
  0
LINE
  5
761F
  8
0
 10
-13.707725932149989
 20
20.7117675545
 30
0.0
 11
-7.9189694615500006
 21
20.7117675545
 31
0.0
  0
LINE
  5
7620
  8
0
 10
-8.1821837325499942
 20
15.216943987200001
 30
0.0
 11
-8.2141305036499936
 21
15.18499461499999
 31
0.0
  0
LINE
  5
7621
  8
0
 10
-8.1821837325499942
 20
20.417363326399599
 30
0.0
 11
-8.214130503649951
 21
20.449312698799961
 31
0.0
  0
LINE
  5
7622
  8
0
 10
-13.414126455650001
 20
20.449312698500002
 30
0.0
 11
-13.44607322654999
 21
20.417363326499999
 31
0.0
  0
LINE
  5
7623
  8
0
 10
-13.446073226450521
 20
15.216943987200001
 30
0.0
 11
-13.414126455450001
 21
15.18499461499999
 31
0.0
  0
LINE
  5
7624
  8
0
 10
-7.9189694615500006
 20
20.7117675545
 30
0.0
 11
-8.1981571180999673
 21
20.433338012599769
 31
0.0
  0
LINE
  5
7625
  8
0
 10
-13.707725932149989
 20
20.7117675545
 30
0.0
 11
-13.430099841100001
 21
20.433338012499991
 31
0.0
  0
LINE
  5
7626
  8
0
 10
-13.707725932149989
 20
14.92253975919999
 30
0.0
 11
-13.430099840950261
 21
15.200969301100001
 31
0.0
  0
LINE
  5
7627
  8
0
 10
-7.9189694615500006
 20
14.92253975919999
 30
0.0
 11
-8.1981571180999957
 21
15.200969301100001
 31
0.0
  0
LINE
  5
7628
  8
0
 10
-13.707218239299999
 20
8.7066249244999963
 30
0.0
 11
-13.707218239299999
 21
14.4958527198
 31
0.0
  0
LINE
  5
7629
  8
0
 10
-13.4455655337
 20
9.0010291524999957
 30
0.0
 11
-13.4455655337
 21
14.20144849179999
 31
0.0
  0
LINE
  5
762A
  8
0
 10
-8.1816760396999904
 20
14.20144849179999
 30
0.0
 11
-8.1816760396999904
 21
9.0010291524999957
 31
0.0
  0
LINE
  5
762B
  8
0
 10
-7.9184617686999932
 20
14.4958527198
 30
0.0
 11
-7.9184617686999932
 21
8.7066249244999963
 31
0.0
  0
LINE
  5
762C
  8
0
 10
-7.9184617686999932
 20
8.7066249244999963
 30
0.0
 11
-13.707218239299999
 21
8.7066249244999963
 31
0.0
  0
LINE
  5
762D
  8
0
 10
-8.2136228108000005
 20
8.9690797802999978
 30
0.0
 11
-13.413618762600001
 21
8.9690797802999978
 31
0.0
  0
LINE
  5
762E
  8
0
 10
-13.41361876269999
 20
14.23339786399999
 30
0.0
 11
-8.2136228109000022
 21
14.23339786399999
 31
0.0
  0
LINE
  5
762F
  8
0
 10
-13.707218239299999
 20
14.4958527198
 30
0.0
 11
-7.9184617686999932
 21
14.4958527198
 31
0.0
  0
LINE
  5
7630
  8
0
 10
-8.1816760396999904
 20
9.0010291524999957
 30
0.0
 11
-8.2136228108000005
 21
8.9690797802999978
 31
0.0
  0
LINE
  5
7631
  8
0
 10
-8.1816760396999904
 20
14.201448491699599
 30
0.0
 11
-8.2136228107999418
 21
14.233397864099951
 31
0.0
  0
LINE
  5
7632
  8
0
 10
-13.41361876279999
 20
14.23339786379999
 30
0.0
 11
-13.4455655337
 21
14.20144849179999
 31
0.0
  0
LINE
  5
7633
  8
0
 10
-13.44556553360052
 20
9.0010291524999957
 30
0.0
 11
-13.413618762600001
 21
8.9690797802999978
 31
0.0
  0
LINE
  5
7634
  8
0
 10
-7.9184617686999932
 20
14.4958527198
 30
0.0
 11
-8.1976494252499741
 21
14.21742317789977
 31
0.0
  0
LINE
  5
7635
  8
0
 10
-13.707218239299999
 20
14.4958527198
 30
0.0
 11
-13.42959214825
 21
14.21742317779999
 31
0.0
  0
LINE
  5
7636
  8
0
 10
-13.707218239299999
 20
8.7066249244999963
 30
0.0
 11
-13.42959214810026
 21
8.9850544664000012
 31
0.0
  0
LINE
  5
7637
  8
0
 10
-7.9184617686999932
 20
8.7066249244999963
 30
0.0
 11
-8.1976494252500007
 21
8.9850544664000012
 31
0.0
  0
LINE
  5
7638
  8
0
 10
-7.48972447209999
 20
8.7066249244999963
 30
0.0
 11
-7.48972447209999
 21
14.4958527198
 31
0.0
  0
LINE
  5
7639
  8
0
 10
-7.2280717664999878
 20
9.0010291524999957
 30
0.0
 11
-7.2280717664999878
 21
14.20144849179999
 31
0.0
  0
LINE
  5
763A
  8
0
 10
-1.964182272499992
 20
14.20144849179999
 30
0.0
 11
-1.964182272499992
 21
9.0010291524999957
 31
0.0
  0
LINE
  5
763B
  8
0
 10
-1.7009680014999971
 20
14.4958527198
 30
0.0
 11
-1.7009680014999971
 21
8.7066249244999963
 31
0.0
  0
LINE
  5
763C
  8
0
 10
-1.7009680014999971
 20
8.7066249244999963
 30
0.0
 11
-7.48972447209999
 21
8.7066249244999963
 31
0.0
  0
LINE
  5
763D
  8
0
 10
-1.996129043600003
 20
8.9690797802999978
 30
0.0
 11
-7.1961249953999928
 21
8.9690797802999978
 31
0.0
  0
LINE
  5
763E
  8
0
 10
-7.1961249954999964
 20
14.23339786399999
 30
0.0
 11
-1.996129043699991
 21
14.23339786399999
 31
0.0
  0
LINE
  5
763F
  8
0
 10
-7.48972447209999
 20
14.4958527198
 30
0.0
 11
-1.7009680014999971
 21
14.4958527198
 31
0.0
  0
LINE
  5
7640
  8
0
 10
-1.964182272499992
 20
9.0010291524999957
 30
0.0
 11
-1.996129043600003
 21
8.9690797802999978
 31
0.0
  0
LINE
  5
7641
  8
0
 10
-1.964182272499992
 20
14.201448491699599
 30
0.0
 11
-1.996129043599945
 21
14.233397864099951
 31
0.0
  0
LINE
  5
7642
  8
0
 10
-7.1961249955999982
 20
14.23339786379999
 30
0.0
 11
-7.2280717664999878
 21
14.20144849179999
 31
0.0
  0
LINE
  5
7643
  8
0
 10
-7.2280717664005127
 20
9.0010291524999957
 30
0.0
 11
-7.1961249953999928
 21
8.9690797802999978
 31
0.0
  0
LINE
  5
7644
  8
0
 10
-1.7009680014999971
 20
14.4958527198
 30
0.0
 11
-1.9801556580499611
 21
14.21742317789977
 31
0.0
  0
LINE
  5
7645
  8
0
 10
-7.48972447209999
 20
14.4958527198
 30
0.0
 11
-7.2120983810499926
 21
14.21742317779999
 31
0.0
  0
LINE
  5
7646
  8
0
 10
-7.48972447209999
 20
8.7066249244999963
 30
0.0
 11
-7.2120983809002679
 21
8.9850544664000012
 31
0.0
  0
LINE
  5
7647
  8
0
 10
-1.7009680014999971
 20
8.7066249244999963
 30
0.0
 11
-1.9801556580499911
 21
8.9850544664000012
 31
0.0
  0
LINE
  5
7648
  8
0
 10
-1.272230704999993
 20
8.7066249244999963
 30
0.0
 11
-1.272230704999993
 21
14.4958527198
 31
0.0
  0
LINE
  5
7649
  8
0
 10
-1.010577999399995
 20
9.0010291524999957
 30
0.0
 11
-1.010577999399995
 21
14.20144849179999
 31
0.0
  0
LINE
  5
764A
  8
0
 10
4.253311494600001
 20
14.20144849179999
 30
0.0
 11
4.253311494600001
 21
9.0010291524999957
 31
0.0
  0
LINE
  5
764B
  8
0
 10
4.5165257655999964
 20
14.4958527198
 30
0.0
 11
4.5165257655999964
 21
8.7066249244999963
 31
0.0
  0
LINE
  5
764C
  8
0
 10
4.5165257655999964
 20
8.7066249244999963
 30
0.0
 11
-1.272230704999993
 21
8.7066249244999963
 31
0.0
  0
LINE
  5
764D
  8
0
 10
4.221364723500006
 20
8.9690797802999978
 30
0.0
 11
-0.9786312282999992
 21
8.9690797802999978
 31
0.0
  0
LINE
  5
764E
  8
0
 10
-0.9786312284000011
 20
14.23339786399999
 30
0.0
 11
4.2213647234000042
 21
14.23339786399999
 31
0.0
  0
LINE
  5
764F
  8
0
 10
-1.272230704999993
 20
14.4958527198
 30
0.0
 11
4.5165257655999964
 21
14.4958527198
 31
0.0
  0
LINE
  5
7650
  8
0
 10
4.253311494600001
 20
9.0010291524999957
 30
0.0
 11
4.221364723500006
 21
8.9690797802999978
 31
0.0
  0
LINE
  5
7651
  8
0
 10
4.253311494600001
 20
14.201448491699599
 30
0.0
 11
4.2213647235000469
 21
14.233397864099951
 31
0.0
  0
LINE
  5
7652
  8
0
 10
-0.978631228500003
 20
14.23339786379999
 30
0.0
 11
-1.010577999399995
 21
14.20144849179999
 31
0.0
  0
LINE
  5
7653
  8
0
 10
-1.0105779993005191
 20
9.0010291524999957
 30
0.0
 11
-0.9786312282999992
 21
8.9690797802999978
 31
0.0
  0
LINE
  5
7654
  8
0
 10
4.5165257655999964
 20
14.4958527198
 30
0.0
 11
4.2373381090500324
 21
14.21742317789977
 31
0.0
  0
LINE
  5
7655
  8
0
 10
-1.272230704999993
 20
14.4958527198
 30
0.0
 11
-0.9946046139499992
 21
14.21742317779999
 31
0.0
  0
LINE
  5
7656
  8
0
 10
-1.272230704999993
 20
8.7066249244999963
 30
0.0
 11
-0.9946046138002591
 21
8.9850544664000012
 31
0.0
  0
LINE
  5
7657
  8
0
 10
4.5165257655999964
 20
8.7066249244999963
 30
0.0
 11
4.2373381090500031
 21
8.9850544664000012
 31
0.0
  0
LINE
  5
7658
  8
0
 10
-1.2727383976999911
 20
2.486539759199998
 30
0.0
 11
-1.2727383976999911
 21
8.2757675544999927
 31
0.0
  0
LINE
  5
7659
  8
0
 10
-1.0110856920999911
 20
2.780943987199989
 30
0.0
 11
-1.0110856920999911
 21
7.981363326499987
 31
0.0
  0
LINE
  5
765A
  8
0
 10
4.2528038019000043
 20
7.981363326499987
 30
0.0
 11
4.2528038019000043
 21
2.780943987199989
 31
0.0
  0
LINE
  5
765B
  8
0
 10
4.5160180728999979
 20
8.2757675544999927
 30
0.0
 11
4.5160180728999979
 21
2.486539759199998
 31
0.0
  0
LINE
  5
765C
  8
0
 10
4.5160180728999979
 20
2.486539759199998
 30
0.0
 11
-1.2727383976999911
 21
2.486539759199998
 31
0.0
  0
LINE
  5
765D
  8
0
 10
4.2208570308000084
 20
2.7489946149999991
 30
0.0
 11
-0.9791389209999968
 21
2.7489946149999991
 31
0.0
  0
LINE
  5
765E
  8
0
 10
-0.9791389210999987
 20
8.0133126986999912
 30
0.0
 11
4.2208570307000048
 21
8.0133126986999912
 31
0.0
  0
LINE
  5
765F
  8
0
 10
-1.2727383976999911
 20
8.2757675544999927
 30
0.0
 11
4.5160180728999979
 21
8.2757675544999927
 31
0.0
  0
LINE
  5
7660
  8
0
 10
4.2528038019000043
 20
2.780943987199989
 30
0.0
 11
4.2208570308000084
 21
2.7489946149999991
 31
0.0
  0
LINE
  5
7661
  8
0
 10
4.2528038019000043
 20
7.9813633263996007
 30
0.0
 11
4.2208570308000644
 21
8.0133126987999503
 31
0.0
  0
LINE
  5
7662
  8
0
 10
-0.9791389212000004
 20
8.0133126984999876
 30
0.0
 11
-1.0110856920999911
 21
7.981363326499987
 31
0.0
  0
LINE
  5
7663
  8
0
 10
-1.011085692000516
 20
2.780943987199989
 30
0.0
 11
-0.9791389209999968
 21
2.7489946149999991
 31
0.0
  0
LINE
  5
7664
  8
0
 10
4.5160180728999979
 20
8.2757675544999927
 30
0.0
 11
4.236830416350033
 21
7.9973380125997693
 31
0.0
  0
LINE
  5
7665
  8
0
 10
-1.2727383976999911
 20
8.2757675544999927
 30
0.0
 11
-0.995112306649997
 21
7.9973380124999931
 31
0.0
  0
LINE
  5
7666
  8
0
 10
-1.2727383976999911
 20
2.486539759199998
 30
0.0
 11
-0.9951123065002571
 21
2.7649693010999941
 31
0.0
  0
LINE
  5
7667
  8
0
 10
4.5160180728999979
 20
2.486539759199998
 30
0.0
 11
4.2368304163500063
 21
2.7649693010999941
 31
0.0
  0
LINE
  5
7668
  8
0
 10
-7.4902321646499921
 20
2.486539759199998
 30
0.0
 11
-7.4902321646499921
 21
8.2757675544999927
 31
0.0
  0
LINE
  5
7669
  8
0
 10
-7.2285794590499899
 20
2.780943987199989
 30
0.0
 11
-7.2285794590499899
 21
7.981363326499987
 31
0.0
  0
LINE
  5
766A
  8
0
 10
-1.964689965049994
 20
7.981363326499987
 30
0.0
 11
-1.964689965049994
 21
2.780943987199989
 31
0.0
  0
LINE
  5
766B
  8
0
 10
-1.7014756940499991
 20
8.2757675544999927
 30
0.0
 11
-1.7014756940499991
 21
2.486539759199998
 31
0.0
  0
LINE
  5
766C
  8
0
 10
-1.7014756940499991
 20
2.486539759199998
 30
0.0
 11
-7.4902321646499921
 21
2.486539759199998
 31
0.0
  0
LINE
  5
766D
  8
0
 10
-1.9966367361500039
 20
2.7489946149999991
 30
0.0
 11
-7.1966326879499949
 21
2.7489946149999991
 31
0.0
  0
LINE
  5
766E
  8
0
 10
-7.1966326880499967
 20
8.0133126986999912
 30
0.0
 11
-1.996636736249993
 21
8.0133126986999912
 31
0.0
  0
LINE
  5
766F
  8
0
 10
-7.4902321646499921
 20
8.2757675544999927
 30
0.0
 11
-1.7014756940499991
 21
8.2757675544999927
 31
0.0
  0
LINE
  5
7670
  8
0
 10
-1.964689965049994
 20
2.780943987199989
 30
0.0
 11
-1.9966367361500039
 21
2.7489946149999991
 31
0.0
  0
LINE
  5
7671
  8
0
 10
-1.964689965049994
 20
7.9813633263996007
 30
0.0
 11
-1.996636736149948
 21
8.0133126987999503
 31
0.0
  0
LINE
  5
7672
  8
0
 10
-7.1966326881500002
 20
8.0133126984999876
 30
0.0
 11
-7.2285794590499899
 21
7.981363326499987
 31
0.0
  0
LINE
  5
7673
  8
0
 10
-7.2285794589505139
 20
2.780943987199989
 30
0.0
 11
-7.1966326879499949
 21
2.7489946149999991
 31
0.0
  0
LINE
  5
7674
  8
0
 10
-1.7014756940499991
 20
8.2757675544999927
 30
0.0
 11
-1.980663350599964
 21
7.9973380125997693
 31
0.0
  0
LINE
  5
7675
  8
0
 10
-7.4902321646499921
 20
8.2757675544999927
 30
0.0
 11
-7.2126060735999964
 21
7.9973380124999931
 31
0.0
  0
LINE
  5
7676
  8
0
 10
-7.4902321646499921
 20
2.486539759199998
 30
0.0
 11
-7.2126060734502699
 21
2.7649693010999941
 31
0.0
  0
LINE
  5
7677
  8
0
 10
-1.7014756940499991
 20
2.486539759199998
 30
0.0
 11
-1.980663350599992
 21
2.7649693010999941
 31
0.0
  0
LINE
  5
7678
  8
0
 10
-13.707725932149989
 20
2.486539759199998
 30
0.0
 11
-13.707725932149989
 21
8.2757675544999927
 31
0.0
  0
LINE
  5
7679
  8
0
 10
-13.44607322654999
 20
2.780943987199989
 30
0.0
 11
-13.44607322654999
 21
7.981363326499987
 31
0.0
  0
LINE
  5
767A
  8
0
 10
-8.1821837325499942
 20
7.981363326499987
 30
0.0
 11
-8.1821837325499942
 21
2.780943987199989
 31
0.0
  0
LINE
  5
767B
  8
0
 10
-7.9189694615500006
 20
8.2757675544999927
 30
0.0
 11
-7.9189694615500006
 21
2.486539759199998
 31
0.0
  0
LINE
  5
767C
  8
0
 10
-7.9189694615500006
 20
2.486539759199998
 30
0.0
 11
-13.707725932149989
 21
2.486539759199998
 31
0.0
  0
LINE
  5
767D
  8
0
 10
-8.2141305036499936
 20
2.7489946149999991
 30
0.0
 11
-13.414126455450001
 21
2.7489946149999991
 31
0.0
  0
LINE
  5
767E
  8
0
 10
-13.414126455550001
 20
8.0133126986999912
 30
0.0
 11
-8.2141305037499954
 21
8.0133126986999912
 31
0.0
  0
LINE
  5
767F
  8
0
 10
-13.707725932149989
 20
8.2757675544999927
 30
0.0
 11
-7.9189694615500006
 21
8.2757675544999927
 31
0.0
  0
LINE
  5
7680
  8
0
 10
-8.1821837325499942
 20
2.780943987199989
 30
0.0
 11
-8.2141305036499936
 21
2.7489946149999991
 31
0.0
  0
LINE
  5
7681
  8
0
 10
-8.1821837325499942
 20
7.9813633263996007
 30
0.0
 11
-8.214130503649951
 21
8.0133126987999503
 31
0.0
  0
LINE
  5
7682
  8
0
 10
-13.414126455650001
 20
8.0133126984999876
 30
0.0
 11
-13.44607322654999
 21
7.981363326499987
 31
0.0
  0
LINE
  5
7683
  8
0
 10
-13.446073226450521
 20
2.780943987199989
 30
0.0
 11
-13.414126455450001
 21
2.7489946149999991
 31
0.0
  0
LINE
  5
7684
  8
0
 10
-7.9189694615500006
 20
8.2757675544999927
 30
0.0
 11
-8.1981571180999673
 21
7.9973380125997693
 31
0.0
  0
LINE
  5
7685
  8
0
 10
-13.707725932149989
 20
8.2757675544999927
 30
0.0
 11
-13.430099841100001
 21
7.9973380124999931
 31
0.0
  0
LINE
  5
7686
  8
0
 10
-13.707725932149989
 20
2.486539759199998
 30
0.0
 11
-13.430099840950261
 21
2.7649693010999941
 31
0.0
  0
LINE
  5
7687
  8
0
 10
-7.9189694615500006
 20
2.486539759199998
 30
0.0
 11
-8.1981571180999957
 21
2.7649693010999941
 31
0.0
  0
LINE
  5
7688
  8
0
 10
-13.707725932149989
 20
-3.7314602408000042
 30
0.0
 11
-13.707725932149989
 21
2.0577675544999949
 31
0.0
  0
LINE
  5
7689
  8
0
 10
-13.44607322654999
 20
-3.4370560128000061
 30
0.0
 11
-13.44607322654999
 21
1.7633633264999911
 31
0.0
  0
LINE
  5
768A
  8
0
 10
-8.1821837325499942
 20
1.7633633264999911
 30
0.0
 11
-8.1821837325499942
 21
-3.4370560128000061
 31
0.0
  0
LINE
  5
768B
  8
0
 10
-7.9189694615500006
 20
2.0577675544999949
 30
0.0
 11
-7.9189694615500006
 21
-3.7314602408000042
 31
0.0
  0
LINE
  5
768C
  8
0
 10
-7.9189694615500006
 20
-3.7314602408000042
 30
0.0
 11
-13.707725932149989
 21
-3.7314602408000042
 31
0.0
  0
LINE
  5
768D
  8
0
 10
-8.2141305036499936
 20
-3.4690053850000022
 30
0.0
 11
-13.414126455450001
 21
-3.4690053850000022
 31
0.0
  0
LINE
  5
768E
  8
0
 10
-13.414126455550001
 20
1.7953126986999941
 30
0.0
 11
-8.2141305037499954
 21
1.7953126986999941
 31
0.0
  0
LINE
  5
768F
  8
0
 10
-13.707725932149989
 20
2.0577675544999949
 30
0.0
 11
-7.9189694615500006
 21
2.0577675544999949
 31
0.0
  0
LINE
  5
7690
  8
0
 10
-8.1821837325499942
 20
-3.4370560128000061
 30
0.0
 11
-8.2141305036499936
 21
-3.4690053850000022
 31
0.0
  0
LINE
  5
7691
  8
0
 10
-8.1821837325499942
 20
1.763363326399598
 30
0.0
 11
-8.214130503649951
 21
1.795312698799953
 31
0.0
  0
LINE
  5
7692
  8
0
 10
-13.414126455650001
 20
1.795312698499991
 30
0.0
 11
-13.44607322654999
 21
1.7633633264999911
 31
0.0
  0
LINE
  5
7693
  8
0
 10
-13.446073226450521
 20
-3.4370560128000061
 30
0.0
 11
-13.414126455450001
 21
-3.4690053850000022
 31
0.0
  0
LINE
  5
7694
  8
0
 10
-7.9189694615500006
 20
2.0577675544999949
 30
0.0
 11
-8.1981571180999673
 21
1.7793380125997711
 31
0.0
  0
LINE
  5
7695
  8
0
 10
-13.707725932149989
 20
2.0577675544999949
 30
0.0
 11
-13.430099841100001
 21
1.77933801249999
 31
0.0
  0
LINE
  5
7696
  8
0
 10
-13.707725932149989
 20
-3.7314602408000042
 30
0.0
 11
-13.430099840950261
 21
-3.453030698900001
 31
0.0
  0
LINE
  5
7697
  8
0
 10
-7.9189694615500006
 20
-3.7314602408000042
 30
0.0
 11
-8.1981571180999957
 21
-3.453030698900001
 31
0.0
  0
LINE
  5
7698
  8
0
 10
-7.4902321646499921
 20
-3.7314602408000042
 30
0.0
 11
-7.4902321646499921
 21
2.0577675544999949
 31
0.0
  0
LINE
  5
7699
  8
0
 10
-7.2285794590499899
 20
-3.4370560128000061
 30
0.0
 11
-7.2285794590499899
 21
1.7633633264999911
 31
0.0
  0
LINE
  5
769A
  8
0
 10
-1.964689965049994
 20
1.7633633264999911
 30
0.0
 11
-1.964689965049994
 21
-3.4370560128000061
 31
0.0
  0
LINE
  5
769B
  8
0
 10
-1.7014756940499991
 20
2.0577675544999949
 30
0.0
 11
-1.7014756940499991
 21
-3.7314602408000042
 31
0.0
  0
LINE
  5
769C
  8
0
 10
-1.7014756940499991
 20
-3.7314602408000042
 30
0.0
 11
-7.4902321646499921
 21
-3.7314602408000042
 31
0.0
  0
LINE
  5
769D
  8
0
 10
-1.9966367361500039
 20
-3.4690053850000022
 30
0.0
 11
-7.1966326879499949
 21
-3.4690053850000022
 31
0.0
  0
LINE
  5
769E
  8
0
 10
-7.1966326880499967
 20
1.7953126986999941
 30
0.0
 11
-1.996636736249993
 21
1.7953126986999941
 31
0.0
  0
LINE
  5
769F
  8
0
 10
-7.4902321646499921
 20
2.0577675544999949
 30
0.0
 11
-1.7014756940499991
 21
2.0577675544999949
 31
0.0
  0
LINE
  5
76A0
  8
0
 10
-1.964689965049994
 20
-3.4370560128000061
 30
0.0
 11
-1.9966367361500039
 21
-3.4690053850000022
 31
0.0
  0
LINE
  5
76A1
  8
0
 10
-1.964689965049994
 20
1.763363326399598
 30
0.0
 11
-1.996636736149948
 21
1.795312698799953
 31
0.0
  0
LINE
  5
76A2
  8
0
 10
-7.1966326881500002
 20
1.795312698499991
 30
0.0
 11
-7.2285794590499899
 21
1.7633633264999911
 31
0.0
  0
LINE
  5
76A3
  8
0
 10
-7.2285794589505139
 20
-3.4370560128000061
 30
0.0
 11
-7.1966326879499949
 21
-3.4690053850000022
 31
0.0
  0
LINE
  5
76A4
  8
0
 10
-1.7014756940499991
 20
2.0577675544999949
 30
0.0
 11
-1.980663350599964
 21
1.7793380125997711
 31
0.0
  0
LINE
  5
76A5
  8
0
 10
-7.4902321646499921
 20
2.0577675544999949
 30
0.0
 11
-7.2126060735999964
 21
1.77933801249999
 31
0.0
  0
LINE
  5
76A6
  8
0
 10
-7.4902321646499921
 20
-3.7314602408000042
 30
0.0
 11
-7.2126060734502699
 21
-3.453030698900001
 31
0.0
  0
LINE
  5
76A7
  8
0
 10
-1.7014756940499991
 20
-3.7314602408000042
 30
0.0
 11
-1.980663350599992
 21
-3.453030698900001
 31
0.0
  0
LINE
  5
76A8
  8
0
 10
-1.2727383976999911
 20
-3.7314602408000042
 30
0.0
 11
-1.2727383976999911
 21
2.0577675544999949
 31
0.0
  0
LINE
  5
76A9
  8
0
 10
-1.0110856920999911
 20
-3.4370560128000061
 30
0.0
 11
-1.0110856920999911
 21
1.7633633264999911
 31
0.0
  0
LINE
  5
76AA
  8
0
 10
4.2528038019000043
 20
1.7633633264999911
 30
0.0
 11
4.2528038019000043
 21
-3.4370560128000061
 31
0.0
  0
LINE
  5
76AB
  8
0
 10
4.5160180728999979
 20
2.0577675544999949
 30
0.0
 11
4.5160180728999979
 21
-3.7314602408000042
 31
0.0
  0
LINE
  5
76AC
  8
0
 10
4.5160180728999979
 20
-3.7314602408000042
 30
0.0
 11
-1.2727383976999911
 21
-3.7314602408000042
 31
0.0
  0
LINE
  5
76AD
  8
0
 10
4.2208570308000084
 20
-3.4690053850000022
 30
0.0
 11
-0.9791389209999968
 21
-3.4690053850000022
 31
0.0
  0
LINE
  5
76AE
  8
0
 10
-0.9791389210999987
 20
1.7953126986999941
 30
0.0
 11
4.2208570307000048
 21
1.7953126986999941
 31
0.0
  0
LINE
  5
76AF
  8
0
 10
-1.2727383976999911
 20
2.0577675544999949
 30
0.0
 11
4.5160180728999979
 21
2.0577675544999949
 31
0.0
  0
LINE
  5
76B0
  8
0
 10
4.2528038019000043
 20
-3.4370560128000061
 30
0.0
 11
4.2208570308000084
 21
-3.4690053850000022
 31
0.0
  0
LINE
  5
76B1
  8
0
 10
4.2528038019000043
 20
1.763363326399598
 30
0.0
 11
4.2208570308000644
 21
1.795312698799953
 31
0.0
  0
LINE
  5
76B2
  8
0
 10
-0.9791389212000004
 20
1.795312698499991
 30
0.0
 11
-1.0110856920999911
 21
1.7633633264999911
 31
0.0
  0
LINE
  5
76B3
  8
0
 10
-1.011085692000516
 20
-3.4370560128000061
 30
0.0
 11
-0.9791389209999968
 21
-3.4690053850000022
 31
0.0
  0
LINE
  5
76B4
  8
0
 10
4.5160180728999979
 20
2.0577675544999949
 30
0.0
 11
4.236830416350033
 21
1.7793380125997711
 31
0.0
  0
LINE
  5
76B5
  8
0
 10
-1.2727383976999911
 20
2.0577675544999949
 30
0.0
 11
-0.995112306649997
 21
1.77933801249999
 31
0.0
  0
LINE
  5
76B6
  8
0
 10
-1.2727383976999911
 20
-3.7314602408000042
 30
0.0
 11
-0.9951123065002571
 21
-3.453030698900001
 31
0.0
  0
LINE
  5
76B7
  8
0
 10
4.5160180728999979
 20
-3.7314602408000042
 30
0.0
 11
4.2368304163500063
 21
-3.453030698900001
 31
0.0
  0
LINE
  5
76B8
  8
0
 10
-1.2727383976999911
 20
-9.9494602408000006
 30
0.0
 11
-1.2727383976999911
 21
-4.1602324455000002
 31
0.0
  0
LINE
  5
76B9
  8
0
 10
-1.0110856920999911
 20
-9.6550560127999994
 30
0.0
 11
-1.0110856920999911
 21
-4.454636673500004
 31
0.0
  0
LINE
  5
76BA
  8
0
 10
4.2528038019000043
 20
-4.454636673500004
 30
0.0
 11
4.2528038019000043
 21
-9.6550560127999994
 31
0.0
  0
LINE
  5
76BB
  8
0
 10
4.5160180728999979
 20
-4.1602324455000002
 30
0.0
 11
4.5160180728999979
 21
-9.9494602408000006
 31
0.0
  0
LINE
  5
76BC
  8
0
 10
4.5160180728999979
 20
-9.9494602408000006
 30
0.0
 11
-1.2727383976999911
 21
-9.9494602408000006
 31
0.0
  0
LINE
  5
76BD
  8
0
 10
4.2208570308000084
 20
-9.6870053850000009
 30
0.0
 11
-0.9791389209999968
 21
-9.6870053850000009
 31
0.0
  0
LINE
  5
76BE
  8
0
 10
-0.9791389210999987
 20
-4.4226873012999999
 30
0.0
 11
4.2208570307000048
 21
-4.4226873012999999
 31
0.0
  0
LINE
  5
76BF
  8
0
 10
-1.2727383976999911
 20
-4.1602324455000002
 30
0.0
 11
4.5160180728999979
 21
-4.1602324455000002
 31
0.0
  0
LINE
  5
76C0
  8
0
 10
4.2528038019000043
 20
-9.6550560127999994
 30
0.0
 11
4.2208570308000084
 21
-9.6870053850000009
 31
0.0
  0
LINE
  5
76C1
  8
0
 10
4.2528038019000043
 20
-4.4546366736003957
 30
0.0
 11
4.2208570308000644
 21
-4.4226873012000407
 31
0.0
  0
LINE
  5
76C2
  8
0
 10
-0.9791389212000004
 20
-4.4226873015000052
 30
0.0
 11
-1.0110856920999911
 21
-4.454636673500004
 31
0.0
  0
LINE
  5
76C3
  8
0
 10
-1.011085692000516
 20
-9.6550560127999994
 30
0.0
 11
-0.9791389209999968
 21
-9.6870053850000009
 31
0.0
  0
LINE
  5
76C4
  8
0
 10
4.5160180728999979
 20
-4.1602324455000002
 30
0.0
 11
4.236830416350033
 21
-4.4386619874002227
 31
0.0
  0
LINE
  5
76C5
  8
0
 10
-1.2727383976999911
 20
-4.1602324455000002
 30
0.0
 11
-0.995112306649997
 21
-4.4386619875000051
 31
0.0
  0
LINE
  5
76C6
  8
0
 10
-1.2727383976999911
 20
-9.9494602408000006
 30
0.0
 11
-0.9951123065002571
 21
-9.6710306988999974
 31
0.0
  0
LINE
  5
76C7
  8
0
 10
4.5160180728999979
 20
-9.9494602408000006
 30
0.0
 11
4.2368304163500063
 21
-9.6710306988999974
 31
0.0
  0
LINE
  5
76C8
  8
0
 10
-7.48972447209999
 20
-9.9473750755000037
 30
0.0
 11
-7.48972447209999
 21
-4.158147280200005
 31
0.0
  0
LINE
  5
76C9
  8
0
 10
-7.2280717664999878
 20
-9.6529708475000096
 30
0.0
 11
-7.2280717664999878
 21
-4.452551508200008
 31
0.0
  0
LINE
  5
76CA
  8
0
 10
-1.964182272499992
 20
-4.452551508200008
 30
0.0
 11
-1.964182272499992
 21
-9.6529708475000096
 31
0.0
  0
LINE
  5
76CB
  8
0
 10
-1.7009680014999971
 20
-4.158147280200005
 30
0.0
 11
-1.7009680014999971
 21
-9.9473750755000037
 31
0.0
  0
LINE
  5
76CC
  8
0
 10
-1.7009680014999971
 20
-9.9473750755000037
 30
0.0
 11
-7.48972447209999
 21
-9.9473750755000037
 31
0.0
  0
LINE
  5
76CD
  8
0
 10
-1.996129043600003
 20
-9.6849202197000022
 30
0.0
 11
-7.1961249953999928
 21
-9.6849202197000022
 31
0.0
  0
LINE
  5
76CE
  8
0
 10
-7.1961249954999964
 20
-4.4206021360000047
 30
0.0
 11
-1.996129043699991
 21
-4.4206021360000047
 31
0.0
  0
LINE
  5
76CF
  8
0
 10
-7.48972447209999
 20
-4.158147280200005
 30
0.0
 11
-1.7009680014999971
 21
-4.158147280200005
 31
0.0
  0
LINE
  5
76D0
  8
0
 10
-1.964182272499992
 20
-9.6529708475000096
 30
0.0
 11
-1.996129043600003
 21
-9.6849202197000022
 31
0.0
  0
LINE
  5
76D1
  8
0
 10
-1.964182272499992
 20
-4.4525515083004006
 30
0.0
 11
-1.996129043599945
 21
-4.4206021359000482
 31
0.0
  0
LINE
  5
76D2
  8
0
 10
-7.1961249955999982
 20
-4.4206021362000092
 30
0.0
 11
-7.2280717664999878
 21
-4.452551508200008
 31
0.0
  0
LINE
  5
76D3
  8
0
 10
-7.2280717664005127
 20
-9.6529708475000096
 30
0.0
 11
-7.1961249953999928
 21
-9.6849202197000022
 31
0.0
  0
LINE
  5
76D4
  8
0
 10
-1.7009680014999971
 20
-4.158147280200005
 30
0.0
 11
-1.9801556580499611
 21
-4.4365768221002284
 31
0.0
  0
LINE
  5
76D5
  8
0
 10
-7.48972447209999
 20
-4.158147280200005
 30
0.0
 11
-7.2120983810499926
 21
-4.436576822200009
 31
0.0
  0
LINE
  5
76D6
  8
0
 10
-7.48972447209999
 20
-9.9473750755000037
 30
0.0
 11
-7.2120983809002679
 21
-9.6689455336000023
 31
0.0
  0
LINE
  5
76D7
  8
0
 10
-1.7009680014999971
 20
-9.9473750755000037
 30
0.0
 11
-1.9801556580499911
 21
-9.6689455336000023
 31
0.0
  0
LINE
  5
76D8
  8
0
 10
-13.707725932149989
 20
-9.9494602408000006
 30
0.0
 11
-13.707725932149989
 21
-4.1602324455000002
 31
0.0
  0
LINE
  5
76D9
  8
0
 10
-13.44607322654999
 20
-9.6550560127999994
 30
0.0
 11
-13.44607322654999
 21
-4.454636673500004
 31
0.0
  0
LINE
  5
76DA
  8
0
 10
-8.1821837325499942
 20
-4.454636673500004
 30
0.0
 11
-8.1821837325499942
 21
-9.6550560127999994
 31
0.0
  0
LINE
  5
76DB
  8
0
 10
-7.9189694615500006
 20
-4.1602324455000002
 30
0.0
 11
-7.9189694615500006
 21
-9.9494602408000006
 31
0.0
  0
LINE
  5
76DC
  8
0
 10
-7.9189694615500006
 20
-9.9494602408000006
 30
0.0
 11
-13.707725932149989
 21
-9.9494602408000006
 31
0.0
  0
LINE
  5
76DD
  8
0
 10
-8.2141305036499936
 20
-9.6870053850000009
 30
0.0
 11
-13.414126455450001
 21
-9.6870053850000009
 31
0.0
  0
LINE
  5
76DE
  8
0
 10
-13.414126455550001
 20
-4.4226873012999999
 30
0.0
 11
-8.2141305037499954
 21
-4.4226873012999999
 31
0.0
  0
LINE
  5
76DF
  8
0
 10
-13.707725932149989
 20
-4.1602324455000002
 30
0.0
 11
-7.9189694615500006
 21
-4.1602324455000002
 31
0.0
  0
LINE
  5
76E0
  8
0
 10
-8.1821837325499942
 20
-9.6550560127999994
 30
0.0
 11
-8.2141305036499936
 21
-9.6870053850000009
 31
0.0
  0
LINE
  5
76E1
  8
0
 10
-8.1821837325499942
 20
-4.4546366736003957
 30
0.0
 11
-8.214130503649951
 21
-4.4226873012000407
 31
0.0
  0
LINE
  5
76E2
  8
0
 10
-13.414126455650001
 20
-4.4226873015000052
 30
0.0
 11
-13.44607322654999
 21
-4.454636673500004
 31
0.0
  0
LINE
  5
76E3
  8
0
 10
-13.446073226450521
 20
-9.6550560127999994
 30
0.0
 11
-13.414126455450001
 21
-9.6870053850000009
 31
0.0
  0
LINE
  5
76E4
  8
0
 10
-7.9189694615500006
 20
-4.1602324455000002
 30
0.0
 11
-8.1981571180999673
 21
-4.4386619874002227
 31
0.0
  0
LINE
  5
76E5
  8
0
 10
-13.707725932149989
 20
-4.1602324455000002
 30
0.0
 11
-13.430099841100001
 21
-4.4386619875000051
 31
0.0
  0
LINE
  5
76E6
  8
0
 10
-13.707725932149989
 20
-9.9494602408000006
 30
0.0
 11
-13.430099840950261
 21
-9.6710306988999974
 31
0.0
  0
LINE
  5
76E7
  8
0
 10
-7.9189694615500006
 20
-9.9494602408000006
 30
0.0
 11
-8.1981571180999957
 21
-9.6710306988999974
 31
0.0
  0
ARC
  5
76E8
  8
0
 10
-19.936504527014559
 20
-10.49691624634972
 30
0.0
 40
1.2484703871256071
 50
174.24419016693179
 51
275.14769722958567
  0
ARC
  5
76E9
  8
0
 10
-19.934156827465031
 20
41.727340178576732
 30
0.0
 40
1.250875698315957
 50
90.015912168115989
 51
174.2234532701606
  0
ARC
  5
76EA
  8
0
 10
5.4155003477004353
 20
41.72822039652673
 30
0.0
 40
1.249995432135367
 50
0.0008445737357289
 51
90.000209382482296
  0
LINE
  5
76EC
  8
0
 10
8.1816943152636217
 20
43.024201487837168
 30
0.0
 11
12.06549577969999
 21
43.159803848253773
 31
0.0
  0
LINE
  5
76ED
  8
0
 10
12.06549577969999
 20
43.159803848253773
 30
0.0
 11
12.06549577969999
 21
41.61817177239999
 31
0.0
  0
LINE
  5
76EE
  8
0
 10
12.06549577969999
 20
41.61817177239999
 30
0.0
 11
11.475406299499401
 21
41.597565393678643
 31
0.0
  0
ARC
  5
76EF
  8
0
 10
12.10934153063617
 20
40.68398347720408
 30
0.0
 40
1.260465225784654
 50
173.73144107472589
 51
213.85198978574729
  0
ARC
  5
76F0
  8
0
 10
11.459285169851331
 20
40.335478111635041
 30
0.0
 40
0.5314661863808551
 50
221.712796017366
 51
265.09640935935607
  0
ARC
  5
76F1
  8
0
 10
11.38549402640494
 20
39.587791171075381
 30
0.0
 40
0.220001753320566
 50
0.0008727343439918
 51
82.593041651556902
  0
ARC
  5
76F2
  8
0
 10
11.03262299881554
 20
41.4814026235222
 30
0.0
 40
0.1282485173838759
 50
116.4381565308634
 51
164.42532963233359
  0
ARC
  5
76F3
  8
0
 10
13.04914132960603
 20
40.888449746700687
 30
0.0
 40
2.2301258609575521
 50
163.66078823297451
 51
182.83485892441831
  0
LINE
  5
76F4
  8
0
 10
11.48789295329148
 20
41.613218312949101
 30
0.0
 11
10.975522708000121
 21
41.59623832790006
 31
0.0
  0
LINE
  5
76F5
  8
0
 10
10.975522708000121
 20
41.59623832790006
 30
0.0
 11
8.408517305072424
 21
41.600938134889759
 31
0.0
  0
LINE
  5
76F7
  8
0
 10
6.805541451699999
 20
41.728238822199998
 30
0.0
 11
6.8324163802499989
 21
41.720863628700002
 31
0.0
  0
ARC
  5
76F9
  8
0
 10
6.8082970172551613
 20
41.66899278673506
 30
0.0
 40
0.0572042648534847
 50
359.21725462991242
 51
65.062097762346539
  0
ARC
  5
76FF
  8
0
 10
11.37744711843408
 20
-10.00089566163858
 30
0.0
 40
0.2281062891896703
 50
271.1983527084426
 51
358.71206296807708
  0
ARC
  5
7700
  8
0
 10
11.50566547346334
 20
-10.81586314302413
 30
0.0
 40
0.5997532671704473
 50
101.87814925640249
 51
172.7769750480559
  0
ARC
  5
7701
  8
0
 10
12.48347308959934
 20
-11.13917277821581
 30
0.0
 40
1.622553567505975
 50
165.77474187662699
 51
180.26796332838319
  0
ARC
  5
7702
  8
0
 10
-19.070142212491302
 20
-11.64675911801293
 30
0.0
 40
0.4999979402129389
 50
89.999990581530994
 51
180.0002360351836
  0
LINE
  5
7703
  8
0
 10
-19.570140152699999
 20
-11.6467611778
 30
0.0
 11
-19.824477258189109
 21
-11.6467611778
 31
0.0
  0
LINE
  5
7705
  8
0
 10
-19.82448746419999
 20
-11.740351200486019
 30
0.0
 11
-19.82448746419999
 21
41.538051247799977
 31
0.0
  0
ARC
  5
7706
  8
0
 10
-19.744514684042649
 20
41.538115065569997
 30
0.0
 40
0.0799728056204139
 50
90.024126975630907
 51
180.0457216580032
  0
LINE
  5
7707
  8
0
 10
-19.744548360203289
 20
41.618087864099991
 30
0.0
 11
6.6811050338984153
 21
41.617734762846389
 31
0.0
  0
ARC
  5
7708
  8
0
 10
6.683977627045758
 20
41.544793338627493
 30
0.0
 40
0.0729979668105463
 50
9.0815659955260397
 51
92.255267909787875
  0
LINE
  5
7709
  8
0
 10
6.7560605380984047
 20
41.556315365039993
 30
0.0
 11
6.7560605380984189
 21
41.227878928746392
 31
0.0
  0
LINE
  5
770A
  8
0
 10
6.8654941788999979
 20
41.228238822199991
 30
0.0
 11
5.9326875309
 21
35.353238822199998
 31
0.0
  0
LINE
  5
770B
  8
0
 10
5.9326875309
 20
35.353238822199998
 30
0.0
 11
5.8563194315999993
 21
-11.146957709200001
 31
0.0
  0
ARC
  5
770C
  8
0
 10
4.726778344687478
 20
39.538474918087353
 30
0.0
 40
0.2225524849149062
 50
356.7562196036547
 51
93.063659596665417
  0
ARC
  5
770D
  8
0
 10
4.722492036476071
 20
-10.15544194294662
 30
0.0
 40
0.2266520875019144
 50
268.25440962685508
 51
2.218376649587519
  0
ARC
  5
770E
  8
0
 10
-13.91868596443347
 20
-10.15805339903393
 30
0.0
 40
0.2235904323574161
 50
177.075126452365
 51
272.81701391878858
  0
ARC
  5
770F
  8
0
 10
-13.918623754212801
 20
39.549771788346092
 30
0.0
 40
0.2236569249748516
 50
87.211432196011515
 51
182.94586307648191
  0
ARC
  5
7710
  8
0
 10
5.9557228548892267
 20
41.274342209306397
 30
0.0
 40
0.3237249561835049
 50
82.329897304269949
 51
97.76124602110913
  0
ARC
  5
7711
  8
0
 10
6.0349311764839344
 20
41.513805099848533
 30
0.0
 40
0.1433934729269743
 50
169.34355147661429
 51
180.22056754315861
  0
ARC
  5
7712
  8
0
 10
5.8969582785896177
 20
41.517856166387631
 30
0.0
 40
0.1221004513325256
 50
0.7192773380845539
 51
10.51764398243016
  0
ARC
  5
7713
  8
0
 10
1.500728514016858
 20
41.383760011744492
 30
0.0
 40
4.3927193316617492
 50
358.26482230398591
 51
1.689268373491382
  0
ARC
  5
7714
  8
0
 10
0.7719608983746679
 20
41.306789949151451
 30
0.0
 40
5.2513934360804173
 50
359.0201224192121
 51
2.3202137181013791
  0
ARC
  5
7715
  8
0
 10
175.33257061321231
 20
37.202406895530608
 30
0.0
 40
169.3575731779361
 50
178.6416910827495
 51
179.0443049876819
  0
ARC
  5
7716
  8
0
 10
-9.6998939308552234
 20
40.4114690963276
 30
0.0
 40
15.61390036006217
 50
0.2693165691011154
 51
3.0812524537732009
  0
LINE
  5
7717
  8
0
 10
5.9138339401729771
 20
40.484861353597992
 30
0.0
 11
5.9120204520999859
 21
40.080810047499988
 31
0.0
  0
ARC
  5
7718
  8
0
 10
6.0241986725190841
 20
40.076426070530921
 30
0.0
 40
0.1122638516640996
 50
177.7619932112022
 51
233.8450343781528
  0
ARC
  5
7719
  8
0
 10
5.9700322980884621
 20
40.005259240191791
 30
0.0
 40
0.0229122650931572
 50
238.22260675916129
 51
337.31021199613622
  0
ARC
  5
771A
  8
0
 10
5.9328254606969377
 20
40.026695606813071
 30
0.0
 40
0.0657327047545406
 50
332.57603775319632
 51
0.4086210674549943
  0
ARC
  5
771B
  8
0
 10
2.953819360596138
 20
41.27218654676917
 30
0.0
 40
0.3259811480975449
 50
82.396758145638188
 51
97.718840050819793
  0
ARC
  5
771C
  8
0
 10
3.104991151436546
 20
41.501379196960968
 30
0.0
 40
0.2162245862879932
 50
169.052848101786
 51
184.2770918261235
  0
ARC
  5
771D
  8
0
 10
2.5441408964245911
 20
41.486378172055993
 30
0.0
 40
0.4735283327359177
 50
359.9388977908589
 51
6.7895009055628668
  0
ARC
  5
771E
  8
0
 10
225.38212984245669
 20
44.717637687172889
 30
0.0
 40
222.51623997153189
 50
180.83233702501991
 51
181.1248125012068
  0
ARC
  5
771F
  8
0
 10
-132.25484555681109
 20
43.225398191099217
 30
0.0
 40
135.2836986887865
 50
358.78137292563491
 51
359.2632505702681
  0
LINE
  5
7720
  8
0
 10
2.9087676984426549
 20
40.349550301742163
 30
0.0
 11
2.910036316792652
 21
40.271438730492143
 31
0.0
  0
LINE
  5
7721
  8
0
 10
2.998254959992618
 20
40.34825872459124
 30
0.0
 11
2.9969868245926641
 21
40.270114755592147
 31
0.0
  0
ARC
  5
7722
  8
0
 10
2.9540446389884312
 20
40.235179635515927
 30
0.0
 40
0.031350713194735
 50
221.24358585755229
 51
331.39736808974112
  0
ARC
  5
7723
  8
0
 10
2.903060682917622
 20
40.271757963375599
 30
0.0
 40
0.0939405142724849
 50
326.6916532788382
 51
358.99773092186172
  0
ARC
  5
7724
  8
0
 10
2.995481254931899
 20
40.269979440248612
 30
0.0
 40
0.0854573986360073
 50
179.02155650209039
 51
220.47177937590749
  0
LINE
  5
7725
  8
0
 10
-0.0899638305073348
 20
41.59521400859213
 30
0.0
 11
-0.1072987448073428
 21
41.542440999992131
 31
0.0
  0
LINE
  5
7726
  8
0
 10
-0.003049267207336
 20
41.595301686692117
 30
0.0
 11
0.0143484640926578
 21
41.542359644092123
 31
0.0
  0
ARC
  5
7727
  8
0
 10
-0.0461806394038485
 20
41.27218654676917
 30
0.0
 40
0.3259811480975449
 50
82.396758145638188
 51
97.718840050819793
  0
ARC
  5
7728
  8
0
 10
0.1049911514365453
 20
41.501379196960968
 30
0.0
 40
0.2162245862879932
 50
169.052848101786
 51
184.2770918261235
  0
ARC
  5
7729
  8
0
 10
-0.4558591035754115
 20
41.486378172055971
 30
0.0
 40
0.4735283327359177
 50
359.9388977908589
 51
6.7895009055628668
  0
ARC
  5
772A
  8
0
 10
204.19121359669299
 20
44.232224828926249
 30
0.0
 40
204.3203114320176
 50
180.77033273720551
 51
181.0755538368237
  0
ARC
  5
772B
  8
0
 10
-124.2225634186353
 20
43.36572222574339
 30
0.0
 40
124.25445333623369
 50
358.63032790644479
 51
359.13313750537452
  0
LINE
  5
772C
  8
0
 10
-0.0930990509268407
 20
40.396958245464717
 30
0.0
 11
-0.0918304325768441
 21
40.318846674214747
 31
0.0
  0
LINE
  5
772D
  8
0
 10
-0.0036117893768927
 20
40.395666668313801
 30
0.0
 11
-0.0048799247768467
 21
40.317522699314708
 31
0.0
  0
ARC
  5
772E
  8
0
 10
-0.0478221103810649
 20
40.282587579238488
 30
0.0
 40
0.031350713194735
 50
221.24358585755229
 51
331.39736808974112
  0
ARC
  5
772F
  8
0
 10
-0.0988060664518879
 20
40.319165907098153
 30
0.0
 40
0.0939405142724849
 50
326.6916532788382
 51
358.99773092186172
  0
ARC
  5
7730
  8
0
 10
-0.0063854944376113
 20
40.31738738397118
 30
0.0
 40
0.0854573986360073
 50
179.02155650209039
 51
220.47177937590749
  0
LINE
  5
7731
  8
0
 10
-3.08781939089552
 20
41.594991827642133
 30
0.0
 11
-3.105154305195529
 21
41.542218819042148
 31
0.0
  0
LINE
  5
7732
  8
0
 10
-3.0009048275955221
 20
41.595079505742149
 30
0.0
 11
-2.983507096295527
 21
41.54213746314214
 31
0.0
  0
ARC
  5
7733
  8
0
 10
-3.0440361997920342
 20
41.271964365819173
 30
0.0
 40
0.3259811480975449
 50
82.396758145638188
 51
97.718840050819793
  0
ARC
  5
7734
  8
0
 10
-2.8928644089516391
 20
41.501157016010993
 30
0.0
 40
0.2162245862879932
 50
169.052848101786
 51
184.2770918261235
  0
ARC
  5
7735
  8
0
 10
-3.4537146639635958
 20
41.486155991105967
 30
0.0
 40
0.4735283327359177
 50
359.9388977908589
 51
6.7895009055628668
  0
ARC
  5
7736
  8
0
 10
184.22213028962199
 20
44.924955923872389
 30
0.0
 40
187.36219786564209
 50
181.05199585452371
 51
181.37073055618521
  0
ARC
  5
7737
  8
0
 10
-116.896704852632
 20
42.794353731604723
 30
0.0
 40
113.9240353635623
 50
358.8166881295848
 51
359.3418000692925
  0
LINE
  5
7738
  8
0
 10
-3.0864520975466889
 20
40.44297498312541
 30
0.0
 11
-3.0879795479000038
 21
40.359710729600003
 31
0.0
  0
LINE
  5
7739
  8
0
 10
-2.9969648359967409
 20
40.441683405974487
 30
0.0
 11
-2.9982329713966962
 21
40.363539436975401
 31
0.0
  0
ARC
  5
773A
  8
0
 10
-3.0433593219975079
 20
40.33275296691351
 30
0.0
 40
0.0353499207561549
 50
211.3048217948388
 51
327.18475933215439
  0
ARC
  5
773B
  8
0
 10
-3.0921591130717361
 20
40.365182644758839
 30
0.0
 40
0.0939405142724849
 50
326.6916532788382
 51
358.99773092186172
  0
ARC
  5
773C
  8
0
 10
-2.9996705054578761
 20
40.362843993703791
 30
0.0
 40
0.088364610116217
 50
182.03204030634191
 51
213.2568314702618
  0
LINE
  5
773D
  8
0
 10
-6.0899638305073447
 20
41.59521400859213
 30
0.0
 11
-6.1072987448073528
 21
41.542440999992131
 31
0.0
  0
LINE
  5
773E
  8
0
 10
-6.0030492672073459
 20
41.595301686692117
 30
0.0
 11
-5.9856515359073521
 21
41.542359644092123
 31
0.0
  0
ARC
  5
773F
  8
0
 10
-6.0461806394038602
 20
41.27218654676917
 30
0.0
 40
0.3259811480975449
 50
82.396758145638188
 51
97.718840050819793
  0
ARC
  5
7740
  8
0
 10
-5.8950088485634646
 20
41.501379196960968
 30
0.0
 40
0.2162245862879932
 50
169.052848101786
 51
184.2770918261235
  0
ARC
  5
7741
  8
0
 10
-6.4558591035754231
 20
41.486378172055971
 30
0.0
 40
0.4735283327359177
 50
359.9388977908589
 51
6.7895009055628668
  0
ARC
  5
7742
  8
0
 10
170.13511948858141
 20
45.469615229694377
 30
0.0
 40
176.29078193914069
 50
181.2950567672992
 51
181.6236476749028
  0
ARC
  5
7743
  8
0
 10
-113.1516320918665
 20
42.362156014294769
 30
0.0
 40
107.1728835084665
 50
358.99012591432432
 51
359.53152452783053
  0
LINE
  5
7744
  8
0
 10
-6.0848827256722444
 20
40.474556038648707
 30
0.0
 11
-6.0836141073222461
 21
40.396444467398723
 31
0.0
  0
LINE
  5
7745
  8
0
 10
-5.9953954641222964
 20
40.473264461497791
 30
0.0
 11
-5.9966635995222486
 21
40.395120492498712
 31
0.0
  0
ARC
  5
7746
  8
0
 10
-6.0396057851264668
 20
40.360185372422492
 30
0.0
 40
0.031350713194735
 50
221.24358585755229
 51
331.39736808974112
  0
ARC
  5
7747
  8
0
 10
-6.0905897411972898
 20
40.396763700282129
 30
0.0
 40
0.0939405142724849
 50
326.6916532788382
 51
358.99773092186172
  0
ARC
  5
7748
  8
0
 10
-5.998169169183015
 20
40.394985177155149
 30
0.0
 40
0.0854573986360073
 50
179.02155650209039
 51
220.47177937590749
  0
LINE
  5
7749
  8
0
 10
-9.0899638305073474
 20
41.59521400859213
 30
0.0
 11
-9.1072987448073572
 21
41.542440999992131
 31
0.0
  0
LINE
  5
774A
  8
0
 10
-9.0030492672073468
 20
41.595301686692117
 30
0.0
 11
-8.9856515359073512
 21
41.542359644092123
 31
0.0
  0
ARC
  5
774B
  8
0
 10
-9.0461806394038593
 20
41.27218654676917
 30
0.0
 40
0.3259811480975449
 50
82.396758145638188
 51
97.718840050819793
  0
ARC
  5
774C
  8
0
 10
-8.8950088485634673
 20
41.501379196960968
 30
0.0
 40
0.2162245862879932
 50
169.052848101786
 51
184.2770918261235
  0
ARC
  5
774D
  8
0
 10
-9.455859103575424
 20
41.486378172055971
 30
0.0
 40
0.4735283327359177
 50
359.9388977908589
 51
6.7895009055628668
  0
ARC
  5
774E
  8
0
 10
148.37068337284171
 20
44.800592032355091
 30
0.0
 40
157.51620846487
 50
181.20602796763609
 51
181.55365035433169
  0
ARC
  5
774F
  8
0
 10
-104.7729045457733
 20
42.58806855449243
 30
0.0
 40
95.796914392775264
 50
358.76812358311611
 51
359.34076648870092
  0
LINE
  5
7750
  8
0
 10
-9.0876182402268189
 20
40.529856466164709
 30
0.0
 11
-9.0863496218768223
 21
40.451744894914711
 31
0.0
  0
LINE
  5
7751
  8
0
 10
-8.9981309786768708
 20
40.528564889013794
 30
0.0
 11
-8.9993991140768248
 21
40.4504209200147
 31
0.0
  0
ARC
  5
7752
  8
0
 10
-9.0423412996810431
 20
40.415485799938487
 30
0.0
 40
0.031350713194735
 50
221.24358585755229
 51
331.39736808974112
  0
ARC
  5
7753
  8
0
 10
-9.0933252557518678
 20
40.452064127798131
 30
0.0
 40
0.0939405142724849
 50
326.6916532788382
 51
358.99773092186172
  0
ARC
  5
7754
  8
0
 10
-9.0009046837375895
 20
40.450285604671151
 30
0.0
 40
0.0854573986360073
 50
179.02155650209039
 51
220.47177937590749
  0
LINE
  5
7755
  8
0
 10
-12.089963830507349
 20
41.59521400859213
 30
0.0
 11
-12.10729874480735
 21
41.542440999992131
 31
0.0
  0
LINE
  5
7756
  8
0
 10
-12.00304926720735
 20
41.595301686692117
 30
0.0
 11
-11.985651535907349
 21
41.542359644092123
 31
0.0
  0
ARC
  5
7757
  8
0
 10
-12.046180639403859
 20
41.27218654676917
 30
0.0
 40
0.3259811480975449
 50
82.396758145638188
 51
97.718840050819793
  0
ARC
  5
7758
  8
0
 10
-11.895008848563471
 20
41.501379196960968
 30
0.0
 40
0.2162245862879932
 50
169.052848101786
 51
184.2770918261235
  0
ARC
  5
7759
  8
0
 10
-12.45585910357542
 20
41.486378172055971
 30
0.0
 40
0.4735283327359177
 50
359.9388977908589
 51
6.7895009055628668
  0
ARC
  5
775A
  8
0
 10
132.338027867433
 20
43.8021649874362
 30
0.0
 40
144.4672392033988
 50
180.91892778678371
 51
181.28191028895819
  0
ARC
  5
775B
  8
0
 10
-99.886331465874065
 20
43.062896945335218
 30
0.0
 40
87.918145423988307
 50
358.37445587231252
 51
358.97220703060492
  0
LINE
  5
775C
  8
0
 10
-12.093054429726831
 20
40.570188885564733
 30
0.0
 11
-12.091785811376839
 21
40.492077314314727
 31
0.0
  0
LINE
  5
775D
  8
0
 10
-12.00356716817689
 20
40.56889730841381
 30
0.0
 11
-12.00483530357684
 21
40.490753339414717
 31
0.0
  0
ARC
  5
775E
  8
0
 10
-12.04777748918106
 20
40.455818219338511
 30
0.0
 40
0.031350713194735
 50
221.24358585755229
 51
331.39736808974112
  0
ARC
  5
775F
  8
0
 10
-12.098761445251879
 20
40.492396547198148
 30
0.0
 40
0.0939405142724849
 50
326.6916532788382
 51
358.99773092186172
  0
ARC
  5
7760
  8
0
 10
-12.006340873237599
 20
40.490618024071189
 30
0.0
 40
0.0854573986360073
 50
179.02155650209039
 51
220.47177937590749
  0
LINE
  5
7761
  8
0
 10
-15.089963830507349
 20
41.59521400859213
 30
0.0
 11
-15.10729874480735
 21
41.542440999992131
 31
0.0
  0
LINE
  5
7762
  8
0
 10
-15.00304926720735
 20
41.595301686692117
 30
0.0
 11
-14.985651535907349
 21
41.542359644092123
 31
0.0
  0
ARC
  5
7763
  8
0
 10
-15.046180639403859
 20
41.27218654676917
 30
0.0
 40
0.3259811480975449
 50
82.396758145638188
 51
97.718840050819793
  0
ARC
  5
7764
  8
0
 10
-14.895008848563471
 20
41.501379196960968
 30
0.0
 40
0.2162245862879932
 50
169.052848101786
 51
184.2770918261235
  0
ARC
  5
7765
  8
0
 10
-15.45585910357542
 20
41.486378172055971
 30
0.0
 40
0.4735283327359177
 50
359.9388977908589
 51
6.7895009055628668
  0
ARC
  5
7766
  8
0
 10
143.9143182767518
 20
43.738937470161922
 30
0.0
 40
159.04091821588409
 50
180.81193520836339
 51
181.15788726990201
  0
ARC
  5
7767
  8
0
 10
-111.7417457291633
 20
43.248069623794748
 30
0.0
 40
96.775460046735304
 50
358.38689592842383
 51
358.95663633110428
  0
LINE
  5
7768
  8
0
 10
-15.09412477222682
 20
40.525107031064721
 30
0.0
 11
-15.09285615387682
 21
40.446995459814723
 31
0.0
  0
LINE
  5
7769
  8
0
 10
-15.00463751067687
 20
40.523815453913791
 30
0.0
 11
-15.00590564607683
 21
40.445671484914712
 31
0.0
  0
ARC
  5
776A
  8
0
 10
-15.048847831681041
 20
40.410736364838492
 30
0.0
 40
0.031350713194735
 50
221.2435858575524
 51
331.39736808974112
  0
ARC
  5
776B
  8
0
 10
-15.099831787751871
 20
40.44731469269815
 30
0.0
 40
0.0939405142724849
 50
326.6916532788382
 51
358.99773092186172
  0
ARC
  5
776C
  8
0
 10
-15.007411215737591
 20
40.44553616957117
 30
0.0
 40
0.0854573986360073
 50
179.02155650209039
 51
220.47177937590729
  0
LINE
  5
776D
  8
0
 10
-18.08996383050734
 20
41.59521400859213
 30
0.0
 11
-18.107298744807348
 21
41.542440999992131
 31
0.0
  0
LINE
  5
776E
  8
0
 10
-18.003049267207349
 20
41.595301686692117
 30
0.0
 11
-17.985651535907351
 21
41.542359644092123
 31
0.0
  0
ARC
  5
776F
  8
0
 10
-18.046180639403861
 20
41.27218654676917
 30
0.0
 40
0.3259811480975449
 50
82.396758145638188
 51
97.718840050819793
  0
ARC
  5
7770
  8
0
 10
-17.89500884856345
 20
41.501379196960968
 30
0.0
 40
0.2162245862879932
 50
169.052848101786
 51
184.2770918261235
  0
ARC
  5
7771
  8
0
 10
-18.45585910357542
 20
41.486378172055971
 30
0.0
 40
0.4735283327359177
 50
359.9388977908589
 51
6.7895009055628668
  0
ARC
  5
7772
  8
0
 10
46.538388222477373
 20
43.227967791000601
 30
0.0
 40
64.672504001665189
 50
181.54412269350641
 51
182.08663645946621
  0
ARC
  5
7773
  8
0
 10
-57.403470198446719
 20
42.42511169272953
 30
0.0
 40
39.432326605405692
 50
357.74258970982868
 51
358.6351428655401
  0
LINE
  5
7774
  8
0
 10
-18.091232301557341
 20
40.873201398198901
 30
0.0
 11
-18.089963683207351
 21
40.795089826948917
 31
0.0
  0
LINE
  5
7775
  8
0
 10
-18.001745040007378
 20
40.871909821047993
 30
0.0
 11
-18.00301317540735
 21
40.793765852048892
 31
0.0
  0
ARC
  5
7776
  8
0
 10
-18.045955361011568
 20
40.758830731972679
 30
0.0
 40
0.031350713194735
 50
221.2435858575524
 51
331.39736808974112
  0
ARC
  5
7777
  8
0
 10
-18.096939317082391
 20
40.79540905983233
 30
0.0
 40
0.0939405142724849
 50
326.6916532788382
 51
358.99773092186172
  0
ARC
  5
7778
  8
0
 10
-18.004518745068111
 20
40.793630536705358
 30
0.0
 40
0.0854573986360073
 50
179.02155650209039
 51
220.47177937590729
  0
ARC
  5
7779
  8
0
 10
-15.45977188119889
 20
41.109618340044548
 30
0.0
 40
0.4614600736349919
 50
99.905767914659847
 51
173.0681704250234
  0
LINE
  5
777A
  8
0
 10
-15.9178588889
 20
41.165311184599993
 30
0.0
 11
-15.912125348399989
 21
-11.1467611778
 31
0.0
  0
LINE
  5
777B
  8
0
 10
-14.996130701056339
 20
-11.1467611778
 30
0.0
 11
-15.00029593975635
 21
-11.023131625072891
 31
0.0
  0
LINE
  5
777C
  8
0
 10
-15.091693664456329
 20
-11.1467611778
 30
0.0
 11
-15.08714120715635
 21
-10.992378514072881
 31
0.0
  0
ARC
  5
777D
  8
0
 10
-15.036302966441511
 20
-10.987095950251
 30
0.0
 40
0.0511119575002968
 50
131.03376079156391
 51
185.93227249552501
  0
ARC
  5
777E
  8
0
 10
-15.05491588827935
 20
-10.969115641117821
 30
0.0
 40
0.0254280512197734
 50
63.873603484670497
 51
125.9889427412639
  0
ARC
  5
777F
  8
0
 10
-15.09272328994696
 20
-11.02466753990562
 30
0.0
 40
0.0924401108698599
 50
0.9520270618489563
 51
57.986170150575639
  0
LINE
  5
7780
  8
0
 10
-12.000286259996599
 20
-11.1467611778
 30
0.0
 11
-12.003576864475519
 21
-11.07472322714999
 31
0.0
  0
LINE
  5
7781
  8
0
 10
-12.09365936093268
 20
-11.1467611778
 30
0.0
 11
-12.0899453372966
 21
-11.043210123700041
 31
0.0
  0
ARC
  5
7782
  8
0
 10
-12.03229045865605
 20
-11.04864788068264
 30
0.0
 40
0.0579107436669447
 50
123.09577263332859
 51
174.61205002419271
  0
ARC
  5
7783
  8
0
 10
-12.04896978671932
 20
-11.020707243194931
 30
0.0
 40
0.0254280512197734
 50
63.873603484670497
 51
125.9889427412639
  0
ARC
  5
7784
  8
0
 10
-12.055703628188891
 20
-11.044699472939209
 30
0.0
 40
0.0501382236639132
 50
13.17959610274885
 51
69.045009312339857
  0
ARC
  5
7785
  8
0
 10
-12.185630746892979
 20
-11.068395815982051
 30
0.0
 40
0.182163806052018
 50
358.00944599110642
 51
11.118441001721751
  0
LINE
  5
7786
  8
0
 10
-8.9957253244887152
 20
-11.1467611778
 30
0.0
 11
-9.0045518975110301
 21
-11.032792108000001
 31
0.0
  0
LINE
  5
7787
  8
0
 10
-9.0909433201010756
 20
-11.1467611778
 30
0.0
 11
-9.0913971649110401
 21
-11.002038997
 31
0.0
  0
ARC
  5
7788
  8
0
 10
-9.040558924196187
 20
-10.99675643317812
 30
0.0
 40
0.0511119575002968
 50
131.03376079156391
 51
185.93227249552501
  0
ARC
  5
7789
  8
0
 10
-9.0591718460340296
 20
-10.97877612404494
 30
0.0
 40
0.0254280512197734
 50
63.873603484670497
 51
125.9889427412639
  0
ARC
  5
778A
  8
0
 10
-9.0969792477016505
 20
-11.03432802283273
 30
0.0
 40
0.0924401108698599
 50
0.9520270618489563
 51
57.986170150575639
  0
LINE
  5
778B
  8
0
 10
-5.9928371814347212
 20
-11.1467611778
 30
0.0
 11
-5.9999531920671618
 21
-10.99008588447631
 31
0.0
  0
LINE
  5
778C
  8
0
 10
-6.089523327275371
 20
-11.1467611778
 30
0.0
 11
-6.0867980902650149
 21
-10.95935483264463
 31
0.0
  0
ARC
  5
778D
  8
0
 10
-6.0359598495501761
 20
-10.954072268822751
 30
0.0
 40
0.0511119575002968
 50
131.03376079156391
 51
185.93227249552501
  0
ARC
  5
778E
  8
0
 10
-6.0545727713880062
 20
-10.93609195968957
 30
0.0
 40
0.0254280512197734
 50
63.873603484670497
 51
125.9889427412639
  0
ARC
  5
778F
  8
0
 10
-6.0923801730556404
 20
-10.991643858477371
 30
0.0
 40
0.0924401108698599
 50
0.9520270618489563
 51
57.986170150575639
  0
LINE
  5
7790
  8
0
 10
-2.9900984282652119
 20
-11.1467611778
 30
0.0
 11
-2.9977127594230222
 21
-10.94485426220759
 31
0.0
  0
LINE
  5
7791
  8
0
 10
-3.0881342705745691
 20
-11.1467611778
 30
0.0
 11
-3.0845576576205622
 21
-10.91412321039463
 31
0.0
  0
ARC
  5
7792
  8
0
 10
-3.033719416905722
 20
-10.908840646572751
 30
0.0
 40
0.0511119575002968
 50
131.03376079156391
 51
185.93227249552501
  0
ARC
  5
7793
  8
0
 10
-3.052332338743565
 20
-10.89086033743957
 30
0.0
 40
0.0254280512197734
 50
63.873603484670497
 51
125.9889427412639
  0
ARC
  5
7794
  8
0
 10
-3.0901397404111872
 20
-10.946412236227371
 30
0.0
 40
0.0924401108698599
 50
0.9520270618489567
 51
57.986170150575639
  0
LINE
  5
7795
  8
0
 10
0.0078297661359699
 20
-11.1467611778
 30
0.0
 11
0.000437010299977
 21
-10.89208295889998
 31
0.0
  0
LINE
  5
7796
  8
0
 10
-0.0917423263161794
 20
-11.1467611778
 30
0.0
 11
-0.0864082571000312
 21
-10.861329847899979
 31
0.0
  0
ARC
  5
7797
  8
0
 10
-0.0355700163851923
 20
-10.8560472840781
 30
0.0
 40
0.0511119575002968
 50
131.03376079156391
 51
185.93227249552501
  0
ARC
  5
7798
  8
0
 10
-0.0541829382230207
 20
-10.838066974944921
 30
0.0
 40
0.0254280512197734
 50
63.873603484670497
 51
125.9889427412639
  0
ARC
  5
7799
  8
0
 10
-0.0919903398906415
 20
-10.89361887373272
 30
0.0
 40
0.0924401108698599
 50
0.9520270618489567
 51
57.986170150575639
  0
LINE
  5
779A
  8
0
 10
3.0067017655237001
 20
-11.1467611778
 30
0.0
 11
2.9998205305500081
 21
-10.85737650315
 31
0.0
  0
LINE
  5
779B
  8
0
 10
2.9055132530466921
 20
-11.1467611778
 30
0.0
 11
2.9129752631499981
 21
-10.826623392149999
 31
0.0
  0
ARC
  5
779C
  8
0
 10
2.963813503864837
 20
-10.82134082832812
 30
0.0
 40
0.0511119575002968
 50
131.03376079156391
 51
185.93227249552501
  0
ARC
  5
779D
  8
0
 10
2.9452005820270091
 20
-10.803360519194939
 30
0.0
 40
0.0254280512197734
 50
63.873603484670497
 51
125.9889427412639
  0
ARC
  5
779E
  8
0
 10
2.9073931803593882
 20
-10.85891241798274
 30
0.0
 40
0.0924401108698599
 50
0.9520270618489567
 51
57.986170150575639
  0
LINE
  5
779F
  8
0
 10
-19.945142124697082
 20
-11.74535675331664
 30
0.0
 11
-19.945142124099998
 21
-31.927577637500001
 31
0.0
  0
ARC
  5
77A0
  8
0
 10
-20.07472457301985
 20
-31.918617023517289
 30
0.0
 40
0.1298918922451075
 50
287.99918173988488
 51
356.04429929581858
  0
LINE
  5
77A1
  8
0
 10
-20.0451421241
 20
-32.0761396451
 30
0.0
 11
-20.0451421241
 21
-32.146761177800002
 31
0.0
  0
LINE
  5
77A2
  8
0
 10
-20.0451421241
 20
-32.0761396451
 30
0.0
 11
-20.03458753512648
 21
-32.042152127273923
 31
0.0
  0
LINE
  5
77A3
  8
0
 10
-20.0451421241
 20
-32.146761177800002
 30
0.0
 11
-19.745142126000001
 21
-32.146761177800002
 31
0.0
  0
LINE
  5
77A4
  8
0
 10
-19.745142126000001
 20
-32.146761177800002
 30
0.0
 11
-19.74239081739999
 21
-11.6467611778
 31
0.0
  0
LINE
  5
77A5
  8
0
 10
-19.742491475031699
 20
-12.3967611778
 30
0.0
 11
-14.064460970229399
 21
-12.3967611778
 31
0.0
  0
LINE
  5
77A6
  8
0
 10
-12.826165896136461
 20
-12.3967611778
 30
0.0
 11
-3.234075908893713
 21
-12.3967611778
 31
0.0
  0
LINE
  5
77A7
  8
0
 10
-1.9961659654416191
 20
-12.3967611778
 30
0.0
 11
11.93879314030001
 21
-12.3967611778
 31
0.0
  0
ARC
  5
77A8
  8
0
 10
11.93879803829998
 20
-12.321761177799999
 30
0.0
 40
0.075
 50
269.99625824741202
 51
357.9996170145256
  0
LINE
  5
77A9
  8
0
 10
12.0548745853
 20
-11.1467611778
 30
0.0
 11
12.013752332828689
 21
-12.324379141074051
 31
0.0
  0
LINE
  5
77AA
  8
0
 10
12.013752332828689
 20
-12.324379141074051
 30
0.0
 11
12.0108982238
 21
-12.5019961023
 31
0.0
  0
LINE
  5
77AB
  8
0
 10
12.0108982238
 20
-12.5019961023
 30
0.0
 11
11.963492630969579
 21
-12.604663180632301
 31
0.0
  0
ARC
  5
77AC
  8
0
 10
11.80181041540137
 20
-12.315236352292461
 30
0.0
 40
0.331525304907337
 50
241.8928135059023
 51
299.18899134854303
  0
ARC
  5
77AD
  8
0
 10
11.76092996467459
 20
-12.487514666550201
 30
0.0
 40
0.166529176697451
 50
188.60827592509611
 51
226.1778039934205
  0
LINE
  5
77AE
  8
0
 10
11.59627677720003
 20
-12.512440447300181
 30
0.0
 11
11.58409353660001
 21
-12.3967611778
 31
0.0
  0
LINE
  5
77AF
  8
0
 10
11.06600121000001
 20
-12.3967611778
 30
0.0
 11
11.0497036489
 21
-13.6656794217
 31
0.0
  0
ARC
  5
77B0
  8
0
 10
10.337856766270351
 20
-13.632145422264671
 30
0.0
 40
0.7126363121730892
 50
274.96071777239291
 51
357.3028789209099
  0
LINE
  5
77B1
  8
0
 10
10.39948037157097
 20
-14.342112354380101
 30
0.0
 11
9.7792585390458129
 21
-14.37835733900682
 31
0.0
  0
ARC
  5
77B2
  8
0
 10
9.869201956868034
 20
-14.569388950804679
 30
0.0
 40
0.2111466199483926
 50
115.2124642496848
 51
166.59836880843491
  0
LINE
  5
77B3
  8
0
 10
9.6638050113999974
 20
-14.5204503167
 30
0.0
 11
8.9211892365456489
 21
-21.678822239500018
 31
0.0
  0
ARC
  5
77B4
  8
0
 10
8.5051982396620307
 20
-21.62717164393554
 30
0.0
 40
0.4191852734894165
 50
273.90215855078532
 51
352.92222010851469
  0
LINE
  5
77B5
  8
0
 10
8.5337250035999972
 20
-22.04538512680001
 30
0.0
 11
8.3904777800999977
 21
-22.051078624900001
 31
0.0
  0
ARC
  5
77B6
  8
0
 10
8.4131656398778496
 20
-22.153842510313499
 30
0.0
 40
0.1052385629252781
 50
102.44985255822139
 51
163.22387529041359
  0
LINE
  5
77B7
  8
0
 10
8.312406045485492
 20
-22.12346720349252
 30
0.0
 11
6.8015028618499951
 21
-30.316613624350019
 31
0.0
  0
ARC
  5
77B8
  8
0
 10
5.3006552431487872
 20
-29.841617176303942
 30
0.0
 40
1.5742189175008141
 50
331.70214361285252
 51
342.43817788852868
  0
LINE
  5
77B9
  8
0
 10
9.7792585390458129
 20
-14.37835733900682
 30
0.0
 11
8.1706656438500005
 21
-14.3933497848
 31
0.0
  0
LINE
  5
77BA
  8
0
 10
8.1706656438500005
 20
-14.3933497848
 30
0.0
 11
6.1384616662000004
 21
-14.407159566800001
 31
0.0
  0
ARC
  5
77BB
  8
0
 10
-3.6085973074312161
 20
-1429.9531999774431
 30
0.0
 40
1415.579597790562
 50
89.605483325900707
 51
90.530872994628936
  0
ARC
  5
77C0
  8
0
 10
-13.67415698246989
 20
-12.217089904315801
 30
0.0
 40
0.4296730959420314
 50
204.71835339551691
 51
269.83312262747319
  0
LINE
  5
77C1
  8
0
 10
-13.67540842918193
 20
-12.6467611778
 30
0.0
 11
-13.21483129566151
 21
-12.64676117779995
 31
0.0
  0
ARC
  5
77C2
  8
0
 10
-13.2158060384708
 20
-12.218124197010299
 30
0.0
 40
0.4286380890961257
 50
270.1302933557082
 51
335.37012674137401
  0
ARC
  5
77C3
  8
0
 10
-2.8444330594337961
 20
-12.21811998049265
 30
0.0
 40
0.4286423071870591
 50
204.6302347888184
 51
269.86961484040341
  0
ARC
  5
77C4
  8
0
 10
-2.3858061075956272
 20
-12.21812419729112
 30
0.0
 40
0.4286380888151687
 50
270.13029335088879
 51
335.3701267654551
  0
LINE
  5
77C5
  8
0
 10
-2.38483136486151
 20
-12.64676117779995
 30
0.0
 11
-2.845408498623796
 21
-12.64676117779995
 31
0.0
  0
ARC
  5
77C6
  8
0
 10
-12.817251545340451
 20
133.23871266719991
 30
0.0
 40
147.72475734819841
 50
267.3129261537984
 51
268.48440222112168
  0
LINE
  5
77D3
  8
0
 10
-16.544875748890099
 20
-14.60877304471842
 30
0.0
 11
-15.805464410800001
 21
-21.6787798967
 31
0.0
  0
ARC
  5
77D4
  8
0
 10
-15.37768633355482
 20
-21.61391326631761
 30
0.0
 40
0.4326681905441488
 50
188.62242645317269
 51
266.14368788010358
  0
LINE
  5
77D5
  8
0
 10
-15.40678523339977
 20
-22.045601831300001
 30
0.0
 11
-15.267200768419251
 21
-22.051133967195462
 31
0.0
  0
ARC
  5
77D6
  8
0
 10
-15.292717037811199
 20
-22.14658156926026
 30
0.0
 40
0.098799416743331
 50
13.46372019940268
 51
75.032958904111581
  0
LINE
  5
77D7
  8
0
 10
-15.19663287173883
 20
-22.12357813953772
 30
0.0
 11
-13.6971333522
 21
-30.2456881727
 31
0.0
  0
ARC
  5
77D8
  8
0
 10
-12.594182270144939
 20
-30.03449926278801
 30
0.0
 40
1.1229879095859561
 50
190.83957941613451
 51
215.16435406225841
  0
ARC
  5
77D9
  8
0
 10
-12.399638832561219
 20
-30.786736945994491
 30
0.0
 40
1.1091313012867761
 50
195.00230785413041
 51
268.74846780242058
  0
ARC
  5
77E4
  8
0
 10
5.6319671957852924
 20
-30.806652715714449
 30
0.0
 40
1.089152397730305
 50
270.7011371951462
 51
350.45553802507271
  0
LINE
  5
77F4
  8
0
 10
2.3170700534000002
 20
-31.9961643808
 30
0.0
 11
-0.3560977408009982
 21
-32.062792432767857
 31
0.0
  0
LINE
  5
77F5
  8
0
 10
-0.4607081393675012
 20
-32.064398452562912
 30
0.0
 11
-3.0526682206000002
 21
-32.093578860900003
 31
0.0
  0
LINE
  5
77F6
  8
0
 10
-4.2425749371999988
 20
-32.08926523840001
 30
0.0
 11
-6.3502641110720752
 21
-32.06468639591359
 31
0.0
  0
LINE
  5
77F7
  8
0
 10
-6.4549426091080253
 20
-32.062532863630103
 30
0.0
 11
-9.0487492799998694
 21
-31.996421942914012
 31
0.0
  0
LINE
  5
77F8
  8
0
 10
-9.6850492686747653
 20
-31.979082165740451
 30
0.0
 11
-11.61104847880048
 21
-31.92112752053502
 31
0.0
  0
LINE
  5
77F9
  8
0
 10
-12.423864060968979
 20
-31.89560365652877
 30
0.0
 11
-12.13089348556862
 21
-31.9048027189632
 31
0.0
  0
ARC
  5
7815
  8
0
 10
-8.57311946875895
 20
-2680.3410722817962
 30
0.0
 40
2658.2964339278892
 50
89.889473710395549
 51
90.144145355216637
  0
ARC
  5
781B
  8
0
 10
1.7062061585507711
 20
-6093.1716398758572
 30
0.0
 40
6071.1242409236902
 50
89.936917675341505
 51
90.048615468750256
  0
LINE
  5
7831
  8
0
 10
-11.60160617309999
 20
-32.146761177800002
 30
0.0
 11
-12.1054626269
 21
-32.146761177800002
 31
0.0
  0
LINE
  5
7834
  8
0
 10
-9.0456969927999982
 20
-32.146761177800002
 30
0.0
 11
-9.6674254942999998
 21
-32.146761177800002
 31
0.0
  0
LINE
  5
783C
  8
0
 10
2.9781442676322989
 20
-31.977217375375069
 30
0.0
 11
2.9847804743999959
 21
-32.146761177800002
 31
0.0
  0
LINE
  5
783D
  8
0
 10
2.9847804743999959
 20
-32.146761177800002
 30
0.0
 11
2.332898414599994
 21
-32.146761177800002
 31
0.0
  0
LINE
  5
783E
  8
0
 10
2.332898414599994
 20
-32.146761177800002
 30
0.0
 11
2.3170700534000002
 21
-31.9961643808
 31
0.0
  0
LINE
  5
783F
  8
0
 10
2.3170700534000002
 20
-31.9961643808
 30
0.0
 11
2.2472799812007831
 21
-31.296539898308019
 31
0.0
  0
ARC
  5
7845
  8
0
 10
10.81639783897821
 20
25.606003609175261
 30
0.0
 40
0.7909112514764215
 50
269.90287584631551
 51
356.11945358888789
  0
ARC
  5
7846
  8
0
 10
10.868133831649949
 20
22.661260471336391
 30
0.0
 40
0.7373625971003484
 50
0.0760214744217106
 51
96.130258403158564
  0
LINE
  5
7847
  8
0
 10
10.81505713727551
 20
24.81509349403515
 30
0.0
 11
7.4374224424223421
 21
24.697143891460328
 31
0.0
  0
LINE
  5
7848
  8
0
 10
10.78939148827552
 20
23.394406597935131
 30
0.0
 11
7.4374094911381441
 21
23.394406597935131
 31
0.0
  0
LINE
  5
7849
  8
0
 10
10.81516628042171
 20
12.37909736189623
 30
0.0
 11
7.4372988087265721
 21
12.261139573600939
 31
0.0
  0
LINE
  5
784A
  8
0
 10
10.78951512187127
 20
10.958410913953021
 30
0.0
 11
7.4372858575282113
 21
10.958410913953021
 31
0.0
  0
ARC
  5
784B
  8
0
 10
10.863828780056821
 20
13.11917111173409
 30
0.0
 40
0.7416718911148071
 50
266.2380127473063
 51
359.79190975165881
  0
ARC
  5
784C
  8
0
 10
10.868146632934041
 20
10.225265773801601
 30
0.0
 40
0.7373497888110254
 50
0.0756107664475294
 51
96.121703601499306
  0
LINE
  5
784D
  8
0
 10
11.382217659349999
 20
-10.228952060599999
 30
0.0
 11
7.4370660968999989
 21
-10.35463259997988
 31
0.0
  0
ARC
  5
7898
  8
0
 10
-19.649953790878421
 20
-16.447349048355651
 30
0.0
 40
0.034410548317432
 50
8.5155662800140348
 51
169.1035790373241
  0
LINE
  5
7899
  8
0
 10
-19.615922595815508
 20
-16.4422535995926
 30
0.0
 11
-19.58995602129999
 21
-16.904305713500001
 31
0.0
  0
LINE
  5
789A
  8
0
 10
-19.58995602129999
 20
-16.904305713500001
 30
0.0
 11
-19.714808921668691
 21
-16.911899432190591
 31
0.0
  0
ARC
  5
789B
  8
0
 10
-19.298910125316691
 20
-26.930453923980931
 30
0.0
 40
0.0674202512229834
 50
231.78284535408821
 51
299.31762969849012
  0
ARC
  5
789C
  8
0
 10
-19.202541619345951
 20
-26.886593656072769
 30
0.0
 40
0.0647812154722069
 50
25.023293023160932
 51
86.019381080416835
  0
ARC
  5
789D
  8
0
 10
-19.182593514761329
 20
-26.88203670312323
 30
0.0
 40
0.0449848000205485
 50
30.519405470758421
 51
91.480612753755906
  0
ARC
  5
789E
  8
0
 10
-19.19284956400211
 20
-26.884851275790389
 30
0.0
 40
0.0553193554006943
 50
296.43621473916181
 51
27.635035500125628
  0
LINE
  5
789F
  8
0
 10
-19.114685912599999
 20
-26.875532697699992
 30
0.0
 11
-19.138096220466871
 21
-26.876958085455581
 31
0.0
  0
ARC
  5
78A0
  8
0
 10
-28.214494044098121
 20
-26.56829309546945
 30
0.0
 40
8.8377850763913202
 50
350.66615127742068
 51
356.30576045906821
  0
ARC
  5
78A1
  8
0
 10
5.9054540744822459
 20
41.53397970774963
 30
0.0
 40
0.111723409754231
 50
3.1629670888486472
 51
33.209471701605132
  0
ARC
  5
78A2
  8
0
 10
5.9817983700973327
 20
41.541829966430527
 30
0.0
 40
0.0878006125441094
 50
142.6462193950471
 51
180.98450713135409
  0
LINE
  5
78A4
  8
0
 10
-19.19804457020026
 20
-26.821968719499981
 30
0.0
 11
-19.40932611952908
 21
-26.811387620899978
 31
0.0
  0
LINE
  5
78A5
  8
0
 10
-19.40795084368229
 20
-26.842876111045971
 30
0.0
 11
-19.183755863130681
 21
-26.837066922390431
 31
0.0
  0
LINE
  5
78A6
  8
0
 10
-19.168221318400001
 20
-26.934385916200011
 30
0.0
 11
-19.26589774802579
 21
-26.989238898414481
 31
0.0
  0
LINE
  5
7937
  8
0
 10
-19.743349780905969
 20
-18.791998128843488
 30
0.0
 11
-19.619414821296061
 21
-18.634637971812879
 31
0.0
  0
LINE
  5
7938
  8
0
 10
-19.74335350335609
 20
-18.819734104234652
 30
0.0
 11
-19.406616177293088
 21
-18.805115897938649
 31
0.0
  0
LINE
  5
793A
  8
0
 10
-19.743371305718728
 20
-18.952379505807791
 30
0.0
 11
-19.413730444196052
 21
-18.961403608412891
 31
0.0
  0
ARC
  5
793B
  8
0
 10
-16.798831572751581
 20
-14.690594705683941
 30
0.0
 40
0.2668114403025457
 50
17.85834671952761
 51
73.809592707570033
  0
CIRCLE
  5
7945
  8
0
 10
1.847880722963906
 20
-26.797336734455701
 30
0.0
 40
0.8591717233546685
  0
ARC
  5
7946
  8
0
 10
0.4930088846501805
 20
-27.205089970348531
 30
0.0
 40
0.9132428394256144
 50
341.01571936850843
 51
52.482969688990181
  0
CIRCLE
  5
7947
  8
0
 10
-8.7381649717977368
 20
-26.79733673374907
 30
0.0
 40
0.8591717233546685
  0
ARC
  5
7948
  8
0
 10
-7.3832931335384462
 20
-27.20508996982279
 30
0.0
 40
0.9132428394256144
 50
127.5170303033607
 51
198.98428062384241
  0
CIRCLE
  5
7949
  8
0
 10
-3.4451420902999992
 20
-16.6530379055
 30
0.0
 40
1.239869939499999
  0
ARC
  5
794A
  8
0
 10
-36.096588811117357
 20
-29.194059913979761
 30
0.0
 40
32.591868310968323
 50
19.28633090891336
 51
26.193934856757728
  0
ARC
  5
794B
  8
0
 10
1.8229266793580161
 20
-15.92498950913957
 30
0.0
 40
7.5822263825155369
 50
199.2863309089133
 51
215.54779444338561
  0
ARC
  5
794C
  8
0
 10
-2.9468016753152582
 20
-19.23453550880151
 30
0.0
 40
1.7791307063895101
 50
218.134197399795
 51
245.2619847073141
  0
ARC
  5
794D
  8
0
 10
-3.8844379805517439
 20
-19.288084476572411
 30
0.0
 40
1.7078342797014661
 50
294.76868880404049
 51
330.07349782196133
  0
ARC
  5
794E
  8
0
 10
-10.093221028988401
 20
-15.341626370356479
 30
0.0
 40
9.0633683402017464
 50
328.0326161640296
 51
340.5993695282861
  0
ARC
  5
794F
  8
0
 10
31.32175941805265
 20
-30.0142021625925
 30
0.0
 40
34.873937652877331
 50
155.77774919839351
 51
160.4637025336599
  0
ARC
  5
7950
  8
0
 10
-44.677335110253317
 20
6.42245811279414
 30
0.0
 40
49.425846407271052
 50
333.40284434759639
 51
334.56196282457643
  0
ARC
  5
7953
  8
0
 10
-6.1169539319127191
 20
-18.12675498769071
 30
0.0
 40
3.3994608535072701
 50
91.989195908168696
 51
102.4828610536359
  0
ARC
  5
7954
  8
0
 10
-3.4836338976533079
 20
-88.964495175868919
 30
0.0
 40
74.286119976685811
 50
87.603694414494342
 51
92.122536769082146
  0
ARC
  5
7955
  8
0
 10
-0.5298720996565393
 20
-16.435761670722439
 30
0.0
 40
1.6992581433333831
 50
73.361008126713045
 51
84.860123322207883
  0
ARC
  5
7956
  8
0
 10
-3.445674012009309
 20
-20.14350800664312
 30
0.0
 40
0.7483519549880224
 50
250.8379307207467
 51
291.70351279729039
  0
LINE
  5
7957
  8
0
 10
6.7060427034000094
 20
-30.987248256699999
 30
0.0
 11
6.686747270599998
 21
-30.5878839461
 31
0.0
  0
ARC
  5
7959
  8
0
 10
5.655567467282097
 20
-29.99750653378868
 30
0.0
 40
1.1882244214533599
 50
266.89133363231662
 51
330.20773388082893
  0
LINE
  5
7963
  8
0
 10
2.477077827499258
 20
-31.283629104890871
 30
0.0
 11
2.550644441019287
 21
-31.98438863416893
 31
0.0
  0
LINE
  5
7964
  8
0
 10
2.4795466831999979
 20
-30.603713262799999
 30
0.0
 11
2.545099562500007
 21
-31.2334865417
 31
0.0
  0
LINE
  5
7965
  8
0
 10
2.634196297358979
 20
-30.713814726685609
 30
0.0
 11
2.6521275453000062
 21
-31.2245297242
 31
0.0
  0
LINE
  5
7966
  8
0
 10
2.545099562500007
 20
-31.2334865417
 30
0.0
 11
2.550644441019287
 21
-31.98438863416893
 31
0.0
  0
LINE
  5
7967
  8
0
 10
2.6541367284192741
 20
-31.962422189868931
 30
0.0
 11
2.6521275453000062
 21
-31.2245297242
 31
0.0
  0
LINE
  5
7968
  8
0
 10
2.477077827499258
 20
-31.283629104890871
 30
0.0
 11
2.4795466831999979
 21
-30.603713262799999
 31
0.0
  0
ARC
  5
7969
  8
0
 10
2.9860118204453472
 20
-30.595488296946279
 30
0.0
 40
0.5065319193380092
 50
155.1045727493341
 51
180.9303985071171
  0
ARC
  5
796A
  8
0
 10
2.5509038008711471
 20
-30.386606220081731
 30
0.0
 40
0.0247410392714108
 50
34.69833636445393
 51
169.87511711435241
  0
ARC
  5
796B
  8
0
 10
2.2074412751346442
 20
-30.583658564754419
 30
0.0
 40
0.4206324158315815
 50
7.1866492461779901
 51
30.129076134306061
  0
ARC
  5
796C
  8
0
 10
1.584380019949152
 20
-30.676328903939559
 30
0.0
 40
1.0504853179466971
 50
357.95500662527502
 51
7.9500481428569829
  0
ARC
  5
796D
  8
0
 10
2.60315175562623
 20
-31.98254052328846
 30
0.0
 40
0.0525398287117463
 50
182.0158193230194
 51
243.3621010864675
  0
ARC
  5
796E
  8
0
 10
2.6020123203789902
 20
-31.978324753193579
 30
0.0
 40
0.0558730218595753
 50
246.34615132168969
 51
300.73707355936278
  0
ARC
  5
796F
  8
0
 10
2.602245658305208
 20
-31.982745366992329
 30
0.0
 40
0.0519949261695431
 50
303.00637473212117
 51
357.51312292209411
  0
ARC
  5
7970
  8
0
 10
2.5236799430291521
 20
-31.974029008866228
 30
0.0
 40
0.1309721004701489
 50
355.19429971395522
 51
5.0842530567662401
  0
ARC
  5
7971
  8
0
 10
2.6069445582631601
 20
-31.328558067029451
 30
0.0
 40
0.113416923029216
 50
66.523082304919285
 51
123.04441221188959
  0
LINE
  5
7972
  8
0
 10
-0.5336433166007411
 20
-31.369653676090881
 30
0.0
 11
-0.4600767030807118
 21
-32.070413205368951
 31
0.0
  0
LINE
  5
7973
  8
0
 10
-0.5311744609000006
 20
-30.68973783400001
 30
0.0
 11
-0.4656215815999932
 21
-31.31951111290002
 31
0.0
  0
LINE
  5
7974
  8
0
 10
-0.3765248467410198
 20
-30.799839297885612
 30
0.0
 11
-0.358593598799994
 21
-31.310554295399999
 31
0.0
  0
LINE
  5
7975
  8
0
 10
-0.4656215815999932
 20
-31.31951111290002
 30
0.0
 11
-0.4600767030807118
 21
-32.070413205368951
 31
0.0
  0
LINE
  5
7976
  8
0
 10
-0.3565844156807243
 20
-32.048446761068938
 30
0.0
 11
-0.358593598799994
 21
-31.310554295399999
 31
0.0
  0
LINE
  5
7977
  8
0
 10
-0.5336433166007411
 20
-31.369653676090881
 30
0.0
 11
-0.5311744609000006
 21
-30.68973783400001
 31
0.0
  0
ARC
  5
7978
  8
0
 10
-0.0247093236546525
 20
-30.681512868146289
 30
0.0
 40
0.5065319193380092
 50
155.1045727493341
 51
180.9303985071171
  0
ARC
  5
7979
  8
0
 10
-0.4598173432288517
 20
-30.472630791281741
 30
0.0
 40
0.0247410392714108
 50
34.698336364453937
 51
169.87511711435241
  0
ARC
  5
797A
  8
0
 10
-0.8032798689653558
 20
-30.669683135954429
 30
0.0
 40
0.4206324158315815
 50
7.1866492461779909
 51
30.129076134306061
  0
ARC
  5
797B
  8
0
 10
-1.426341124150845
 20
-30.762353475139559
 30
0.0
 40
1.0504853179466971
 50
357.95500662527502
 51
7.9500481428569829
  0
ARC
  5
797C
  8
0
 10
-0.4075693884737701
 20
-32.068565094488463
 30
0.0
 40
0.0525398287117463
 50
182.0158193230194
 51
243.3621010864675
  0
ARC
  5
797D
  8
0
 10
-0.4087088237210095
 20
-32.064349324393589
 30
0.0
 40
0.0558730218595753
 50
246.34615132168969
 51
300.73707355936278
  0
ARC
  5
797E
  8
0
 10
-0.4084754857947912
 20
-32.068769938192332
 30
0.0
 40
0.0519949261695431
 50
303.00637473212117
 51
357.51312292209411
  0
ARC
  5
797F
  8
0
 10
-0.4870412010708476
 20
-32.060053580066239
 30
0.0
 40
0.1309721004701489
 50
355.19429971395522
 51
5.084253056766241
  0
ARC
  5
7980
  8
0
 10
-0.4037765858368383
 20
-31.414582638229469
 30
0.0
 40
0.113416923029216
 50
66.523082304919285
 51
123.04441221188959
  0
LINE
  5
7981
  8
0
 10
-6.527736815500738
 20
-31.369130906340882
 30
0.0
 11
-6.454170201980709
 21
-32.06989043561893
 31
0.0
  0
LINE
  5
7982
  8
0
 10
-6.5252679597999981
 20
-30.689215064250011
 30
0.0
 11
-6.4597150804999908
 21
-31.318988343150011
 31
0.0
  0
LINE
  5
7983
  8
0
 10
-6.3706183456410193
 20
-30.79931652813562
 30
0.0
 11
-6.3526870976999934
 21
-31.31003152565
 31
0.0
  0
LINE
  5
7984
  8
0
 10
-6.4597150804999908
 20
-31.318988343150011
 30
0.0
 11
-6.454170201980709
 21
-32.06989043561893
 31
0.0
  0
LINE
  5
7985
  8
0
 10
-6.3506779145807233
 20
-32.047923991318932
 30
0.0
 11
-6.3526870976999934
 21
-31.31003152565
 31
0.0
  0
LINE
  5
7986
  8
0
 10
-6.527736815500738
 20
-31.369130906340882
 30
0.0
 11
-6.5252679597999981
 21
-30.689215064250011
 31
0.0
  0
ARC
  5
7987
  8
0
 10
-6.018802822554651
 20
-30.68099009839629
 30
0.0
 40
0.5065319193380092
 50
155.10457274933401
 51
180.9303985071171
  0
ARC
  5
7988
  8
0
 10
-6.4539108421288489
 20
-30.472108021531739
 30
0.0
 40
0.0247410392714108
 50
34.698336364453901
 51
169.87511711435241
  0
ARC
  5
7989
  8
0
 10
-6.7973733678653554
 20
-30.66916036620443
 30
0.0
 40
0.4206324158315815
 50
7.1866492461779892
 51
30.12907613430604
  0
ARC
  5
798A
  8
0
 10
-7.4204346230508458
 20
-30.761830705389549
 30
0.0
 40
1.0504853179466971
 50
357.95500662527502
 51
7.9500481428569847
  0
ARC
  5
798B
  8
0
 10
-6.4016628873737691
 20
-32.068042324738457
 30
0.0
 40
0.0525398287117463
 50
182.0158193230194
 51
243.36210108646759
  0
ARC
  5
798C
  8
0
 10
-6.4028023226210067
 20
-32.06382655464359
 30
0.0
 40
0.0558730218595753
 50
246.34615132168969
 51
300.73707355936278
  0
ARC
  5
798D
  8
0
 10
-6.4025689846947902
 20
-32.068247168442333
 30
0.0
 40
0.0519949261695431
 50
303.00637473212112
 51
357.51312292209411
  0
ARC
  5
798E
  8
0
 10
-6.4811346999708448
 20
-32.059530810316232
 30
0.0
 40
0.1309721004701489
 50
355.19429971395522
 51
5.084253056766241
  0
ARC
  5
798F
  8
0
 10
-6.3978700847368364
 20
-31.41405986847947
 30
0.0
 40
0.113416923029216
 50
66.523082304919271
 51
123.04441221188959
  0
LINE
  5
7990
  8
0
 10
-9.5283582860507394
 20
-31.267345182890871
 30
0.0
 11
-9.4547916725307122
 21
-31.968104712168941
 31
0.0
  0
LINE
  5
7991
  8
0
 10
-9.5258894303500021
 20
-30.587429340800011
 30
0.0
 11
-9.460336551049993
 21
-31.217202619700011
 31
0.0
  0
LINE
  5
7992
  8
0
 10
-9.3712398161910215
 20
-30.697530804685609
 30
0.0
 11
-9.353308568249993
 21
-31.2082458022
 31
0.0
  0
LINE
  5
7993
  8
0
 10
-9.460336551049993
 20
-31.217202619700011
 30
0.0
 11
-9.4547916725307122
 21
-31.968104712168941
 31
0.0
  0
LINE
  5
7994
  8
0
 10
-9.3512993851307211
 20
-31.946138267868928
 30
0.0
 11
-9.353308568249993
 21
-31.2082458022
 31
0.0
  0
LINE
  5
7995
  8
0
 10
-9.5283582860507394
 20
-31.267345182890871
 30
0.0
 11
-9.5258894303500021
 21
-30.587429340800011
 31
0.0
  0
ARC
  5
7996
  8
0
 10
-9.0194242931046524
 20
-30.57920437494629
 30
0.0
 40
0.5065319193380092
 50
155.10457274933401
 51
180.9303985071171
  0
ARC
  5
7997
  8
0
 10
-9.4545323126788521
 20
-30.370322298081739
 30
0.0
 40
0.0247410392714108
 50
34.698336364453901
 51
169.87511711435241
  0
ARC
  5
7998
  8
0
 10
-9.7979948384153541
 20
-30.56737464275443
 30
0.0
 40
0.4206324158315815
 50
7.1866492461779892
 51
30.12907613430604
  0
ARC
  5
7999
  8
0
 10
-10.421056093600839
 20
-30.660044981939549
 30
0.0
 40
1.0504853179466971
 50
357.95500662527502
 51
7.9500481428569847
  0
ARC
  5
799A
  8
0
 10
-9.4022843579237705
 20
-31.96625660128846
 30
0.0
 40
0.0525398287117463
 50
182.0158193230194
 51
243.36210108646759
  0
ARC
  5
799B
  8
0
 10
-9.4034237931710081
 20
-31.96204083119359
 30
0.0
 40
0.0558730218595753
 50
246.34615132168969
 51
300.73707355936278
  0
ARC
  5
799C
  8
0
 10
-9.4031904552447916
 20
-31.96646144499233
 30
0.0
 40
0.0519949261695431
 50
303.00637473212112
 51
357.51312292209411
  0
ARC
  5
799D
  8
0
 10
-9.4817561705208462
 20
-31.95774508686624
 30
0.0
 40
0.1309721004701489
 50
355.19429971395522
 51
5.084253056766241
  0
ARC
  5
799E
  8
0
 10
-9.3984915552868387
 20
-31.31227414502947
 30
0.0
 40
0.113416923029216
 50
66.523082304919271
 51
123.04441221188959
  0
LINE
  5
79A0
  8
0
 10
-3.6631331373987539
 20
-32.091365817515438
 30
0.0
 11
-3.6573108504
 21
-32.146761177800002
 31
0.0
  0
LINE
  5
79A1
  8
0
 10
-3.0526682206000002
 20
-32.093578860900003
 30
0.0
 11
-4.2425749345200243
 21
-32.089265238431253
 31
0.0
  0
LINE
  5
79A2
  8
0
 10
-3.052668224776792
 20
-32.093578860884847
 30
0.0
 11
-3.0507649239999992
 21
-32.146761177800002
 31
0.0
  0
LINE
  5
79A3
  8
0
 10
-3.0507649239999992
 20
-32.146761177800002
 30
0.0
 11
-4.2365779995999979
 21
-32.146761177800002
 31
0.0
  0
LINE
  5
79A4
  8
0
 10
-4.2365779995999979
 20
-32.146761177800002
 30
0.0
 11
-4.2425749371977348
 21
-32.089265238421547
 31
0.0
  0
LINE
  5
79A5
  8
0
 10
5.591130237899999
 20
-31.183982458199999
 30
0.0
 11
2.654146039
 21
-31.282331822500002
 31
0.0
  0
LINE
  5
79A6
  8
0
 10
2.4775889002529201
 20
-31.288497333631408
 30
0.0
 11
-0.3583928386541533
 21
-31.384285453899999
 31
0.0
  0
LINE
  5
79A7
  8
0
 10
-0.5321072542309527
 20
-31.384285453899999
 30
0.0
 11
-1.2048137023999981
 21
-31.384765064
 31
0.0
  0
ARC
  5
79A8
  8
0
 10
12.612354211263231
 20
317.93990946956569
 30
0.0
 40
349.59782946571039
 50
267.5759215094036
 51
267.73490682511061
  0
ARC
  5
79A9
  8
0
 10
-14.350681057904829
 20
903.89428425537574
 30
0.0
 40
935.31463068577204
 50
270.67381595158611
 51
270.73506314925169
  0
ARC
  5
79AA
  8
0
 10
-4.8923163038026827
 20
-111.7124524222852
 30
0.0
 40
80.367565698510205
 50
89.065924850595792
 51
89.739588901696379
  0
ARC
  5
79AB
  8
0
 10
-4.1117990218086931
 20
-60.569994544876202
 30
0.0
 40
29.22762492308394
 50
91.284957789317914
 51
93.086423761805591
  0
ARC
  5
79AC
  8
0
 10
-5.2559463713823087
 20
4.717273158578152
 30
0.0
 40
36.104593870128838
 50
268.25953396624328
 51
269.31834212138261
  0
LINE
  5
79AD
  8
0
 10
-6.5277246956571364
 20
-31.365793135864109
 30
0.0
 11
-9.3531113636038636
 21
-31.2806711681
 31
0.0
  0
LINE
  5
79AE
  8
0
 10
-9.5275563155410428
 20
-31.274984361180881
 30
0.0
 11
-11.863622552500001
 21
-31.198375874500002
 31
0.0
  0
LINE
  5
79AF
  8
0
 10
-11.863622552500001
 20
-31.198375874500002
 30
0.0
 11
-12.61166208835
 21
-31.175116808799999
 31
0.0
  0
ARC
  5
79B0
  8
0
 10
-12.57645732806869
 20
-30.042889363372311
 30
0.0
 40
1.1327746304213331
 50
214.30106427198251
 51
268.2190552519578
  0
LINE
  5
79BA
  8
0
 10
-11.60160617309999
 20
-32.146761177800002
 30
0.0
 11
-11.61104847880048
 21
-31.92112752053502
 31
0.0
  0
LINE
  5
79BB
  8
0
 10
-12.1054626269
 20
-32.146761177800002
 30
0.0
 11
-12.13089348556862
 21
-31.9048027189632
 31
0.0
  0
LINE
  5
79BC
  8
0
 10
-11.61104847880048
 20
-31.92112752053502
 30
0.0
 11
-12.13089348556862
 21
-31.9048027189632
 31
0.0
  0
LINE
  5
79BD
  8
0
 10
-9.6674254942999998
 20
-32.146761177800002
 30
0.0
 11
-9.6850492686747653
 21
-31.979082165740451
 31
0.0
  0
LINE
  5
79BE
  8
0
 10
-9.6850492686747653
 20
-31.979082165740451
 30
0.0
 11
-9.4509722972927594
 21
-31.986002946799999
 31
0.0
  0
LINE
  5
79BF
  8
0
 10
-9.0487492799998694
 20
-31.996421942914012
 30
0.0
 11
-9.3562078651586535
 21
-31.988734939917329
 31
0.0
  0
LINE
  5
79C0
  8
0
 10
-9.0456969927999982
 20
-32.146761177800002
 30
0.0
 11
-9.0509488749898921
 21
-31.996366949187721
 31
0.0
  0
LINE
  5
79C1
  8
0
 10
2.908965370999999
 20
-32.146761177800002
 30
0.0
 11
2.869425557510199
 21
-31.27512286175714
 31
0.0
  0
LINE
  5
79C2
  8
0
 10
-0.4967836110911649
 20
-31.7207611778
 30
0.0
 11
-2.1018850559999991
 21
-31.7207611778
 31
0.0
  0
ARC
  5
79C3
  8
0
 10
-1.5750845850110351
 20
-31.291201096983439
 30
0.0
 40
0.4337689083610301
 50
277.98805405665269
 51
347.10335827265777
  0
ARC
  5
79C4
  8
0
 10
-1.3944828148011461
 20
-32.659569651014451
 30
0.0
 40
1.1754910804563341
 50
98.023966893799724
 51
126.9984162100781
  0
ARC
  5
79C5
  8
0
 10
-0.3784524395893812
 20
-35.131874178713161
 30
0.0
 40
3.8229902245433021
 50
101.43097259779979
 51
107.9802254534919
  0
LINE
  5
79C6
  8
0
 10
-1.689758939499999
 20
-31.7207611778
 30
0.0
 11
-2.0224327455000002
 21
-31.903094393100002
 31
0.0
  0
LINE
  5
79C7
  8
0
 10
-2.0224327455000002
 20
-31.903094393100002
 30
0.0
 11
-2.0711452644999979
 21
-31.9157611778
 31
0.0
  0
LINE
  5
79C8
  8
0
 10
-2.0711452644999979
 20
-31.9157611778
 30
0.0
 11
-4.8191389837000003
 21
-31.9157611778
 31
0.0
  0
LINE
  5
79C9
  8
0
 10
-4.8191389837000003
 20
-31.9157611778
 30
0.0
 11
-4.867851491399998
 21
-31.9030943994
 31
0.0
  0
LINE
  5
79CA
  8
0
 10
-4.867851491399998
 20
-31.9030943994
 30
0.0
 11
-5.2005253085999987
 21
-31.7207611778
 31
0.0
  0
ARC
  5
79CB
  8
0
 10
-5.2844512000646837
 20
-31.223848244065731
 30
0.0
 40
0.5276492136062944
 50
197.60177905004451
 51
237.88720447869511
  0
ARC
  5
79CC
  8
0
 10
-5.3855807644972771
 20
-31.377285103063691
 30
0.0
 40
0.3439528025587593
 50
238.5688528512967
 51
266.01540566326128
  0
LINE
  5
79CD
  8
0
 10
-6.3515687354425108
 20
-31.7207611778
 30
0.0
 11
-4.7872424182999991
 21
-31.720172226799999
 31
0.0
  0
ARC
  5
79CE
  8
0
 10
-7.5028102149537412
 20
-39.265374657150709
 30
0.0
 40
8.0664753854834377
 50
72.734472367396862
 51
77.72174100133067
  0
ARC
  5
79CF
  8
0
 10
-5.2949790805210863
 20
-32.348172518011857
 30
0.0
 40
0.8075771690220003
 50
51.044547548773977
 51
76.662165493524512
  0
ARC
  5
79D0
  8
0
 10
-3.4921861244829682
 20
-31.103107413691319
 30
0.0
 40
0.0343524638540621
 50
44.701340298888383
 51
163.69672458607599
  0
ARC
  5
79D1
  8
0
 10
-3.606007415436792
 20
-31.199300536398631
 30
0.0
 40
0.183291248763659
 50
2.5332304341602279
 51
41.044398177005029
  0
ARC
  5
79D2
  8
0
 10
-2255.8995654304572
 20
-149.3578632288139
 30
0.0
 40
2255.574097654192
 50
2.9909162926306538
 51
3.0030279067563761
  0
ARC
  5
79D3
  8
0
 10
-3.390627837916294
 20
-31.166069931539571
 30
0.0
 40
0.1528718197880227
 50
151.64410776871381
 51
185.73238364844809
  0
ARC
  5
79D4
  8
0
 10
-24.102989206889209
 20
-33.245262389646527
 30
0.0
 40
20.66358692700102
 50
4.3598037280356641
 51
5.7323836484482653
  0
ARC
  5
79D5
  8
0
 10
-3.448603485033082
 20
-31.670569265090929
 30
0.0
 40
0.0507392262615227
 50
184.35980372803451
 51
3.6406119498945642
  0
ARC
  5
79D6
  8
0
 10
-3.5866395133560558
 20
-31.422816924251428
 30
0.0
 40
0.0673986193654893
 50
14.69915427093636
 51
86.202357683539873
  0
ARC
  5
79D7
  8
0
 10
-3.3463501357692271
 20
-31.42146560328127
 30
0.0
 40
0.0659871902291063
 50
94.343296144316596
 51
170.3643684865996
  0
ARC
  5
79D8
  8
0
 10
-2.9447470427142002
 20
-31.29538566057548
 30
0.0
 40
0.7710876893982497
 50
337.67855506073209
 51
1.618469398890382
  0
ARC
  5
79D9
  8
0
 10
-2.4257090348023111
 20
-31.513806878580631
 30
0.0
 40
0.2080437654729523
 50
277.4375075759433
 51
339.03435170966532
  0
LINE
  5
79DA
  8
0
 10
-2.398778862149999
 20
-31.720100296199998
 30
0.0
 11
-2.712645812299999
 21
-31.7205488486
 31
0.0
  0
ARC
  5
79DB
  8
0
 10
-2.7112265315141082
 20
-31.700771436352049
 30
0.0
 40
0.0198282725716235
 50
144.34767275089439
 51
265.89533587605013
  0
ARC
  5
79DC
  8
0
 10
-1.7126858171550821
 20
-32.417036651268951
 30
0.0
 40
1.248697434172072
 50
131.92729774281861
 51
144.3476727508943
  0
ARC
  5
79DD
  8
0
 10
-1.6876579954998541
 20
-32.444903892793413
 30
0.0
 40
1.2861537421453431
 50
121.07904525911979
 51
131.92729774281861
  0
ARC
  5
79DE
  8
0
 10
-2.687179517183135
 20
-30.96437092438363
 30
0.0
 40
0.5062175467909408
 50
311.52315178072507
 51
322.95764711398078
  0
ARC
  5
79DF
  8
0
 10
-2.2305367497363711
 20
-31.32218217643889
 30
0.0
 40
0.0745632067316435
 50
40.651835682828171
 51
134.8487298010638
  0
ARC
  5
79EA
  8
0
 10
-4.712844454010332
 20
-31.323694484721521
 30
0.0
 40
0.0602867603736954
 50
154.4699987621913
 51
205.57463188536479
  0
ARC
  5
79EB
  8
0
 10
-4.7276174627670757
 20
-31.316638623320522
 30
0.0
 40
0.0439152311892495
 50
37.82849081308251
 51
154.4699987621909
  0
ARC
  5
79EC
  8
0
 10
-5.2036530638165193
 20
-31.686268969675869
 30
0.0
 40
0.6466062684656336
 50
33.344094916768668
 51
37.828490813082531
  0
ARC
  5
79EE
  8
0
 10
-28.31676076408387
 20
-61.706003650987
 30
0.0
 40
38.498427382100637
 50
51.283355667415897
 51
52.091959499816319
  0
ARC
  5
79EF
  8
0
 10
-4.3081766553125833
 20
-31.81884817531358
 30
0.0
 40
0.167035721361903
 50
43.257434750413331
 51
64.844857671755804
  0
ARC
  5
79F0
  8
0
 10
-4.1907651397769721
 20
-31.712104218032248
 30
0.0
 40
0.0088082041631887
 50
301.17220129155021
 51
61.242911227552547
  0
ARC
  5
79F1
  8
0
 10
-4.2083326660860738
 20
-31.593216157370609
 30
0.0
 40
0.1283461988801023
 50
263.59461473183501
 51
279.92733212084931
  0
LINE
  5
79F2
  8
0
 10
-4.22265126792903
 20
-31.720761147112398
 30
0.0
 11
-4.5142025819885161
 21
-31.72076083468319
 31
0.0
  0
ARC
  5
79F3
  8
0
 10
-4.483737767528293
 20
-31.501688661822079
 30
0.0
 40
0.2211802926170959
 50
205.366569140048
 51
262.08305539497172
  0
ARC
  5
79F4
  8
0
 10
-4.066940057333766
 20
-31.24988261368118
 30
0.0
 40
0.7073653634916414
 50
188.1137611421739
 51
209.33616092271279
  0
ARC
  5
79F5
  8
0
 10
-4.511703654587782
 20
-31.41437126695709
 30
0.0
 40
0.0703475313689344
 50
102.59581454599019
 51
165.0885559558113
  0
LINE
  5
79F7
  8
0
 10
6.8654957797000122
 20
41.228238822199991
 30
0.0
 11
6.8654959440000081
 21
41.617802703791142
 31
0.0
  0
ARC
  5
79F8
  8
0
 10
6.9909665652782751
 20
41.606497262032079
 30
0.0
 40
0.125978926084175
 50
97.053989039002673
 51
174.85130789979371
  0
ARC
  5
79F9
  8
0
 10
8.2259687260560028
 20
41.773798542435607
 30
0.0
 40
1.2511873727274321
 50
92.071871142294356
 51
181.93631433097869
  0
LINE
  5
79FA
  8
0
 10
6.7560605380984189
 20
41.227878928746392
 30
0.0
 11
6.8654386373030292
 21
41.227878928746392
 31
0.0
  0
LINE
  5
7A46
  8
0
 10
6.7560605380984189
 20
41.227878928746392
 30
0.0
 11
6.7412273745452591
 21
41.22565996893109
 31
0.0
  0
LINE
  5
7A47
  8
0
 10
6.7412273745452591
 20
41.22565996893109
 30
0.0
 11
6.7412273745452591
 21
40.445582012078191
 31
0.0
  0
LINE
  5
7A48
  8
0
 10
6.9754957797314781
 20
41.607255390286809
 30
0.0
 11
6.9754957797314781
 21
-11.1467611778
 31
0.0
  0
ARC
  5
7AD6
  8
0
 10
6.9904902400777207
 20
41.607268081827712
 30
0.0
 40
0.0149944657489522
 50
91.97681505888535
 51
180.0484963454339
  0
ARC
  5
7B19
  8
0
 10
-19.720175048928731
 20
41.479645355898271
 30
0.0
 40
0.0876640744788937
 50
94.814661243197463
 51
175.11549015700601
  0
LINE
  5
7B1A
  8
0
 10
-19.807520758399981
 20
41.487109737400033
 30
0.0
 11
-19.807520758399988
 21
-11.6467611778
 31
0.0
  0
LINE
  5
7B5D
  8
0
 10
6.0170686818499597
 20
41.539810920866877
 30
0.0
 11
6.6526483834949204
 21
41.549357407964898
 31
0.0
  0
ARC
  5
7B5E
  8
0
 10
6.6538320115165872
 20
41.470554604677858
 30
0.0
 40
0.0788116919066627
 50
359.20932387762031
 51
90.86052510941073
  0
ARC
  5
7B5F
  8
0
 10
6.2707870123169371
 20
41.085111165794679
 30
0.0
 40
0.4706698497573966
 50
1.789273101676442
 51
77.780843674002199
  0
LINE
  5
7B60
  8
0
 10
6.7326361991999857
 20
41.469467045598932
 30
0.0
 11
6.732636199199999
 21
41.175805355498902
 31
0.0
  0
LINE
  5
7B61
  8
0
 10
11.413839107499999
 20
39.8059537277
 30
0.0
 11
7.4370660968999989
 21
39.8059537277
 31
0.0
  0
LINE
  5
7B62
  8
0
 10
11.6054957797
 20
39.643733841699998
 30
0.0
 11
11.605495779699989
 21
39.587794522161403
 31
0.0
  0
LINE
  5
7B63
  8
0
 10
11.605495779699989
 20
39.587794522161403
 30
0.0
 11
11.6054957797
 21
-10.0060227722
 31
0.0
  0
LINE
  5
7B64
  8
0
 10
11.27549533623691
 20
-10.262034930118
 30
0.0
 11
11.80549169275208
 21
-10.247020119067519
 31
0.0
  0
LINE
  5
7B65
  8
0
 10
11.54964546230498
 20
-10.1504958272
 30
0.0
 11
11.805495779699999
 21
-10.147004814900001
 31
0.0
  0
LINE
  5
7B66
  8
0
 10
11.6054957797
 20
-3.882266158299998
 30
0.0
 11
11.805495779699999
 21
-3.8787751452999988
 31
0.0
  0
LINE
  5
7B67
  8
0
 10
11.6054957797
 20
-3.9822813911369721
 30
0.0
 11
11.80546322019773
 21
-3.9787909464282318
 31
0.0
  0
LINE
  5
7B68
  8
0
 10
11.6054957797
 20
2.335733841699998
 30
0.0
 11
11.701370799899999
 21
2.3374073464
 31
0.0
  0
LINE
  5
7B69
  8
0
 10
11.721656331
 20
2.3377614316000002
 30
0.0
 11
11.805434521499439
 21
2.3392237854340721
 31
0.0
  0
LINE
  5
7B6A
  8
0
 10
11.6054957797
 20
2.2357186089138952
 30
0.0
 11
11.6870256893
 21
2.2371417186999989
 31
0.0
  0
LINE
  5
7B6B
  8
0
 10
11.707311220399999
 20
2.237495803999999
 30
0.0
 11
11.80543497580461
 21
2.2392085605640322
 31
0.0
  0
LINE
  5
7B6C
  8
0
 10
11.721656331
 20
2.3377614316000002
 30
0.0
 11
11.8055607773
 21
2.923300477099998
 31
0.0
  0
LINE
  5
7B6D
  8
0
 10
11.701370799899999
 20
2.3374073464
 30
0.0
 11
11.805509064300001
 21
3.0670325492999981
 31
0.0
  0
LINE
  5
7B6E
  8
0
 10
11.707311220399999
 20
2.237495803999999
 30
0.0
 11
11.6054957797
 21
1.5258533957
 31
0.0
  0
LINE
  5
7B6F
  8
0
 10
11.6870256893
 20
2.2371417186999989
 30
0.0
 11
11.6054957797
 21
1.6672857044999869
 31
0.0
  0
LINE
  5
7B70
  8
0
 10
11.805509064300001
 20
3.0670325492999981
 30
0.0
 11
11.6054957797
 21
3.8372767542999981
 31
0.0
  0
LINE
  5
7B71
  8
0
 10
11.805495779699999
 20
6.0652000326000231
 30
0.0
 11
11.686671726218281
 21
8.4551355403009456
 31
0.0
  0
LINE
  5
7B72
  8
0
 10
11.6054348253
 20
8.4537175448999982
 30
0.0
 11
11.805495779699999
 21
8.4572096219000006
 31
0.0
  0
LINE
  5
7B73
  8
0
 10
11.6054957797
 20
8.5537338416999962
 30
0.0
 11
11.805495779699999
 21
8.5572248547000012
 31
0.0
  0
LINE
  5
7B74
  8
0
 10
11.605495779699989
 20
14.67171860886303
 30
0.0
 11
11.805495779699999
 21
14.675209621900001
 31
0.0
  0
LINE
  5
7B75
  8
0
 10
11.605495779699989
 20
14.771733841699991
 30
0.0
 11
11.805495779699999
 21
14.771733841699991
 31
0.0
  0
LINE
  5
7B76
  8
0
 10
11.6054957797
 20
20.889718608863031
 30
0.0
 11
11.805495779699999
 21
20.893209621899999
 31
0.0
  0
LINE
  5
7B77
  8
0
 10
11.605495779699989
 20
20.989733841700001
 30
0.0
 11
11.805495779699999
 21
20.993224854699999
 31
0.0
  0
LINE
  5
7B78
  8
0
 10
11.6054957797
 20
27.107718608863021
 30
0.0
 11
11.805495779699999
 21
27.111209621899999
 31
0.0
  0
LINE
  5
7B79
  8
0
 10
11.6054957797
 20
27.207733841700001
 30
0.0
 11
11.805495779699999
 21
27.211224854699999
 31
0.0
  0
LINE
  5
7B7A
  8
0
 10
11.68667329030156
 20
27.209150800424091
 30
0.0
 11
11.805495779699999
 21
29.603196836286418
 31
0.0
  0
LINE
  5
7B7B
  8
0
 10
11.6054957797
 20
31.824130728299998
 30
0.0
 11
11.80543159145074
 21
32.603642507699568
 31
0.0
  0
LINE
  5
7B7C
  8
0
 10
11.80543159145074
 20
32.603642507699568
 30
0.0
 11
11.701364038199999
 21
33.327391995600017
 31
0.0
  0
LINE
  5
7B7D
  8
0
 10
11.721649595300001
 20
33.327746081299999
 30
0.0
 11
11.80543288024189
 21
32.745065691694862
 31
0.0
  0
LINE
  5
7B7E
  8
0
 10
11.721649595300001
 20
33.327746081299999
 30
0.0
 11
11.805495779699999
 21
33.329209621899999
 31
0.0
  0
LINE
  5
7B7F
  8
0
 10
11.701364038199999
 20
33.327391995500001
 30
0.0
 11
11.6054957797
 21
33.325718608869721
 31
0.0
  0
LINE
  5
7B80
  8
0
 10
11.805495779699999
 20
33.429224854700003
 30
0.0
 11
11.707304448
 21
33.427510918599999
 31
0.0
  0
LINE
  5
7B81
  8
0
 10
11.707304448
 20
33.427510918599999
 30
0.0
 11
11.605495779699989
 21
34.135550020300052
 31
0.0
  0
LINE
  5
7B82
  8
0
 10
11.6054957797
 20
33.994117892399998
 30
0.0
 11
11.687018890899999
 21
33.42715683290001
 31
0.0
  0
LINE
  5
7B83
  8
0
 10
11.687018890899999
 20
33.42715683290001
 30
0.0
 11
11.6054957797
 21
33.425733841700001
 31
0.0
  0
LINE
  5
7BCF
  8
0
 10
-1.4341825812999991
 20
10.024439581299999
 30
0.0
 11
-1.5341795856
 21
10.024389034
 31
0.0
  0
LINE
  5
7BD0
  8
0
 10
-1.4210742217999941
 20
9.9982381245999914
 30
0.0
 11
-1.5472574534999981
 21
9.9982375662000003
 31
0.0
  0
ATTDEF
  5
7C5E
  8
DEFPOINTS
 10
12.06119865070424
 20
-32.159462254372031
 30
0.0
 40
0.001
  1
VIKRELL
  3

  2
MATERIAL
 70
     0
1001
ACDBATTR
1070
     0
1070
     1
  0
ATTDEF
  5
7C5F
  8
DEFPOINTS
 10
12.06119865070424
 20
-32.157795587705372
 30
0.0
 40
0.001
  1
WHIRLPOOL AND WALL SURROUND
  3

  2
PRODUCT
 70
     0
1001
ACDBATTR
1070
     0
1070
     1
  0
ATTDEF
  5
7C60
  8
DEFPOINTS
 10
12.06119865070424
 20
-32.1561289210387
 30
0.0
 40
0.001
  1
ENSEMBLE
  3

  2
TRADENAME
 70
     0
1001
ACDBATTR
1070
     0
1070
     1
  0
ATTDEF
  5
7C61
  8
DEFPOINTS
 10
12.06119865070424
 20
-32.154462254372042
 30
0.0
 40
0.001
  1
76120120
  3

  2
MODELNUMBER
 70
     0
1001
ACDBATTR
1070
     0
1070
     1
  0
ENDSEC
  0
EOF
