  0
SECTION
  2
HEADER
  9
$ACADVER
  1
AC1009
  9
$INSBASE
 10
-83.245644100649983
 20
91.916370240141873
 30
0.0
  9
$EXTMIN
 10
-113.229670152
 20
58.666251075299989
 30
0.0
  9
$EXTMAX
 10
-53.235006187499991
 20
91.927493412206815
 30
0.0
  9
$LIMMIN
 10
0.0
 20
0.0
  9
$LIMMAX
 10
22.0
 20
17.0
  9
$ORTHOMODE
 70
     1
  9
$REGENMODE
 70
     1
  9
$FILLMODE
 70
     1
  9
$QTEXTMODE
 70
     0
  9
$MIRRTEXT
 70
     0
  9
$DRAGMODE
 70
     2
  9
$LTSCALE
 40
1.2099999999999991
  9
$OSMODE
 70
   439
  9
$ATTMODE
 70
     1
  9
$TEXTSIZE
 40
0.2
  9
$TRACEWID
 40
0.05
  9
$TEXTSTYLE
  7
STANDARD
  9
$CLAYER
  8
0
  9
$CELTYPE
  6
BYLAYER
  9
$CECOLOR
 62
   256
  9
$DIMSCALE
 40
1.0
  9
$DIMASZ
 40
0.1875
  9
$DIMEXO
 40
0.0625
  9
$DIMDLI
 40
0.8359999999999999
  9
$DIMRND
 40
0.0
  9
$DIMDLE
 40
0.0
  9
$DIMEXE
 40
0.125
  9
$DIMTP
 40
0.0
  9
$DIMTM
 40
0.0
  9
$DIMTXT
 40
0.15625
  9
$DIMCEN
 40
0.198
  9
$DIMTSZ
 40
0.0
  9
$DIMTOL
 70
     0
  9
$DIMLIM
 70
     0
  9
$DIMTIH
 70
     1
  9
$DIMTOH
 70
     1
  9
$DIMSE1
 70
     0
  9
$DIMSE2
 70
     0
  9
$DIMTAD
 70
     0
  9
$DIMZIN
 70
     0
  9
$DIMBLK
  1

  9
$DIMASO
 70
     1
  9
$DIMSHO
 70
     1
  9
$DIMPOST
  1
\X
  9
$DIMAPOST
  1

  9
$DIMALT
 70
     1
  9
$DIMALTD
 70
     2
  9
$DIMALTF
 40
25.399999999999999
  9
$DIMLFAC
 40
1.0
  9
$DIMTOFL
 70
     0
  9
$DIMTVP
 40
0.0
  9
$DIMTIX
 70
     0
  9
$DIMSOXD
 70
     0
  9
$DIMSAH
 70
     0
  9
$DIMBLK1
  1

  9
$DIMBLK2
  1

  9
$DIMSTYLE
  2
STANDARD
  9
$DIMCLRD
 70
     0
  9
$DIMCLRE
 70
     0
  9
$DIMCLRT
 70
     0
  9
$DIMTFAC
 40
1.0
  9
$DIMGAP
 40
0.09
  9
$LUNITS
 70
     2
  9
$LUPREC
 70
     4
  9
$SKETCHINC
 40
0.1
  9
$FILLETRAD
 40
0.0
  9
$AUNITS
 70
     0
  9
$AUPREC
 70
     0
  9
$MENU
  1
.
  9
$ELEVATION
 40
0.0
  9
$PELEVATION
 40
0.0
  9
$THICKNESS
 40
0.0
  9
$LIMCHECK
 70
     0
  9
$BLIPMODE
 70
     0
  9
$CHAMFERA
 40
0.0
  9
$CHAMFERB
 40
0.0
  9
$SKPOLY
 70
     0
  9
$TDCREATE
 40
2458086.7581259948
  9
$TDUPDATE
 40
2458372.6050282991
  9
$TDINDWG
 40
0.9489001736
  9
$TDUSRTIMER
 40
0.9489001157
  9
$USRTIMER
 70
     1
  9
$ANGBASE
 50
0.0
  9
$ANGDIR
 70
     0
  9
$PDMODE
 70
     0
  9
$PDSIZE
 40
0.3125
  9
$PLINEWID
 40
0.0
  9
$COORDS
 70
     1
  9
$SPLFRAME
 70
     0
  9
$SPLINETYPE
 70
     6
  9
$SPLINESEGS
 70
     8
  9
$ATTDIA
 70
     1
  9
$ATTREQ
 70
     1
  9
$HANDLING
 70
     1
  9
$HANDSEED
  5
8279
  9
$SURFTAB1
 70
     6
  9
$SURFTAB2
 70
     6
  9
$SURFTYPE
 70
     6
  9
$SURFU
 70
     6
  9
$SURFV
 70
     6
  9
$UCSNAME
  2

  9
$UCSORG
 10
0.0
 20
0.0
 30
0.0
  9
$UCSXDIR
 10
1.0
 20
0.0
 30
0.0
  9
$UCSYDIR
 10
0.0
 20
1.0
 30
0.0
  9
$PUCSNAME
  2

  9
$PUCSORG
 10
0.0
 20
0.0
 30
0.0
  9
$PUCSXDIR
 10
1.0
 20
0.0
 30
0.0
  9
$PUCSYDIR
 10
0.0
 20
1.0
 30
0.0
  9
$USERI1
 70
     0
  9
$USERI2
 70
     0
  9
$USERI3
 70
     0
  9
$USERI4
 70
     0
  9
$USERI5
 70
     0
  9
$USERR1
 40
0.0
  9
$USERR2
 40
0.0
  9
$USERR3
 40
0.0
  9
$USERR4
 40
0.0
  9
$USERR5
 40
0.0
  9
$WORLDVIEW
 70
     1
  9
$SHADEDGE
 70
     3
  9
$SHADEDIF
 70
    70
  9
$TILEMODE
 70
     1
  9
$MAXACTVP
 70
    48
  9
$PLIMCHECK
 70
     0
  9
$PEXTMIN
 10
1.0000000000000000E+020
 20
1.0000000000000000E+020
 30
1.0000000000000000E+020
  9
$PEXTMAX
 10
-1.0000000000000000E+020
 20
-1.0000000000000000E+020
 30
-1.0000000000000000E+020
  9
$PLIMMIN
 10
0.0
 20
0.0
  9
$PLIMMAX
 10
12.0
 20
9.0
  9
$UNITMODE
 70
     0
  9
$VISRETAIN
 70
     1
  9
$PLINEGEN
 70
     0
  9
$PSLTSCALE
 70
     1
  0
ENDSEC
  0
SECTION
  2
TABLES
  0
TABLE
  2
VPORT
 70
     1
  0
VPORT
  2
*ACTIVE
 70
     0
 10
0.0
 20
0.0
 11
1.0
 21
1.0
 12
-73.450757864707441
 22
71.050794527475006
 13
0.0
 23
0.0
 14
1.0
 24
1.0
 15
0.0
 25
0.0
 16
0.0
 26
0.0
 36
1.0
 17
0.0
 27
0.0
 37
0.0
 40
55.38150013462058
 41
2.0930851063829778
 42
50.0
 43
0.0
 44
0.0
 50
0.0
 51
0.0
 71
     0
 72
   100
 73
     1
 74
     1
 75
     0
 76
     0
 77
     0
 78
     0
  0
ENDTAB
  0
TABLE
  2
LTYPE
 70
     2
  0
LTYPE
  2
CONTINUOUS
 70
     0
  3
Solid line
 72
    65
 73
     0
 40
0.0
  0
LTYPE
  2
PHANTOM2
 70
     0
  3
___ _ _ ___ _ _ ___ _ _ ___ _ _
 72
    65
 73
     6
 40
1.25
 49
0.625
 49
-0.125
 49
0.125
 49
-0.125
 49
0.125
 49
-0.125
  0
ENDTAB
  0
TABLE
  2
LAYER
 70
     2
  0
LAYER
  2
0
 70
     0
 62
     7
  6
CONTINUOUS
  0
LAYER
  2
DEFPOINTS
 70
     0
 62
     7
  6
CONTINUOUS
  0
ENDTAB
  0
TABLE
  2
STYLE
 70
     2
  0
STYLE
  2
STANDARD
 70
     0
 40
0.0
 41
0.8
 50
0.0
 71
     0
 42
0.2
  3
txt
  4

  0
STYLE
  2
ANNOTATIVE
 70
     0
 40
0.0
 41
1.0
 50
0.0
 71
     0
 42
0.2
  3
txt
  4

  0
ENDTAB
  0
TABLE
  2
VIEW
 70
     0
  0
ENDTAB
  0
TABLE
  2
UCS
 70
     0
  0
ENDTAB
  0
TABLE
  2
APPID
 70
     8
  0
APPID
  2
ACAD
 70
     0
  0
APPID
  2
ACADANNOTATIVE
 70
     0
  0
APPID
  2
ACAD_MLEADERVER
 70
     0
  0
APPID
  2
ACAD_NAV_VCDISPLAY
 70
     0
  0
APPID
  2
ACAD_EXEMPT_FROM_CAD_STANDARDS
 70
     0
  0
APPID
  2
ACAD_DSTYLE_DIMJAG
 70
     0
  0
APPID
  2
ACAD_DSTYLE_DIMTALN
 70
     0
  0
APPID
  2
ACDBATTR
 70
     0
  0
ENDTAB
  0
TABLE
  2
DIMSTYLE
 70
     2
  0
DIMSTYLE
  2
STANDARD
 70
     0
  3

  4

  5

  6

  7

 40
1.0
 41
0.1875
 42
0.0625
 43
0.38
 44
0.125
 45
0.0
 46
0.0
 47
1.5
 48
1.5
140
0.15625
141
0.09
142
0.0
143
25.399999999999999
144
1.0
145
0.0
146
1.0
147
0.09
 71
     0
 72
     0
 73
     1
 74
     1
 75
     0
 76
     0
 77
     0
 78
     4
170
     0
171
     2
172
     0
173
     0
174
     0
175
     0
176
     0
177
     0
178
     0
  0
DIMSTYLE
  2
ANNOTATIVE
 70
     0
  3

  4

  5

  6

  7

 40
1.0
 41
0.18
 42
0.0625
 43
0.38
 44
0.18
 45
0.0
 46
0.0
 47
0.0
 48
0.0
140
0.18
141
0.09
142
0.0
143
25.399999999999999
144
1.0
145
0.0
146
1.0
147
0.09
 71
     0
 72
     0
 73
     1
 74
     1
 75
     0
 76
     0
 77
     0
 78
     0
170
     0
171
     2
172
     0
173
     0
174
     0
175
     0
176
     0
177
     0
178
     0
  0
ENDTAB
  0
ENDSEC
  0
SECTION
  2
BLOCKS
  0
BLOCK
  8
0
  2
$MODEL_SPACE
 70
     0
 10
0.0
 20
0.0
 30
0.0
  3
$MODEL_SPACE
  1

  0
ENDBLK
  5
8217
  8
0
  0
BLOCK
 67
     1
  8
0
  2
$PAPER_SPACE
 70
     0
 10
0.0
 20
0.0
 30
0.0
  3
$PAPER_SPACE
  1

  0
ENDBLK
  5
8213
 67
     1
  8
0
  0
ENDSEC
  0
SECTION
  2
ENTITIES
  0
LINE
  5
4C41
  8
0
 10
-53.346909491100007
 20
86.823821901154716
 30
0.0
 11
-53.433869224100008
 21
91.691251080700013
 31
0.0
  0
LINE
  5
4C42
  8
0
 10
-53.962288469741921
 20
86.744680763503013
 30
0.0
 11
-53.988516023800003
 21
87.189776361599982
 31
0.0
  0
LINE
  5
4C43
  8
0
 10
-54.311723905199727
 20
86.744680763504974
 30
0.0
 11
-54.291495482199998
 21
87.189792940499984
 31
0.0
  0
LINE
  5
4C44
  8
0
 10
-54.430088724000001
 20
60.156440337700012
 30
0.0
 11
-54.44211495886843
 21
63.741025160079438
 31
0.0
  0
LINE
  5
4C45
  8
0
 10
-54.932632962200003
 20
64.623449431199987
 30
0.0
 11
-55.218623332249997
 21
86.253599610349923
 31
0.0
  0
LINE
  5
4C46
  8
0
 10
-61.639312260800011
 20
88.566345360100001
 30
0.0
 11
-61.674745509837109
 21
90.596005664886306
 31
0.0
  0
LINE
  5
4C47
  8
0
 10
-107.9981110595
 20
59.713722522100007
 30
0.0
 11
-58.493262387299993
 21
59.713722522100007
 31
0.0
  0
LINE
  5
4C48
  8
0
 10
-113.12499301920001
 20
59.799802956299992
 30
0.0
 11
-108.6973761732
 21
59.800303642999999
 31
0.0
  0
LINE
  5
4C49
  8
0
 10
-57.791204459050057
 20
59.806060249448471
 30
0.0
 11
-53.344993783600003
 21
59.8065630388
 31
0.0
  0
LINE
  5
4C4A
  8
0
 10
-113.12500504099999
 20
59.8998029555
 30
0.0
 11
-53.345004193400001
 21
59.9065630383
 31
0.0
  0
LINE
  5
4C4B
  8
0
 10
-112.1313295952
 20
86.714296113399982
 30
0.0
 11
-106.8303954882
 21
86.716251080699976
 31
0.0
  0
LINE
  5
4C4C
  8
0
 10
-59.639616887200013
 20
86.716251080699976
 30
0.0
 11
-54.341682778699997
 21
86.716251080699976
 31
0.0
  0
LINE
  5
4C4D
  8
0
 10
-54.018474897200008
 20
87.218206047999985
 30
0.0
 11
-54.26153747570001
 21
87.218206047999985
 31
0.0
  0
LINE
  5
4C50
  8
0
 10
-57.569990560000001
 20
90.594658380799984
 30
0.0
 11
-62.420480452100001
 21
90.596250433899996
 31
0.0
  0
LINE
  5
4C51
  8
0
 10
-104.0488808908155
 20
90.596131293518695
 30
0.0
 11
-108.88365364975
 21
90.595196515950008
 31
0.0
  0
LINE
  5
4C52
  8
0
 10
-113.03418540850799
 20
91.806251080699994
 30
0.0
 11
-53.433869224100008
 21
91.691251080700013
 31
0.0
  0
LINE
  5
4C53
  8
0
 10
-53.397306906799997
 20
91.916370240141873
 30
0.0
 11
-113.1374173688
 21
91.916370240141873
 31
0.0
  0
LINE
  5
4C54
  8
0
 10
-104.7952671913938
 20
90.595986983701835
 30
0.0
 11
-104.8307001143
 21
88.566345360100001
 31
0.0
  0
LINE
  5
4C57
  8
0
 10
-111.53734713110001
 20
64.623607018800016
 30
0.0
 11
-111.26620941900001
 21
85.873028628900016
 31
0.0
  0
LINE
  5
4C58
  8
0
 10
-113.2281837065
 20
91.789946214118714
 30
0.0
 11
-113.2281837065
 21
86.516187838550536
 31
0.0
  0
ARC
  5
4C5A
  8
0
 10
-59.63540419069254
 20
88.726548267207406
 30
0.0
 40
2.0103016004787522
 50
184.5708035541478
 51
269.8799334994319
  0
CIRCLE
  5
4C5B
  8
0
 10
-61.745644091300008
 20
76.40561317689999
 30
0.0
 40
1.3874999999999991
  0
ARC
  5
4C5C
  8
0
 10
-54.261537477499992
 20
87.188206047999984
 30
0.0
 40
0.03
 50
89.999996489200129
 51
176.99954385080011
  0
ARC
  5
4C5D
  8
0
 10
-54.018474897600008
 20
87.188206047999984
 30
0.0
 40
0.03
 50
3.0004561491998918
 51
89.999999368499203
  0
ARC
  5
4C5E
  8
0
 10
-106.8347321714879
 20
88.726682280048465
 30
0.0
 40
2.0104358766535091
 50
270.12359202552108
 51
355.42567092661028
  0
LINE
  5
4C61
  8
0
 10
-53.235007111100003
 20
86.656296736599984
 30
0.0
 11
-53.235006187499991
 21
58.666251075299989
 31
0.0
  0
LINE
  5
4C62
  8
0
 10
-53.235006187499991
 20
58.666251075299989
 30
0.0
 11
-53.34500618749999
 21
58.668172308199999
 31
0.0
  0
LINE
  5
4C63
  8
0
 10
-53.34500618749999
 20
58.668172308199999
 30
0.0
 11
-53.345005115500001
 21
86.515294778200001
 31
0.0
  0
LINE
  5
4C64
  8
0
 10
-53.345005115500001
 20
86.515294778200001
 30
0.0
 11
-53.235007111100003
 21
86.515294778200001
 31
0.0
  0
LINE
  5
4C65
  8
0
 10
-53.346909491100007
 20
86.823821901154716
 30
0.0
 11
-53.235006187499991
 21
86.826793957859977
 31
0.0
  0
LINE
  5
4C66
  8
0
 10
-54.84719568819483
 20
86.839069431863592
 30
0.0
 11
-54.864756329600013
 21
87.730117903399986
 31
0.0
  0
ARC
  5
4C67
  8
0
 10
-57.709103220868244
 20
87.753618224354057
 30
0.0
 40
2.8444439707879829
 50
359.52662645493223
 51
87.196728328725456
  0
ARC
  5
4C68
  8
0
 10
-62.411673324719906
 20
90.456183786819153
 30
0.0
 40
0.1403432617447692
 50
93.597914222064318
 51
147.4381284478311
  0
LINE
  5
4C69
  8
0
 10
-62.529956133649989
 20
90.531717939550006
 30
0.0
 11
-62.617080138899972
 21
90.415149371599981
 31
0.0
  0
ARC
  5
4C6A
  8
0
 10
-62.917591350939311
 20
90.760599177951875
 30
0.0
 40
0.4578674014055875
 50
264.24568554910138
 51
311.02042550054898
  0
LINE
  5
4C6B
  8
0
 10
-62.9634985028
 20
90.305038983600014
 30
0.0
 11
-63.27593328375
 21
90.316780142350012
 31
0.0
  0
LINE
  5
4C6C
  8
0
 10
-63.27593328375
 20
90.316780142350012
 30
0.0
 11
-103.1862632803
 21
90.316768311553574
 31
0.0
  0
ARC
  5
4C6D
  8
0
 10
-108.76129760811671
 20
87.753772900488457
 30
0.0
 40
2.8440568143809282
 50
92.465720489776103
 51
180.4765556915755
  0
ARC
  5
4C6E
  8
0
 10
-113.03468245040671
 20
91.746816602447808
 30
0.0
 40
0.1982495889341774
 50
121.21225788346671
 51
167.43470419361489
  0
LINE
  5
4C6F
  8
0
 10
-113.2281837065
 20
86.516187838550536
 30
0.0
 11
-113.2281837065
 21
58.66637024014188
 31
0.0
  0
LINE
  5
4C70
  8
0
 10
-113.2281837065
 20
58.66637024014188
 30
0.0
 11
-113.12500618590001
 21
58.668172308300008
 31
0.0
  0
LINE
  5
4C71
  8
0
 10
-113.12500618590001
 20
58.668172308300008
 30
0.0
 11
-113.1250072457
 21
86.514522087299994
 31
0.0
  0
LINE
  5
4C72
  8
0
 10
-113.1250072457
 20
86.514522087299994
 30
0.0
 11
-113.229670152
 21
86.516211836741888
 31
0.0
  0
LINE
  5
4C74
  8
0
 10
-113.1231028839
 20
86.824331315999984
 30
0.0
 11
-113.03418540850799
 21
91.806251080699994
 31
0.0
  0
ARC
  5
4C75
  8
0
 10
-103.76555196570401
 20
104.0623007469305
 30
0.0
 40
13.757733727363609
 50
270.87269209564749
 51
272.41323265035851
  0
ARC
  5
4C76
  8
0
 10
-103.5757065461612
 20
90.707034781613203
 30
0.0
 40
0.4013554736234376
 50
206.84987560383431
 51
272.81275183775602
  0
ARC
  5
4C77
  8
0
 10
-104.060804478005
 20
90.447335032411914
 30
0.0
 40
0.1492732368873308
 50
31.694110792494769
 51
85.418470059032046
  0
ARC
  5
4C7B
  8
0
 10
-131.01990172332179
 20
86.952031402355956
 30
0.0
 40
19.783139453558611
 50
356.87344885107632
 51
357.88236961950997
  0
LINE
  5
4C7C
  8
0
 10
-111.53734713110001
 20
64.623607018800016
 30
0.0
 11
-111.5296849791
 21
64.299185531399999
 31
0.0
  0
ARC
  5
4C7D
  8
0
 10
-111.9444441291584
 20
64.248846246376729
 30
0.0
 40
0.4178028197294286
 50
278.2497575651131
 51
6.9201372641558621
  0
ARC
  5
4C7E
  8
0
 10
-111.88867141012931
 20
63.695218250402611
 30
0.0
 40
0.140210838917772
 50
88.292794724893227
 51
176.98269321858251
  0
LINE
  5
4C7F
  8
0
 10
-112.0286878719571
 20
63.70259861402797
 30
0.0
 11
-112.0575239967
 21
60.14992367289998
 31
0.0
  0
ARC
  5
4C80
  8
0
 10
-112.3075054535861
 20
60.149876862662737
 30
0.0
 40
0.2499814612688435
 50
270.01091736406943
 51
0.0107289117941724
  0
ARC
  5
4C81
  8
0
 10
-108.5486025323931
 20
59.927700582231893
 30
0.0
 40
0.1958662205062953
 50
188.0421666034288
 51
258.81553102149343
  0
ARC
  5
4C82
  8
0
 10
-108.2050156633987
 20
63.036950117496993
 30
0.0
 40
3.3233742923333591
 50
263.40694964181529
 51
271.20732557911469
  0
ARC
  5
4C83
  8
0
 10
-153.39821356556479
 20
-10437.685775113499
 30
0.0
 40
10497.49767241068
 50
89.752203577141415
 51
89.752950682411367
  0
ARC
  5
4C84
  8
0
 10
-57.951725356807529
 20
59.93602925334082
 30
0.0
 40
0.2065403122628307
 50
278.79587426579951
 51
351.65831867468358
  0
ARC
  5
4C85
  8
0
 10
-58.256245069546878
 20
63.169001771917053
 30
0.0
 40
3.4534779651344838
 50
269.97067223556678
 51
275.58503631557812
  0
ARC
  5
4C86
  8
0
 10
-58.48869357951267
 20
74.476142635879341
 30
0.0
 40
14.76242082077739
 50
269.98226758260171
 51
270.89535272684941
  0
ARC
  5
4C87
  8
0
 10
-54.166779989592847
 20
60.169778331828461
 30
0.0
 40
0.2636463387341207
 50
182.89985825310779
 51
267.10441167424801
  0
ARC
  5
4C88
  8
0
 10
-54.572709931276393
 20
63.68435492250179
 30
0.0
 40
0.1423606780165803
 50
23.457897149960321
 51
80.413748007131048
  0
ARC
  5
4C89
  8
0
 10
-54.519334648854418
 20
64.239061243510491
 30
0.0
 40
0.4153943570193674
 50
191.2328940213913
 51
265.90442273757043
  0
ARC
  5
4C8A
  8
0
 10
-52.029213721930333
 20
64.427333941807973
 30
0.0
 40
2.9100351492632481
 50
176.13574668199581
 51
185.30768844709829
  0
ARC
  5
4C8B
  8
0
 10
-54.768363322963793
 20
86.240896911879659
 30
0.0
 40
0.450439157390702
 50
85.710481743521314
 51
178.38400480461081
  0
LINE
  5
4C8E
  8
0
 10
-61.569817233983727
 20
86.523104472942194
 30
0.0
 11
-98.425231303199993
 21
85.448174452899977
 31
0.0
  0
ARC
  5
4C8F
  8
0
 10
-98.214307122204744
 20
83.416496190232806
 30
0.0
 40
2.0425977511793461
 50
95.927083113518108
 51
163.74986169818979
  0
ARC
  5
4C90
  8
0
 10
-63.74541861780834
 20
76.405384769794566
 30
0.0
 40
37.210665313454491
 50
168.24205885432579
 51
191.77089217356931
  0
ARC
  5
4C91
  8
0
 10
-98.215974928320776
 20
69.382582054993236
 30
0.0
 40
2.0383841971891541
 50
196.1834580613961
 51
264.16547960095357
  0
ARC
  5
4C92
  8
0
 10
553.16722713169042
 20
21945.430203742239
 30
0.0
 40
21887.776390135161
 50
268.29407534911769
 51
268.39059305953901
  0
ARC
  5
4C93
  8
0
 10
-61.57233963616153
 20
68.331455459384472
 30
0.0
 40
2.0432991521956581
 50
270.13489171040948
 51
344.7177075191758
  0
ARC
  5
4C94
  8
0
 10
-96.488670157047267
 20
76.401684508910947
 30
0.0
 40
37.878619692484939
 50
346.86341901526703
 51
13.14952723470793
  0
ARC
  5
4C95
  8
0
 10
-61.573507309243851
 20
84.480671024219333
 30
0.0
 40
2.0424367821593341
 50
15.276606907862909
 51
89.896483526267545
  0
ARC
  5
4C96
  8
0
 10
-73.078700118673311
 20
81.007386952678743
 30
0.0
 40
6.3353497860441292
 50
84.95210225297231
 51
98.631185403679851
  0
ARC
  5
4C97
  8
0
 10
-74.260251088467783
 20
87.155546490208138
 30
0.0
 40
0.0491481584898156
 50
102.1750434659412
 51
255.2702278458604
  0
ARC
  5
4C98
  8
0
 10
-73.857477248897396
 20
86.190509909344513
 30
0.0
 40
1.0940811666208321
 50
99.044483505460477
 51
112.185897046166
  0
ARC
  5
4C99
  8
0
 10
-73.703339349836298
 20
88.689480245870911
 30
0.0
 40
1.6808517439538899
 50
250.19855259464001
 51
273.41908124979261
  0
ARC
  5
4C9A
  8
0
 10
-73.398956582144081
 20
93.00567637461323
 30
0.0
 40
5.9975311489570204
 50
268.04943921211191
 51
277.94428826292773
  0
ARC
  5
4C9B
  8
0
 10
-72.638257547866715
 20
86.055266280166009
 30
0.0
 40
1.268306410750474
 50
71.096963896466633
 51
84.707205741189696
  0
ARC
  5
4C9C
  8
0
 10
-72.243178063263287
 20
87.205940082219414
 30
0.0
 40
0.0517070935079169
 50
290.25260812679682
 51
72.195320034262338
  0
ARC
  5
4C9D
  8
0
 10
-72.761986906850609
 20
88.480922580188306
 30
0.0
 40
1.4281766314079181
 50
277.7240491079445
 51
292.0737222251617
  0
ARC
  5
4C9E
  8
0
 10
-73.361396175024353
 20
91.922567797320966
 30
0.0
 40
4.7720806453192077
 50
259.76390564585188
 51
283.03387970774122
  0
ARC
  5
4C9F
  8
0
 10
-92.025938628909799
 20
80.425429241752269
 30
0.0
 40
6.3353497860441292
 50
84.95210225297231
 51
98.631185403679851
  0
ARC
  5
4CA0
  8
0
 10
-93.207489598704242
 20
86.573588779281707
 30
0.0
 40
0.0491481584898156
 50
102.1750434659412
 51
255.2702278458604
  0
ARC
  5
4CA1
  8
0
 10
-92.804715759133842
 20
85.60855219841801
 30
0.0
 40
1.0940811666208321
 50
99.044483505460477
 51
112.185897046166
  0
ARC
  5
4CA2
  8
0
 10
-92.650577860072744
 20
88.107522534944465
 30
0.0
 40
1.6808517439538899
 50
250.19855259464001
 51
273.41908124979261
  0
ARC
  5
4CA3
  8
0
 10
-92.346195092380555
 20
92.423718663686756
 30
0.0
 40
5.9975311489570204
 50
268.04943921211191
 51
277.94428826292773
  0
ARC
  5
4CA4
  8
0
 10
-91.585496058103189
 20
85.473308569239535
 30
0.0
 40
1.268306410750474
 50
71.096963896466704
 51
84.707205741189696
  0
ARC
  5
4CA5
  8
0
 10
-91.190416573499775
 20
86.623982371292925
 30
0.0
 40
0.0517070935079169
 50
290.25260812679682
 51
72.195320034262338
  0
ARC
  5
4CA6
  8
0
 10
-91.709225417087083
 20
87.898964869261832
 30
0.0
 40
1.4281766314079181
 50
277.7240491079445
 51
292.0737222251617
  0
ARC
  5
4CA7
  8
0
 10
-92.308634685260785
 20
91.340610086394463
 30
0.0
 40
4.7720806453192077
 50
259.76390564585188
 51
283.03387970774122
  0
ARC
  5
4CA8
  8
0
 10
-101.57649502487391
 20
81.232577933936739
 30
0.0
 40
0.1921268010767079
 50
32.875091250197038
 51
132.98063835814739
  0
ARC
  5
4CA9
  8
0
 10
-100.5437881308535
 20
80.302181690202758
 30
0.0
 40
1.5814910945233911
 50
137.37637878218661
 51
209.9616376264068
  0
ARC
  5
4CAA
  8
0
 10
-101.7504216003328
 20
79.648276651544592
 30
0.0
 40
0.2126257923148593
 50
219.73671228854761
 51
328.62391328353772
  0
ARC
  5
4CAB
  8
0
 10
-103.2587880306977
 20
80.588192793708672
 30
0.0
 40
1.989865300826954
 50
328.13054091578653
 51
22.101173597638329
  0
ARC
  5
4CAC
  8
0
 10
-102.0101507046968
 20
80.954159155654864
 30
0.0
 40
0.6015054355684947
 50
2.6808962663625402
 51
50.444118866410292
  0
ARC
  5
4CAD
  8
0
 10
-102.029625773013
 20
79.911139119801561
 30
0.0
 40
0.4913816909119788
 50
292.36160779836308
 51
348.16695322057723
  0
ARC
  5
4CAE
  8
0
 10
-103.8074134571816
 20
80.673266670722811
 30
0.0
 40
2.4179389008581671
 50
339.09188572702908
 51
7.3428238896659384
  0
ARC
  5
4CAF
  8
0
 10
-101.7271391220598
 20
73.24651126975391
 30
0.0
 40
0.1889632827204419
 50
43.469666408918322
 51
146.3919303221918
  0
ARC
  5
4CB0
  8
0
 10
-100.9530766297741
 20
72.712269402089419
 30
0.0
 40
1.1294640128190381
 50
145.55542597537561
 51
178.6856410732633
  0
ARC
  5
4CB1
  8
0
 10
-100.27248859488689
 20
72.617427946196344
 30
0.0
 40
1.813778659912429
 50
176.18281612578741
 51
216.87739882723409
  0
ARC
  5
4CB2
  8
0
 10
-101.5526766257647
 20
71.663247300172941
 30
0.0
 40
0.2171775290522683
 50
218.1906348720228
 51
346.9724024779992
  0
ARC
  5
4CB3
  8
0
 10
-103.48938592865861
 20
72.274883923015693
 30
0.0
 40
2.2475682530309071
 50
342.90754365372402
 51
23.701103310986241
  0
ARC
  5
4CB4
  8
0
 10
-102.1698274458173
 20
72.749898645743855
 30
0.0
 40
0.8537232309939185
 50
30.12161452432613
 51
47.220900106160961
  0
ARC
  5
4CB5
  8
0
 10
-102.137149803608
 20
72.857822528328583
 30
0.0
 40
0.6542503665259914
 50
18.158552752556961
 51
59.215170361311039
  0
ARC
  5
4CB6
  8
0
 10
-103.7393691873832
 20
72.22644409480759
 30
0.0
 40
2.3755745224511351
 50
346.51883411101721
 51
20.585776621910369
  0
ARC
  5
4CB7
  8
0
 10
-101.7556749968908
 20
71.746548638365994
 30
0.0
 40
0.3346885066915352
 50
297.9826966009378
 51
347.24172216460852
  0
ARC
  5
4CB8
  8
0
 10
-70.923467953589153
 20
76.42249856554767
 30
0.0
 40
39.034027449859302
 50
164.71052907366081
 51
197.1023618405699
  0
ARC
  5
4CB9
  8
0
 10
-105.9985100630782
 20
65.837346457702765
 30
0.0
 40
2.4052385526132549
 50
201.81887633913891
 51
277.16644420597243
  0
LINE
  5
4CBA
  8
0
 10
-105.6984513315997
 20
63.45089778810172
 30
0.0
 11
-59.961606613900003
 21
63.451036542700002
 31
0.0
  0
ARC
  5
4CBB
  8
0
 10
-59.955419040406369
 20
65.930438182852484
 30
0.0
 40
2.479409360968198
 50
269.85701344030332
 51
342.34720648211101
  0
ARC
  5
4CBC
  8
0
 10
-86.639340347888947
 20
76.383139003373472
 30
0.0
 40
30.831888231539999
 50
353.99659596754918
 51
6.5523233939828316
  0
ARC
  5
4CBD
  8
0
 10
-95.552275921869779
 20
75.764703871099343
 30
0.0
 40
39.759214072378981
 50
5.972046654604525
 51
15.98864067291467
  0
ARC
  5
4CBE
  8
0
 10
-92.558350035334001
 20
76.41395522266842
 30
0.0
 40
36.726373044046468
 50
342.18637808536232
 51
354.91459320594407
  0
ARC
  5
4CC7
  8
0
 10
-103.12316598164929
 20
86.048281567426756
 30
0.0
 40
2.6045309299778312
 50
86.513918599304176
 51
137.7336934780289
  0
ARC
  5
4CC8
  8
0
 10
-67.622198625120248
 20
76.437514186860284
 30
0.0
 40
39.245802258282879
 50
163.73077650105259
 51
196.0216022130565
  0
ARC
  5
4CC9
  8
0
 10
-103.2644365295874
 20
66.337150255113727
 30
0.0
 40
2.2040830729483489
 50
199.3822898275275
 51
277.88531454499628
  0
ARC
  5
4CCA
  8
0
 10
345.82706390062441
 20
557361.20152868482
 30
0.0
 40
557272.73424978857
 50
269.95385763455403
 51
269.95810640965362
  0
ARC
  5
4CCB
  8
0
 10
-438.4463191598735
 20
363699.12639858469
 30
0.0
 40
363635.12724742881
 50
270.0528602261075
 51
270.0595543366158
  0
ARC
  5
4CCC
  8
0
 10
-60.483441923237713
 20
66.690624446294208
 30
0.0
 40
2.4950472261078409
 50
270.14717008201058
 51
343.41389535767547
  0
ARC
  5
4CCD
  8
0
 10
-93.392535883261871
 20
76.401174083386664
 30
0.0
 40
36.806892404049222
 50
343.5502356600216
 51
16.275037511152458
  0
LINE
  5
4CCE
  8
0
 10
-58.423483434399998
 20
82.476981891000008
 30
0.0
 11
-58.481808169100013
 21
82.520301768199985
 31
0.0
  0
LINE
  5
4CCF
  8
0
 10
-58.481808169100013
 20
82.520301768199985
 30
0.0
 11
-58.517359767799988
 21
82.479414315500009
 31
0.0
  0
LINE
  5
4CD0
  8
0
 10
-58.517359767799988
 20
82.479414315500009
 30
0.0
 11
-58.539766183899999
 21
82.357148290699982
 31
0.0
  0
LINE
  5
4CD1
  8
0
 10
-58.423483434399998
 20
82.476981891000008
 30
0.0
 11
-58.361715393800011
 21
82.354167975400003
 31
0.0
  0
ARC
  5
4CD2
  8
0
 10
-53.830198076221293
 20
82.308748339435283
 30
0.0
 40
4.709816802822278
 50
179.41119541092041
 51
196.6972599393288
  0
ARC
  5
4CD3
  8
0
 10
-61.970535890566779
 20
81.129308175169228
 30
0.0
 40
3.81101914297281
 50
357.35050394083078
 51
18.747584273982088
  0
LINE
  5
4CD4
  8
0
 10
-58.163590691399953
 20
80.953140191001182
 30
0.0
 11
-58.191004574300003
 21
80.830087672699989
 31
0.0
  0
LINE
  5
4CD5
  8
0
 10
-58.191004574300003
 20
80.830087672699989
 30
0.0
 11
-58.228511331499988
 21
80.788730022000024
 31
0.0
  0
LINE
  5
4CD6
  8
0
 10
-58.228511331499988
 20
80.788730022000024
 30
0.0
 11
-58.2846448528
 21
80.832014993900003
 31
0.0
  0
LINE
  5
4CD7
  8
0
 10
-58.2846448528
 20
80.832014993900003
 30
0.0
 11
-58.341431275899993
 21
80.955548674099987
 31
0.0
  0
ARC
  5
4CD8
  8
0
 10
-53.563608100359168
 20
82.364369284667973
 30
0.0
 40
4.820561243356388
 50
179.59347201986111
 51
197.2425270167887
  0
LINE
  5
4CD9
  8
0
 10
-58.162747320600012
 20
71.860451095600013
 30
0.0
 11
-58.190462205599999
 21
71.983018163800025
 31
0.0
  0
LINE
  5
4CDA
  8
0
 10
-58.190462205599999
 20
71.983018163800025
 30
0.0
 11
-58.230013634649993
 21
72.023412360700021
 31
0.0
  0
LINE
  5
4CDB
  8
0
 10
-58.230013634649993
 20
72.023412360700021
 30
0.0
 11
-58.284300041199998
 21
71.978975055500001
 31
0.0
  0
LINE
  5
4CDC
  8
0
 10
-58.284300041199998
 20
71.978975055500001
 30
0.0
 11
-58.340894848799991
 21
71.855079615699992
 31
0.0
  0
ARC
  5
4CDD
  8
0
 10
-53.956918845900042
 20
70.522935338276056
 30
0.0
 40
4.5819050590203352
 50
163.09772037804541
 51
180.871280826206
  0
ARC
  5
4CDE
  8
0
 10
-61.889570551410671
 20
71.670216067272435
 30
0.0
 40
3.7316753288185391
 50
341.05114911238371
 51
2.9221166955532332
  0
LINE
  5
4CDF
  8
0
 10
-58.538294145400002
 20
70.453262280300407
 30
0.0
 11
-58.515599475500011
 21
70.331538564400006
 31
0.0
  0
LINE
  5
4CE0
  8
0
 10
-58.515599475500011
 20
70.331538564400006
 30
0.0
 11
-58.477906690499992
 21
70.291544909900011
 31
0.0
  0
LINE
  5
4CE1
  8
0
 10
-58.477906690499992
 20
70.291544909900011
 30
0.0
 11
-58.4216648337
 21
70.335640065299984
 31
0.0
  0
LINE
  5
4CE2
  8
0
 10
-58.4216648337
 20
70.335640065299984
 30
0.0
 11
-58.360119036900002
 21
70.458451747600009
 31
0.0
  0
ARC
  5
4CE3
  8
0
 10
-53.449545807655753
 20
70.431716235998024
 30
0.0
 40
4.9319828536115669
 50
162.9935158808041
 51
180.18512020855849
  0
LINE
  5
4CE4
  8
0
 10
-72.177043828699979
 20
65.601491751200001
 30
0.0
 11
-72.190019907534264
 21
65.629479982169414
 31
0.0
  0
LINE
  5
4CE5
  8
0
 10
-72.190019907534264
 20
65.629479982169414
 30
0.0
 11
-72.222945023699992
 21
65.651480553400006
 31
0.0
  0
LINE
  5
4CE6
  8
0
 10
-72.177043828699979
 20
65.601491751200001
 30
0.0
 11
-72.189278681499999
 21
65.576684524099974
 31
0.0
  0
LINE
  5
4CE7
  8
0
 10
-72.189278681499999
 20
65.576684524099974
 30
0.0
 11
-72.225026246499993
 21
65.553632385000014
 31
0.0
  0
ARC
  5
4CE8
  8
0
 10
-73.374557828321315
 20
61.277697857729819
 30
0.0
 40
4.522851658048463
 50
75.248873928528496
 51
100.697939716495
  0
LINE
  5
4CE9
  8
0
 10
-74.214140578800098
 20
65.721939966999997
 30
0.0
 11
-74.270223268300015
 21
65.700430630400007
 31
0.0
  0
LINE
  5
4CEA
  8
0
 10
-74.270223268300015
 20
65.700430630400007
 30
0.0
 11
-74.304812663299998
 21
65.677291226400001
 31
0.0
  0
LINE
  5
4CEB
  8
0
 10
-74.304812663299998
 20
65.677291226400001
 30
0.0
 11
-74.3161505761
 21
65.653750268300001
 31
0.0
  0
LINE
  5
4CEC
  8
0
 10
-74.3161505761
 20
65.653750268300001
 30
0.0
 11
-74.304092497499994
 21
65.629192961499996
 31
0.0
  0
LINE
  5
4CED
  8
0
 10
-74.304092497499994
 20
65.629192961499996
 30
0.0
 11
-74.268187900100003
 21
65.604811786499994
 31
0.0
  0
LINE
  5
4CEE
  8
0
 10
-74.268187900100003
 20
65.604811786499994
 30
0.0
 11
-74.209679344470231
 21
65.581300247381932
 31
0.0
  0
ARC
  5
4CEF
  8
0
 10
-73.117628598326675
 20
70.729427475184877
 30
0.0
 40
5.2626788602192676
 50
258.02361452331962
 51
279.1735935878686
  0
ARC
  5
4CF0
  8
0
 10
-73.358103152635294
 20
60.899636380787847
 30
0.0
 40
4.75848280130052
 50
76.88804263129505
 51
100.30916547989121
  0
LINE
  5
4CF1
  8
0
 10
-72.225026246499993
 20
65.553632385000014
 30
0.0
 11
-72.278619597854217
 21
65.534059087579919
 31
0.0
  0
LINE
  5
4CF2
  8
0
 10
-93.412609982299998
 20
66.283079625200003
 30
0.0
 11
-93.450050714200003
 21
66.259576557799974
 31
0.0
  0
LINE
  5
4CF3
  8
0
 10
-93.450050714200003
 20
66.259576557799974
 30
0.0
 11
-93.462388183400023
 21
66.23589836189997
 31
0.0
  0
LINE
  5
4CF4
  8
0
 10
-93.462388183400023
 20
66.23589836189997
 30
0.0
 11
-93.449813888400001
 21
66.2119528968
 31
0.0
  0
LINE
  5
4CF5
  8
0
 10
-93.449813888400001
 20
66.2119528968
 30
0.0
 11
-93.412384038699983
 21
66.188390800299985
 31
0.0
  0
ARC
  5
4CF6
  8
0
 10
-92.363136517477869
 20
61.154042206971361
 30
0.0
 40
5.2353050905324707
 50
76.461754986834592
 51
101.56390685133439
  0
LINE
  5
4CF7
  8
0
 10
-91.137581070099969
 20
66.24387847509999
 30
0.0
 11
-91.076210442000004
 21
66.21796486689999
 31
0.0
  0
LINE
  5
4CF8
  8
0
 10
-91.076210442000004
 20
66.21796486689999
 30
0.0
 11
-91.038910388899993
 21
66.192347793799996
 31
0.0
  0
LINE
  5
4CF9
  8
0
 10
-91.038910388899993
 20
66.192347793799996
 30
0.0
 11
-91.026410047499994
 21
66.167584949000002
 31
0.0
  0
LINE
  5
4CFA
  8
0
 10
-91.026410047499994
 20
66.167584949000002
 30
0.0
 11
-91.038538603099994
 21
66.144466477799995
 31
0.0
  0
LINE
  5
4CFB
  8
0
 10
-91.038538603099994
 20
66.144466477799995
 30
0.0
 11
-91.076204828799987
 21
66.122389126000002
 31
0.0
  0
LINE
  5
4CFC
  8
0
 10
-91.076204828799987
 20
66.122389126000002
 30
0.0
 11
-91.13815306299999
 21
66.102609723500009
 31
0.0
  0
ARC
  5
4CFD
  8
0
 10
-92.045979220609652
 20
73.10933948185037
 30
0.0
 40
7.0652961890492012
 50
259.3563344457051
 51
277.38239501128169
  0
LINE
  5
4CFE
  8
0
 10
-93.412384038699983
 20
66.188390800299985
 30
0.0
 11
-93.350942250799861
 21
66.165602611200001
 31
0.0
  0
ARC
  5
4CFF
  8
0
 10
-92.394099420608015
 20
60.770214429501713
 30
0.0
 40
5.4781113513737587
 50
76.75201838656514
 51
100.0159001394988
  0
LINE
  5
4D00
  8
0
 10
-101.9178611176
 20
86.656834674799995
 30
0.0
 11
-61.500809133169348
 21
87.977163902898624
 31
0.0
  0
ARC
  5
4D01
  8
0
 10
-101.80568989301069
 20
81.086923602182125
 30
0.0
 40
5.5710404540352592
 50
91.153711256875468
 51
126.685621132805
  0
ARC
  5
4D02
  8
0
 10
-109.8283770957795
 20
90.517516485207366
 30
0.0
 40
6.8314875738413363
 50
310.49145059689818
 51
313.40674863742538
  0
ARC
  5
4D03
  8
0
 10
-104.0110219934011
 20
81.226689835522208
 30
0.0
 40
4.322170625864727
 50
108.6396915043908
 51
115.862996196617
  0
LINE
  5
4D04
  8
0
 10
-101.9152798272
 20
66.145322246900008
 30
0.0
 11
-60.55563393149999
 21
64.804209190099968
 31
0.0
  0
ARC
  5
4D05
  8
0
 10
-60.491223559068118
 20
66.770149961587606
 30
0.0
 40
1.9669956311781871
 50
268.12348218608167
 51
343.8383391978868
  0
ARC
  5
4D06
  8
0
 10
-93.44291478845777
 20
76.402366711692864
 30
0.0
 40
36.297641006646998
 50
343.71284799569588
 51
16.507898001802619
  0
ARC
  5
4D07
  8
0
 10
-102.0052898847339
 20
71.097004023224315
 30
0.0
 40
4.9524997955012191
 50
227.63558921128549
 51
271.04138931556281
  0
ARC
  5
4D08
  8
0
 10
-106.3228107809569
 20
66.012046484093986
 30
0.0
 40
1.730197702034721
 50
55.487301476455173
 51
75.152418982969948
  0
LINE
  5
4D09
  8
0
 10
-104.8168188666
 20
89.361480388699988
 30
0.0
 11
-61.6533321816
 21
89.369423757800007
 31
0.0
  0
ARC
  5
4D0A
  8
0
 10
-53.406914635068851
 20
91.74315295241486
 30
0.0
 40
0.173483535847052
 50
7.7266293996252529
 51
86.825266084712737
  0
CIRCLE
  5
4D10
  8
0
 10
-61.745644091300008
 20
76.40561317689999
 30
0.0
 40
1.9204597749000001
  0
ARC
  5
4DC9
  8
0
 10
-83.248220773603805
 20
58.889680398877893
 30
0.0
 40
4.7914722308257529
 50
83.88090554436134
 51
96.107793425541516
  0
LINE
  5
4DCA
  8
0
 10
-82.737471684799985
 20
63.653853097999999
 30
0.0
 11
-82.620651598100011
 21
63.615821647200001
 31
0.0
  0
LINE
  5
4DCB
  8
0
 10
-82.620651598100011
 20
63.615821647200001
 30
0.0
 11
-82.740154647099999
 21
63.577401360400003
 31
0.0
  0
LINE
  5
4DCC
  8
0
 10
-83.758030166178614
 20
63.65395374557167
 30
0.0
 11
-83.870636659399992
 21
63.615821647600001
 31
0.0
  0
LINE
  5
4DCD
  8
0
 10
-83.870636659399992
 20
63.615821647600001
 30
0.0
 11
-83.753816572700003
 21
63.57779019689999
 31
0.0
  0
ARC
  5
4DCE
  8
0
 10
-83.245173053733879
 20
68.30276734453237
 30
0.0
 40
4.7522760099803092
 50
263.8557738606554
 51
276.10026929591339
  0
ARC
  5
4DCF
  8
0
 10
-53.932329596199992
 20
86.746251080699977
 30
0.0
 40
0.0300000000000065
 50
183.00045614515329
 51
269.99988540843162
  0
ARC
  5
4DD0
  8
0
 10
-54.341682778700033
 20
86.746251080699992
 30
0.0
 40
0.0300000000000209
 50
270.0000000000407
 51
356.9995438501735
  0
ARC
  5
4DD1
  8
0
 10
-54.710734365684999
 20
86.852933591443289
 30
0.0
 40
0.1371637979278184
 50
185.80121511995549
 51
265.19882982656958
  0
LINE
  5
4DD2
  8
0
 10
-53.932329596199999
 20
86.716251080699976
 30
0.0
 11
-53.235006187499991
 21
86.71625108069999
 31
0.0
  0
LINE
  5
4DD3
  8
0
 10
-53.346909491100007
 20
86.823821901154716
 30
0.0
 11
-53.235006187499991
 21
86.826793957859991
 31
0.0
  0
LINE
  5
4DD4
  8
0
 10
-54.734672140800001
 20
86.690074314199975
 30
0.0
 11
-53.235006187499991
 21
86.71625363577563
 31
0.0
  0
LINE
  5
4DF4
  8
0
 10
-112.5107239041581
 20
86.742725796203018
 30
0.0
 11
-112.4844963501
 21
87.187821394300002
 31
0.0
  0
LINE
  5
4DF5
  8
0
 10
-112.16128846870021
 20
86.742725796204994
 30
0.0
 11
-112.1815168917
 21
87.187837973199976
 31
0.0
  0
LINE
  5
4DF6
  8
0
 10
-112.4545374767
 20
87.216251080699976
 30
0.0
 11
-112.2114748982
 21
87.216251080699976
 31
0.0
  0
ARC
  5
4DF7
  8
0
 10
-112.21147489640001
 20
87.186251080699975
 30
0.0
 40
0.03
 50
3.000456149199886
 51
90.000003510799885
  0
ARC
  5
4DF8
  8
0
 10
-112.4545374763
 20
87.186251080699975
 30
0.0
 40
0.03
 50
90.000000631500782
 51
176.99954385079999
  0
LINE
  5
4DF9
  8
0
 10
-111.6258166857051
 20
86.837114464563626
 30
0.0
 11
-111.60825604430001
 21
87.728162936099991
 31
0.0
  0
ARC
  5
4DFA
  8
0
 10
-111.7068609993772
 20
86.232473586023502
 30
0.0
 40
0.456731870532899
 50
358.56308963354411
 51
93.952118057078067
  0
ARC
  5
4DFB
  8
0
 10
-112.5406827777
 20
86.744296113399983
 30
0.0
 40
0.0300000000000065
 50
270.00011459156838
 51
356.99954385484659
  0
ARC
  5
4DFC
  8
0
 10
-112.1313295952
 20
86.744296113399983
 30
0.0
 40
0.0300000000000209
 50
183.00045614982599
 51
269.9999999999593
  0
ARC
  5
4DFD
  8
0
 10
-111.76227800821501
 20
86.850978624143295
 30
0.0
 40
0.1371637979278184
 50
275.45945048013238
 51
354.19878488004491
  0
LINE
  5
4DFE
  8
0
 10
-112.5406827777
 20
86.714296113399982
 30
0.0
 11
-113.2281837065
 21
86.714414944654692
 31
0.0
  0
LINE
  5
4DFF
  8
0
 10
-113.1231028839
 20
86.824331315999984
 30
0.0
 11
-113.2281837065
 21
86.826419764363152
 31
0.0
  0
LINE
  5
4E00
  8
0
 10
-111.7383402331
 20
86.688119346899981
 30
0.0
 11
-113.2281837065
 21
86.714414944654692
 31
0.0
  0
ARC
  5
4E46
  8
0
 10
-44.371922705858744
 20
76.404534919996479
 30
0.0
 40
11.899406890794021
 50
174.95970880427629
 51
185.0058643919873
  0
ARC
  5
4E47
  8
0
 10
-67.974588643944799
 20
76.406691433417095
 30
0.0
 40
11.89940688429752
 50
354.9597088029019
 51
5.0058643961115461
  0
LINE
  5
4E48
  8
0
 10
-56.225316525549999
 20
77.449972296400006
 30
0.0
 11
-56.200171406750002
 21
77.594409116700007
 31
0.0
  0
LINE
  5
4E49
  8
0
 10
-56.200171406750002
 20
77.594409116700007
 30
0.0
 11
-56.173255679199997
 21
77.655446143900008
 31
0.0
  0
LINE
  5
4E4A
  8
0
 10
-56.173255679199997
 20
77.655446143900008
 30
0.0
 11
-56.145579060550013
 21
77.591547961999993
 31
0.0
  0
LINE
  5
4E4B
  8
0
 10
-56.145579060550013
 20
77.591547961999993
 30
0.0
 11
-56.120568807949986
 21
77.445006378849882
 31
0.0
  0
LINE
  5
4E4C
  8
0
 10
-56.121194830749999
 20
75.361254057300002
 30
0.0
 11
-56.132949398599997
 21
75.266067323100003
 31
0.0
  0
LINE
  5
4E4D
  8
0
 10
-56.132949398599997
 20
75.266067323100003
 30
0.0
 11
-56.173255677199997
 21
75.155780209900001
 31
0.0
  0
LINE
  5
4E4E
  8
0
 10
-56.173255677199997
 20
75.155780209900001
 30
0.0
 11
-56.200932295849981
 21
75.2196783917
 31
0.0
  0
LINE
  5
4E4F
  8
0
 10
-56.200932295849981
 20
75.2196783917
 30
0.0
 11
-56.225942548399999
 21
75.366219974849983
 31
0.0
  0
ATTDEF
  5
7C5A
  8
DEFPOINTS
 10
-83.249941229645728
 20
91.9214934122068
 30
0.0
 40
0.001
  1
VIKRELL
  3

  2
MATERIAL
 70
     0
1001
ACDBATTR
1070
     0
1070
     1
  0
ATTDEF
  5
7C5B
  8
DEFPOINTS
 10
-83.249941229645728
 20
91.923160078873437
 30
0.0
 40
0.001
  1
WHIRLPOOL AND WALL SURROUND
  3

  2
PRODUCT
 70
     0
1001
ACDBATTR
1070
     0
1070
     1
  0
ATTDEF
  5
7C5C
  8
DEFPOINTS
 10
-83.249941229645728
 20
91.924826745540145
 30
0.0
 40
0.001
  1
ENSEMBLE
  3

  2
TRADENAME
 70
     0
1001
ACDBATTR
1070
     0
1070
     1
  0
ATTDEF
  5
7C5D
  8
DEFPOINTS
 10
-83.249941229645728
 20
91.926493412206796
 30
0.0
 40
0.001
  1
76120120
  3

  2
MODELNUMBER
 70
     0
1001
ACDBATTR
1070
     0
1070
     1
  0
LINE
  5
7F7C
  8
0
 10
-53.235006187499991
 20
58.666251075299989
 30
0.0
 11
-53.235006187499991
 21
91.766477250141904
 31
0.0
  0
ENDSEC
  0
EOF
