  0
SECTION
  2
HEADER
  9
$ACADVER
  1
AC1009
  9
$INSBASE
 10
15.030704653800001
 20
11.1646081158
 30
0.0
  9
$EXTMIN
 10
13.623443670598149
 20
9.5220337420725656
 30
-0.0000000349181948
  9
$EXTMAX
 10
16.438232466622999
 20
11.165329012280941
 30
0.0000000814935746
  9
$LIMMIN
 10
0.0
 20
0.0
  9
$LIMMAX
 10
22.0
 20
17.0
  9
$ORTHOMODE
 70
     0
  9
$REGENMODE
 70
     1
  9
$FILLMODE
 70
     1
  9
$QTEXTMODE
 70
     0
  9
$MIRRTEXT
 70
     0
  9
$DRAGMODE
 70
     2
  9
$LTSCALE
 40
1.2099999999999991
  9
$OSMODE
 70
    45
  9
$ATTMODE
 70
     1
  9
$TEXTSIZE
 40
0.2
  9
$TRACEWID
 40
0.05
  9
$TEXTSTYLE
  7
STANDARD
  9
$CLAYER
  8
0
  9
$CELTYPE
  6
BYLAYER
  9
$CECOLOR
 62
   256
  9
$DIMSCALE
 40
1.0
  9
$DIMASZ
 40
0.1875
  9
$DIMEXO
 40
0.0625
  9
$DIMDLI
 40
0.8359999999999999
  9
$DIMRND
 40
0.0
  9
$DIMDLE
 40
0.0
  9
$DIMEXE
 40
0.125
  9
$DIMTP
 40
0.0
  9
$DIMTM
 40
0.0
  9
$DIMTXT
 40
2.0
  9
$DIMCEN
 40
0.198
  9
$DIMTSZ
 40
0.0
  9
$DIMTOL
 70
     0
  9
$DIMLIM
 70
     0
  9
$DIMTIH
 70
     1
  9
$DIMTOH
 70
     1
  9
$DIMSE1
 70
     0
  9
$DIMSE2
 70
     0
  9
$DIMTAD
 70
     0
  9
$DIMZIN
 70
     0
  9
$DIMBLK
  1

  9
$DIMASO
 70
     1
  9
$DIMSHO
 70
     1
  9
$DIMPOST
  1
\X
  9
$DIMAPOST
  1

  9
$DIMALT
 70
     1
  9
$DIMALTD
 70
     2
  9
$DIMALTF
 40
25.399999999999999
  9
$DIMLFAC
 40
1.0
  9
$DIMTOFL
 70
     0
  9
$DIMTVP
 40
0.0
  9
$DIMTIX
 70
     0
  9
$DIMSOXD
 70
     0
  9
$DIMSAH
 70
     0
  9
$DIMBLK1
  1

  9
$DIMBLK2
  1

  9
$DIMSTYLE
  2
STANDARD
  9
$DIMCLRD
 70
     0
  9
$DIMCLRE
 70
     0
  9
$DIMCLRT
 70
     0
  9
$DIMTFAC
 40
1.0
  9
$DIMGAP
 40
0.09
  9
$LUNITS
 70
     2
  9
$LUPREC
 70
     4
  9
$SKETCHINC
 40
0.1
  9
$FILLETRAD
 40
0.0
  9
$AUNITS
 70
     0
  9
$AUPREC
 70
     0
  9
$MENU
  1
.
  9
$ELEVATION
 40
0.0
  9
$PELEVATION
 40
0.0
  9
$THICKNESS
 40
0.0
  9
$LIMCHECK
 70
     0
  9
$BLIPMODE
 70
     0
  9
$CHAMFERA
 40
0.0
  9
$CHAMFERB
 40
0.0
  9
$SKPOLY
 70
     0
  9
$TDCREATE
 40
2458159.56625441
  9
$TDUPDATE
 40
2458159.6078319331
  9
$TDINDWG
 40
0.0345658102
  9
$TDUSRTIMER
 40
0.0345658102
  9
$USRTIMER
 70
     1
  9
$ANGBASE
 50
0.0
  9
$ANGDIR
 70
     0
  9
$PDMODE
 70
     0
  9
$PDSIZE
 40
0.3125
  9
$PLINEWID
 40
0.0
  9
$COORDS
 70
     1
  9
$SPLFRAME
 70
     0
  9
$SPLINETYPE
 70
     6
  9
$SPLINESEGS
 70
     8
  9
$ATTDIA
 70
     1
  9
$ATTREQ
 70
     1
  9
$HANDLING
 70
     1
  9
$HANDSEED
  5
965
  9
$SURFTAB1
 70
     6
  9
$SURFTAB2
 70
     6
  9
$SURFTYPE
 70
     6
  9
$SURFU
 70
     6
  9
$SURFV
 70
     6
  9
$UCSNAME
  2

  9
$UCSORG
 10
0.0
 20
0.0
 30
0.0
  9
$UCSXDIR
 10
1.0
 20
0.0
 30
0.0
  9
$UCSYDIR
 10
0.0
 20
1.0
 30
0.0
  9
$PUCSNAME
  2

  9
$PUCSORG
 10
0.0
 20
0.0
 30
0.0
  9
$PUCSXDIR
 10
1.0
 20
0.0
 30
0.0
  9
$PUCSYDIR
 10
0.0
 20
1.0
 30
0.0
  9
$USERI1
 70
     0
  9
$USERI2
 70
     0
  9
$USERI3
 70
     0
  9
$USERI4
 70
     0
  9
$USERI5
 70
     0
  9
$USERR1
 40
0.0
  9
$USERR2
 40
0.0
  9
$USERR3
 40
0.0
  9
$USERR4
 40
0.0
  9
$USERR5
 40
0.0
  9
$WORLDVIEW
 70
     1
  9
$SHADEDGE
 70
     3
  9
$SHADEDIF
 70
    70
  9
$TILEMODE
 70
     1
  9
$MAXACTVP
 70
    48
  9
$PLIMCHECK
 70
     0
  9
$PEXTMIN
 10
1.0000000000000000E+020
 20
1.0000000000000000E+020
 30
1.0000000000000000E+020
  9
$PEXTMAX
 10
-1.0000000000000000E+020
 20
-1.0000000000000000E+020
 30
-1.0000000000000000E+020
  9
$PLIMMIN
 10
0.0
 20
0.0
  9
$PLIMMAX
 10
12.0
 20
9.0
  9
$UNITMODE
 70
     0
  9
$VISRETAIN
 70
     1
  9
$PLINEGEN
 70
     0
  9
$PSLTSCALE
 70
     1
  0
ENDSEC
  0
SECTION
  2
TABLES
  0
TABLE
  2
VPORT
 70
     1
  0
VPORT
  2
*ACTIVE
 70
     0
 10
0.0
 20
0.0
 11
1.0
 21
1.0
 12
15.030838068610571
 22
10.34368137717675
 13
0.0
 23
0.0
 14
1.0
 24
1.0
 15
0.0
 25
0.0
 16
0.0
 26
0.0
 36
1.0
 17
0.0
 27
0.0
 37
0.0
 40
1.653751019541623
 41
2.0329087048832268
 42
50.0
 43
0.0
 44
0.0
 50
0.0
 51
0.0
 71
     0
 72
   100
 73
     1
 74
     1
 75
     0
 76
     0
 77
     0
 78
     0
  0
ENDTAB
  0
TABLE
  2
LTYPE
 70
     2
  0
LTYPE
  2
CONTINUOUS
 70
     0
  3
Solid line
 72
    65
 73
     0
 40
0.0
  0
LTYPE
  2
PHANTOM2
 70
     0
  3
___ _ _ ___ _ _ ___ _ _ ___ _ _
 72
    65
 73
     6
 40
1.25
 49
0.625
 49
-0.125
 49
0.125
 49
-0.125
 49
0.125
 49
-0.125
  0
ENDTAB
  0
TABLE
  2
LAYER
 70
     2
  0
LAYER
  2
0
 70
     0
 62
     7
  6
CONTINUOUS
  0
LAYER
  2
DEFPOINTS
 70
     0
 62
     7
  6
CONTINUOUS
  0
ENDTAB
  0
TABLE
  2
STYLE
 70
     1
  0
STYLE
  2
STANDARD
 70
     0
 40
0.0
 41
0.8
 50
0.0
 71
     0
 42
0.2
  3
txt
  4

  0
ENDTAB
  0
TABLE
  2
VIEW
 70
     0
  0
ENDTAB
  0
TABLE
  2
UCS
 70
     0
  0
ENDTAB
  0
TABLE
  2
APPID
 70
     8
  0
APPID
  2
ACAD
 70
     0
  0
APPID
  2
ACAD_MLEADERVER
 70
     0
  0
APPID
  2
ACAD_NAV_VCDISPLAY
 70
     0
  0
APPID
  2
ACAD_DSTYLE_DIMJAG
 70
     0
  0
APPID
  2
ACAD_DSTYLE_DIMTALN
 70
     0
  0
APPID
  2
ACAD_DSTYLE_DIMRADIAL_EXTENSION
 70
     0
  0
APPID
  2
ACAD_EXEMPT_FROM_CAD_STANDARDS
 70
     0
  0
APPID
  2
ACDBATTR
 70
     0
  0
ENDTAB
  0
TABLE
  2
DIMSTYLE
 70
     1
  0
DIMSTYLE
  2
STANDARD
 70
     0
  3

  4

  5

  6

  7

 40
1.0
 41
0.1875
 42
0.0625
 43
0.38
 44
0.125
 45
0.0
 46
0.0
 47
1.5
 48
1.5
140
0.15625
141
0.09
142
0.0
143
25.399999999999999
144
1.0
145
0.0
146
1.0
147
0.09
 71
     0
 72
     0
 73
     1
 74
     1
 75
     0
 76
     0
 77
     0
 78
     4
170
     0
171
     2
172
     0
173
     0
174
     0
175
     0
176
     0
177
     0
178
     0
  0
ENDTAB
  0
ENDSEC
  0
SECTION
  2
BLOCKS
  0
BLOCK
  8
0
  2
$MODEL_SPACE
 70
     0
 10
0.0
 20
0.0
 30
0.0
  3
$MODEL_SPACE
  1

  0
ENDBLK
  5
21
  8
0
  0
BLOCK
 67
     1
  8
0
  2
$PAPER_SPACE
 70
     0
 10
0.0
 20
0.0
 30
0.0
  3
$PAPER_SPACE
  1

  0
ENDBLK
  5
1D
 67
     1
  8
0
  0
ENDSEC
  0
SECTION
  2
ENTITIES
  0
LINE
  5
290
  8
0
 10
13.655704653800001
 20
11.0116081158
 30
0.0
 11
13.655704653800001
 21
10.906608115799999
 31
0.0
  0
LINE
  5
291
  8
0
 10
13.686954653800001
 20
10.906608115799999
 30
0.0
 11
13.686954653800001
 21
10.862608115800001
 31
0.0
  0
LINE
  5
292
  8
0
 10
13.8407046538
 20
10.862608115800001
 30
0.0
 11
13.8407046538
 21
10.804608115800001
 31
0.0
  0
LINE
  5
293
  8
0
 10
14.052204653800001
 20
10.054020447799999
 30
0.0
 11
14.052204653800001
 21
10.304020447799999
 31
0.0
  0
LINE
  5
294
  8
0
 10
14.054204653799999
 20
10.3760204478
 30
0.0
 11
14.054204653799999
 21
10.304020447799999
 31
0.0
  0
LINE
  5
295
  8
0
 10
14.054204653799999
 20
10.054020447799999
 30
0.0
 11
14.054204653799999
 21
9.9605204478000005
 31
0.0
  0
LINE
  5
296
  8
0
 10
14.0677046538
 20
10.7183755764
 30
0.0
 11
14.0677046538
 21
10.5551081158
 31
0.0
  0
LINE
  5
299
  8
0
 10
14.0840910058
 20
10.5551081158
 30
0.0
 11
14.0840910058
 21
10.759608115800001
 31
0.0
  0
LINE
  5
29A
  8
0
 10
14.1242046538
 20
10.5551081158
 30
0.0
 11
14.1242046538
 21
10.3820204478
 31
0.0
  0
LINE
  5
29C
  8
0
 10
14.144346303600001
 20
10.304020447799999
 30
0.0
 11
14.144346303600001
 21
10.054020447799999
 31
0.0
  0
LINE
  5
29D
  8
0
 10
14.188297134600001
 20
10.759608115800001
 30
0.0
 11
14.188297134600001
 21
10.5551081158
 31
0.0
  0
LINE
  5
2A3
  8
0
 10
14.3541112667
 20
9.8617594368999981
 30
0.0
 11
14.3541112667
 21
9.8980204478000005
 31
0.0
  0
LINE
  5
2A5
  8
0
 10
14.4937046538
 20
9.6646081158000001
 30
0.0
 11
15.5677046538
 21
9.6646081158000001
 31
0.0
  0
LINE
  5
2A7
  8
0
 10
14.405704653800001
 20
9.8587594368999998
 30
0.0
 11
14.405704653800001
 21
9.7526081158000011
 31
0.0
  0
LINE
  5
2AA
  8
0
 10
14.5332550332
 20
10.054020447799999
 30
0.0
 11
14.5332550332
 21
10.304020447799999
 31
0.0
  0
LINE
  5
2AB
  8
0
 10
14.5686375472
 20
9.5226081158000007
 30
0.0
 11
14.5686375472
 21
9.6646081158000001
 31
0.0
  0
LINE
  5
2AE
  8
0
 10
14.3571112667
 20
9.8587594368999998
 30
0.0
 11
15.704298040899999
 21
9.8587594368999998
 31
0.0
  0
LINE
  5
2B0
  8
0
 10
14.116704653799999
 20
9.8980204478000005
 30
0.0
 11
15.944704653800001
 21
9.8980204478000005
 31
0.0
  0
LINE
  5
2B2
  8
0
 10
14.054204653799999
 20
9.9605204478000005
 30
0.0
 11
16.007204653799999
 21
9.9605204478000005
 31
0.0
  0
LINE
  5
2B3
  8
0
 10
14.026472114400001
 20
10.759608115800001
 30
0.0
 11
14.0677046538
 21
10.7183755764
 31
0.0
  0
LINE
  5
2B4
  8
0
 10
14.755704653800001
 20
10.304020447799999
 30
0.0
 11
14.755704653800001
 21
10.054020447799999
 31
0.0
  0
LINE
  5
2B5
  8
0
 10
14.052204653800001
 20
10.054020447799999
 30
0.0
 11
15.917063003999999
 21
10.054020447799999
 31
0.0
  0
LINE
  5
2B6
  8
0
 10
15.917228344
 20
10.054020447799999
 30
0.0
 11
16.009204653800001
 21
10.054020447799999
 31
0.0
  0
LINE
  5
2B7
  8
0
 10
14.844409191900001
 20
9.6646081158000001
 30
0.0
 11
14.844409191900001
 21
9.5226081158000007
 31
0.0
  0
LINE
  5
2B8
  8
0
 10
14.8732018397
 20
9.5259659907999996
 30
0.0
 11
14.8732018397
 21
9.6646081158000001
 31
0.0
  0
LINE
  5
2B9
  8
0
 10
14.8943565361
 20
10.5551081158
 30
0.0
 11
14.8943565361
 21
10.759608115800001
 31
0.0
  0
LINE
  5
2BB
  8
0
 10
14.1441809636
 20
10.304020447799999
 30
0.0
 11
14.052204653800001
 21
10.304020447799999
 31
0.0
  0
LINE
  5
2BC
  8
0
 10
14.144346303600001
 20
10.304020447799999
 30
0.0
 11
16.009204653800001
 21
10.304020447799999
 31
0.0
  0
LINE
  5
2BD
  8
0
 10
15.112851068099999
 20
10.759608115800001
 30
0.0
 11
15.112851068099999
 21
10.5551081158
 31
0.0
  0
LINE
  5
2BF
  8
0
 10
16.001204653799999
 20
10.3820204478
 30
0.0
 11
14.0602046538
 21
10.3820204478
 31
0.0
  0
LINE
  5
2C0
  8
0
 10
15.1882074679
 20
9.6646081158000001
 30
0.0
 11
15.1882074679
 21
9.5259659907999996
 31
0.0
  0
LINE
  5
2C1
  8
0
 10
15.217000115699999
 20
9.5226081158000007
 30
0.0
 11
15.217000115699999
 21
9.6646081158000001
 31
0.0
  0
LINE
  5
2C2
  8
0
 10
14.0677046538
 20
10.5551081158
 30
0.0
 11
15.9937046538
 21
10.5551081158
 31
0.0
  0
LINE
  5
2C3
  8
0
 10
15.305704653799999
 20
10.054020447799999
 30
0.0
 11
15.305704653799999
 21
10.304020447799999
 31
0.0
  0
LINE
  5
2C6
  8
0
 10
16.034937193200001
 20
10.759608115800001
 30
0.0
 11
15.9937046538
 21
10.7183755764
 31
0.0
  0
LINE
  5
2C7
  8
0
 10
15.9937046538
 20
10.7183755764
 30
0.0
 11
15.9891016279
 21
10.7183755764
 31
0.0
  0
LINE
  5
2C8
  8
0
 10
15.548862699200001
 20
10.7183755764
 30
0.0
 11
15.428458803699989
 21
10.7183755764
 31
0.0
  0
LINE
  5
2C9
  8
0
 10
14.586817866500001
 20
10.7183755764
 30
0.0
 11
14.470061829700001
 21
10.7183755764
 31
0.0
  0
LINE
  5
2CA
  8
0
 10
14.068659821100001
 20
10.7183755764
 30
0.0
 11
14.0677046538
 21
10.7183755764
 31
0.0
  0
LINE
  5
2CB
  8
0
 10
16.1757046538
 20
10.759608115800001
 30
0.0
 11
13.8857046538
 21
10.759608115800001
 31
0.0
  0
LINE
  5
2CE
  8
0
 10
15.4927717604
 20
9.6646081158000001
 30
0.0
 11
15.4927717604
 21
9.5226081158000007
 31
0.0
  0
LINE
  5
2CF
  8
0
 10
15.5281542744
 20
10.304020447799999
 30
0.0
 11
15.5281542744
 21
10.054020447799999
 31
0.0
  0
LINE
  5
2D2
  8
0
 10
13.686954653800001
 20
10.862608115800001
 30
0.0
 11
16.374454653800001
 21
10.862608115800001
 31
0.0
  0
LINE
  5
2D3
  8
0
 10
15.655704653800001
 20
9.8587594368999998
 30
0.0
 11
15.655704653800001
 21
9.7526081158000011
 31
0.0
  0
LINE
  5
2D4
  8
0
 10
13.655704653800001
 20
10.906608115799999
 30
0.0
 11
16.405704653800001
 21
10.906608115799999
 31
0.0
  0
LINE
  5
2D5
  8
0
 10
15.7072980409
 20
9.8617594368999981
 30
0.0
 11
15.7072980409
 21
9.8980204478000005
 31
0.0
  0
LINE
  5
2D6
  8
0
 10
16.405704653800001
 20
11.0116081158
 30
0.0
 11
13.655704653800001
 21
11.0116081158
 31
0.0
  0
LINE
  5
2D8
  8
0
 10
15.8409701841
 20
10.5551081158
 30
0.0
 11
15.8409701841
 21
10.759608115800001
 31
0.0
  0
LINE
  5
2D9
  8
0
 10
13.638204653800001
 20
11.1366081158
 30
0.0
 11
16.423204653799999
 21
11.1366081158
 31
0.0
  0
LINE
  5
2DA
  8
0
 10
16.423204653799999
 20
11.1646081158
 30
0.0
 11
13.638204653800001
 21
11.1646081158
 31
0.0
  0
LINE
  5
2DB
  8
0
 10
15.917063003999999
 20
10.054020447799999
 30
0.0
 11
15.917063003999999
 21
10.304020447799999
 31
0.0
  0
LINE
  5
2DD
  8
0
 10
15.9372046538
 20
10.5551081158
 30
0.0
 11
15.9372046538
 21
10.3820204478
 31
0.0
  0
LINE
  5
2DE
  8
0
 10
15.955258587199999
 20
10.759608115800001
 30
0.0
 11
15.955258587199999
 21
10.5551081158
 31
0.0
  0
LINE
  5
2E0
  8
0
 10
15.9937046538
 20
10.7183755764
 30
0.0
 11
15.9937046538
 21
10.5551081158
 31
0.0
  0
LINE
  5
2E1
  8
0
 10
16.007204653799999
 20
10.3760204478
 30
0.0
 11
16.007204653799999
 21
10.304020447799999
 31
0.0
  0
LINE
  5
2E2
  8
0
 10
16.007204653799999
 20
10.054020447799999
 30
0.0
 11
16.007204653799999
 21
9.9605204478000005
 31
0.0
  0
LINE
  5
2E3
  8
0
 10
16.009204653800001
 20
10.304020447799999
 30
0.0
 11
16.009204653800001
 21
10.054020447799999
 31
0.0
  0
LINE
  5
2E4
  8
0
 10
16.220704653799999
 20
10.862608115800001
 30
0.0
 11
16.220704653799999
 21
10.804608115800001
 31
0.0
  0
LINE
  5
2E5
  8
0
 10
16.374454653800001
 20
10.906608115799999
 30
0.0
 11
16.374454653800001
 21
10.862608115800001
 31
0.0
  0
LINE
  5
2E6
  8
0
 10
16.405704653800001
 20
11.0116081158
 30
0.0
 11
16.405704653800001
 21
10.906608115799999
 31
0.0
  0
ARC
  5
31A
  8
0
 10
16.097204653799999
 20
10.9766081158
 30
0.0
 40
0.16
 50
90.0
 51
167.3607397291
  0
ARC
  5
31B
  8
0
 10
13.9642046538
 20
10.9766081158
 30
0.0
 40
0.16
 50
12.639260270899999
 51
90.0
  0
ARC
  5
31C
  8
0
 10
14.4937046538
 20
9.7526081158000011
 30
0.0
 40
0.088
 50
180.0
 51
270.0
  0
ARC
  5
31D
  8
0
 10
15.5677046538
 20
9.7526081158000011
 30
0.0
 40
0.088
 50
270.0
 51
360.0
  0
ARC
  5
31E
  8
0
 10
14.116704653799999
 20
9.9605204478000005
 30
0.0
 40
0.0625
 50
180.0
 51
270.0
  0
ARC
  5
31F
  8
0
 10
15.944704653800001
 20
9.9605204478000005
 30
0.0
 40
0.0625
 50
270.0
 51
360.0
  0
ARC
  5
320
  8
0
 10
16.1757046538
 20
10.804608115800001
 30
0.0
 40
0.045
 50
270.0
 51
360.0
  0
ARC
  5
321
  8
0
 10
13.8857046538
 20
10.804608115800001
 30
0.0
 40
0.045
 50
180.0
 51
270.0
  0
ARC
  5
322
  8
0
 10
13.638204653800001
 20
11.150608115800001
 30
0.0
 40
0.014
 50
90.0
 51
270.0
  0
ARC
  5
323
  8
0
 10
16.423204653799999
 20
11.150608115800001
 30
0.0
 40
0.014
 50
270.0
 51
90.0
  0
ARC
  5
324
  8
0
 10
14.0602046538
 20
10.3760204478
 30
0.0
 40
0.006
 50
90.0
 51
180.0
  0
ARC
  5
325
  8
0
 10
16.001204653799999
 20
10.3760204478
 30
0.0
 40
0.006
 50
0.0
 51
90.0
  0
ARC
  5
326
  8
0
 10
15.704298040899999
 20
9.8617594368999981
 30
0.0
 40
0.003
 50
270.0
 51
360.0
  0
ARC
  5
327
  8
0
 10
14.3571112667
 20
9.8617594368999981
 30
0.0
 40
0.003
 50
180.0
 51
270.0
  0
ARC
  5
58D
  8
0
 10
14.4727713520529
 20
11.39251758724418
 30
0.0
 40
0.6741474558999844
 50
249.85589452343089
 51
269.76971712653261
  0
ARC
  5
58E
  8
0
 10
14.57141339471708
 20
11.593082645418789
 30
0.0
 40
0.8748427026285117
 50
271.00893204188691
 51
287.69017783306032
  0
ARC
  5
58F
  8
0
 10
15.444145362728239
 20
11.637798326890209
 30
0.0
 40
0.9195565573977141
 50
252.74902482051419
 51
269.02255362440508
  0
ARC
  5
590
  8
0
 10
15.546327910214851
 20
11.439737222889921
 30
0.0
 40
0.7213660999671693
 50
270.20133051675913
 51
289.46678199868143
  0
ARC
  5
591
  8
0
 10
16.04630953521222
 20
10.7794759123527
 30
0.0
 40
0.0870651516959882
 50
193.1908029541772
 51
221.22857123735389
  0
ARC
  5
592
  8
0
 10
15.99630864842117
 20
10.74546874418211
 30
0.0
 40
0.0280353506356208
 50
236.4855914330511
 51
255.10378017106621
  0
ARC
  5
593
  8
0
 10
13.877088772506241
 20
10.787681094973189
 30
0.0
 40
0.2060581758012916
 50
341.43789525033429
 51
352.16977934832062
  0
ARC
  5
594
  8
0
 10
14.05751987755419
 20
10.73345574166027
 30
0.0
 40
0.0187485926533379
 50
306.45383636525042
 51
322.66845924430072
  0
LINE
  5
595
  8
0
 10
14.873201839696829
 20
9.5259659907532441
 30
0.0
 11
14.844409191900001
 21
9.5226081158000007
 31
0.0
  0
ARC
  5
596
  8
0
 10
14.706523369434279
 20
8.6681119193282825
 30
0.0
 40
0.8655496807357042
 50
80.833479931362035
 51
99.166520009760276
  0
ARC
  5
597
  8
0
 10
14.560419889246001
 20
10.45846389205666
 30
0.0
 40
0.935891854650222
 50
270.50309574048759
 51
278.82758808558208
  0
LINE
  5
598
  8
0
 10
15.18820746790316
 20
9.5259659907532441
 30
0.0
 11
15.21700011562193
 21
9.5226081157917264
 31
0.0
  0
ARC
  5
599
  8
0
 10
15.35488593803756
 20
8.6360109788876311
 30
0.0
 40
0.897255249742108
 50
81.160033439384534
 51
98.839966564053725
  0
ARC
  5
59A
  8
0
 10
15.497641675711829
 20
10.38726517746408
 30
0.0
 40
0.8646707757064049
 50
261.0022272877311
 51
269.67730253298998
  0
ATTDEF
  5
74F
  8
DEFPOINTS
 10
15.02746384891992
 20
11.153303941078731
 30
0.0
 40
0.001
  1
7466
  3

  2
MODELNUMBER
 70
     0
1001
ACDBATTR
1070
     0
1070
     1
  0
ATTDEF
  5
750
  8
DEFPOINTS
 10
15.02746384891992
 20
11.15163727441206
 30
0.0
 40
0.001
  1

  3

  2
TRADENAME
 70
     0
1001
ACDBATTR
1070
     0
1070
     1
  0
ATTDEF
  5
751
  8
DEFPOINTS
 10
15.02746384891992
 20
11.1499706077454
 30
0.0
 40
0.001
  1
SINK STRAINER
  3

  2
PRODUCT
 70
     0
1001
ACDBATTR
1070
     0
1070
     1
  0
ATTDEF
  5
752
  8
DEFPOINTS
 10
15.02746384891992
 20
11.14830394107873
 30
0.0
 40
0.001
  1
STAINLESS STEEL
  3

  2
MATERIAL
 70
     0
1001
ACDBATTR
1070
     0
1070
     1
  0
ENDSEC
  0
EOF
