  0
SECTION
  2
HEADER
  9
$ACADVER
  1
AC1009
  9
$INSBASE
 10
3021.3046020506972127
 20
134.0101627851211106
 30
0.0
  9
$EXTMIN
 10
2986.0010441487961543
 20
133.9964723499226125
 30
-0.0000000349181948
  9
$EXTMAX
 10
3021.5003736134099199
 20
210.4296547811883897
 30
0.0000000814935746
  9
$LIMMIN
 10
0.0
 20
0.0
  9
$LIMMAX
 10
11.6929133858000007
 20
8.2677165353999982
  9
$ORTHOMODE
 70
     1
  9
$REGENMODE
 70
     1
  9
$FILLMODE
 70
     1
  9
$QTEXTMODE
 70
     0
  9
$MIRRTEXT
 70
     0
  9
$DRAGMODE
 70
     2
  9
$LTSCALE
 40
0.6431102362
  9
$OSMODE
 70
  4095
  9
$ATTMODE
 70
     1
  9
$TEXTSIZE
 40
0.2
  9
$TRACEWID
 40
0.05
  9
$TEXTSTYLE
  7
STANDARD
  9
$CLAYER
  8
0
  9
$CELTYPE
  6
BYLAYER
  9
$CECOLOR
 62
   256
  9
$DIMSCALE
 40
1.0
  9
$DIMASZ
 40
0.1875
  9
$DIMEXO
 40
0.0625
  9
$DIMDLI
 40
0.4443307087
  9
$DIMRND
 40
0.0
  9
$DIMDLE
 40
0.0
  9
$DIMEXE
 40
0.125
  9
$DIMTP
 40
0.01
  9
$DIMTM
 40
0.01
  9
$DIMTXT
 40
2.0
  9
$DIMCEN
 40
0.1052362205
  9
$DIMTSZ
 40
0.0
  9
$DIMTOL
 70
     1
  9
$DIMLIM
 70
     0
  9
$DIMTIH
 70
     1
  9
$DIMTOH
 70
     1
  9
$DIMSE1
 70
     0
  9
$DIMSE2
 70
     0
  9
$DIMTAD
 70
     0
  9
$DIMZIN
 70
     0
  9
$DIMBLK
  1

  9
$DIMASO
 70
     1
  9
$DIMSHO
 70
     1
  9
$DIMPOST
  1
\X
  9
$DIMAPOST
  1

  9
$DIMALT
 70
     1
  9
$DIMALTD
 70
     2
  9
$DIMALTF
 40
25.3999999999999986
  9
$DIMLFAC
 40
1.0
  9
$DIMTOFL
 70
     0
  9
$DIMTVP
 40
0.0
  9
$DIMTIX
 70
     0
  9
$DIMSOXD
 70
     0
  9
$DIMSAH
 70
     0
  9
$DIMBLK1
  1

  9
$DIMBLK2
  1

  9
$DIMSTYLE
  2
STANDARD
  9
$DIMCLRD
 70
     0
  9
$DIMCLRE
 70
     0
  9
$DIMCLRT
 70
     0
  9
$DIMTFAC
 40
1.0
  9
$DIMGAP
 40
0.09
  9
$LUNITS
 70
     2
  9
$LUPREC
 70
     4
  9
$SKETCHINC
 40
0.1
  9
$FILLETRAD
 40
0.0
  9
$AUNITS
 70
     0
  9
$AUPREC
 70
     0
  9
$MENU
  1
.
  9
$ELEVATION
 40
0.0
  9
$PELEVATION
 40
0.0
  9
$THICKNESS
 40
0.0
  9
$LIMCHECK
 70
     0
  9
$BLIPMODE
 70
     0
  9
$CHAMFERA
 40
0.0
  9
$CHAMFERB
 40
0.0
  9
$SKPOLY
 70
     0
  9
$TDCREATE
 40
2458060.468368056230247
  9
$TDUPDATE
 40
2459600.8002893519587815
  9
$TDINDWG
 40
0.4421945602
  9
$TDUSRTIMER
 40
0.4421945602
  9
$USRTIMER
 70
     1
  9
$ANGBASE
 50
0.0
  9
$ANGDIR
 70
     0
  9
$PDMODE
 70
     0
  9
$PDSIZE
 40
0.3125
  9
$PLINEWID
 40
0.0
  9
$COORDS
 70
     1
  9
$SPLFRAME
 70
     0
  9
$SPLINETYPE
 70
     6
  9
$SPLINESEGS
 70
     8
  9
$ATTDIA
 70
     1
  9
$ATTREQ
 70
     1
  9
$HANDLING
 70
     1
  9
$HANDSEED
  5
348D3
  9
$SURFTAB1
 70
     6
  9
$SURFTAB2
 70
     6
  9
$SURFTYPE
 70
     6
  9
$SURFU
 70
     6
  9
$SURFV
 70
     6
  9
$UCSNAME
  2

  9
$UCSORG
 10
0.0
 20
0.0
 30
0.0
  9
$UCSXDIR
 10
1.0
 20
0.0
 30
0.0
  9
$UCSYDIR
 10
0.0
 20
1.0
 30
0.0
  9
$PUCSNAME
  2

  9
$PUCSORG
 10
0.0
 20
0.0
 30
0.0
  9
$PUCSXDIR
 10
1.0
 20
0.0
 30
0.0
  9
$PUCSYDIR
 10
0.0
 20
1.0
 30
0.0
  9
$USERI1
 70
     0
  9
$USERI2
 70
     0
  9
$USERI3
 70
     0
  9
$USERI4
 70
     0
  9
$USERI5
 70
     0
  9
$USERR1
 40
0.0
  9
$USERR2
 40
0.0
  9
$USERR3
 40
0.0
  9
$USERR4
 40
0.0
  9
$USERR5
 40
0.0
  9
$WORLDVIEW
 70
     1
  9
$SHADEDGE
 70
     3
  9
$SHADEDIF
 70
    70
  9
$TILEMODE
 70
     1
  9
$MAXACTVP
 70
    64
  9
$PLIMCHECK
 70
     0
  9
$PEXTMIN
 10
1.0000000000000000E+20
 20
1.0000000000000000E+20
 30
1.0000000000000000E+20
  9
$PEXTMAX
 10
-1.0000000000000000E+20
 20
-1.0000000000000000E+20
 30
-1.0000000000000000E+20
  9
$PLIMMIN
 10
0.0
 20
0.0
  9
$PLIMMAX
 10
12.0
 20
9.0
  9
$UNITMODE
 70
     0
  9
$VISRETAIN
 70
     1
  9
$PLINEGEN
 70
     0
  9
$PSLTSCALE
 70
     1
  0
ENDSEC
  0
SECTION
  2
TABLES
  0
TABLE
  2
VPORT
 70
     1
  0
VPORT
  2
*ACTIVE
 70
     0
 10
0.0
 20
0.0
 11
1.0
 21
1.0
 12
-799.7933585017099176
 22
46.2178013688056382
 13
0.0
 23
0.0
 14
1.0
 24
1.0
 15
0.0
 25
0.0
 16
0.0
 26
0.0
 36
17.1152628219792007
 17
3803.5440673828129547
 27
125.9952621967499056
 37
0.0
 40
76.9951911256133315
 41
2.344785276073619
 42
50.0
 43
0.0
 44
0.0
 50
0.0
 51
0.0
 71
     0
 72
   100
 73
     1
 74
     1
 75
     0
 76
     0
 77
     0
 78
     0
  0
ENDTAB
  0
TABLE
  2
LTYPE
 70
     2
  0
LTYPE
  2
CONTINUOUS
 70
     0
  3
Solid line
 72
    65
 73
     0
 40
0.0
  0
LTYPE
  2
PHANTOM2
 70
     0
  3
___ _ _ ___ _ _ ___ _ _ ___ _ _
 72
    65
 73
     6
 40
1.25
 49
0.625
 49
-0.125
 49
0.125
 49
-0.125
 49
0.125
 49
-0.125
  0
ENDTAB
  0
TABLE
  2
LAYER
 70
     2
  0
LAYER
  2
0
 70
     0
 62
   255
  6
CONTINUOUS
  0
LAYER
  2
DEFPOINTS
 70
     0
 62
     7
  6
CONTINUOUS
  0
ENDTAB
  0
TABLE
  2
STYLE
 70
     1
  0
STYLE
  2
STANDARD
 70
     0
 40
0.0
 41
0.8
 50
0.0
 71
     0
 42
0.2
  3
txt
  4

  0
ENDTAB
  0
TABLE
  2
VIEW
 70
     0
  0
ENDTAB
  0
TABLE
  2
UCS
 70
     0
  0
ENDTAB
  0
TABLE
  2
APPID
 70
     9
  0
APPID
  2
ACAD
 70
     0
  0
APPID
  2
ACAD_MLEADERVER
 70
     0
  0
APPID
  2
ACAD_EXEMPT_FROM_CAD_STANDARDS
 70
     0
  0
APPID
  2
ACAD_NAV_VCDISPLAY
 70
     0
  0
APPID
  2
ACAECLAYERSTANDARD
 70
     0
  0
APPID
  2
ACCMTRANSPARENCY
 70
     0
  0
APPID
  2
ACAD_DSTYLE_DIMJAG
 70
     0
  0
APPID
  2
ACAD_DSTYLE_DIMTALN
 70
     0
  0
APPID
  2
ACDBATTR
 70
     0
  0
ENDTAB
  0
TABLE
  2
DIMSTYLE
 70
     1
  0
DIMSTYLE
  2
STANDARD
 70
     0
  3

  4

  5

  6

  7

 40
1.0
 41
0.1875
 42
0.0625
 43
0.38
 44
0.125
 45
0.0
 46
0.0
 47
0.01
 48
0.01
140
0.15625
141
0.09
142
0.0
143
25.3999999999999986
144
1.0
145
0.0
146
1.0
147
0.09
 71
     1
 72
     0
 73
     1
 74
     1
 75
     0
 76
     0
 77
     0
 78
     4
170
     0
171
     2
172
     0
173
     0
174
     0
175
     0
176
     0
177
     0
178
     0
  0
ENDTAB
  0
ENDSEC
  0
SECTION
  2
BLOCKS
  0
BLOCK
  8
0
  2
$MODEL_SPACE
 70
     0
 10
0.0
 20
0.0
 30
0.0
  3
$MODEL_SPACE
  1

  0
ENDBLK
  5
21
  8
0
  0
BLOCK
 67
     1
  8
0
  2
$PAPER_SPACE
 70
     0
 10
0.0
 20
0.0
 30
0.0
  3
$PAPER_SPACE
  1

  0
ENDBLK
  5
1D
 67
     1
  8
0
  0
ENDSEC
  0
SECTION
  2
ENTITIES
  0
ATTDEF
  5
30663
  8
DEFPOINTS
 10
3021.3052835720750409
 20
134.0141915156578136
 30
0.0
 40
0.001
  1
72500106
  3

  2
MODELNUMBER
 70
     0
1001
ACDBATTR
1070
     0
1070
     1
  0
ATTDEF
  5
30664
  8
DEFPOINTS
 10
3021.3052835720750409
 20
134.0125248489912053
 30
0.0
 40
0.001
  1
TRAVERSE
  3

  2
TRADENAME
 70
     0
1001
ACDBATTR
1070
     0
1070
     1
  0
ATTDEF
  5
30665
  8
DEFPOINTS
 10
3021.3052835720750409
 20
134.0108581823245117
 30
0.0
 40
0.001
  1
SHOWER STALL
  3

  2
PRODUCT
 70
     0
1001
ACDBATTR
1070
     0
1070
     1
  0
LINE
  5
340FF
  8
0
 10
3021.3046020506972127
 20
210.4169161440210871
 30
0.0
 11
3017.5958498482659706
 21
210.2023700574314944
 31
0.0
  0
LINE
  5
34100
  8
0
 10
3017.5958498482659706
 20
210.2023700574314944
 30
0.0
 11
3016.6007074544691022
 21
209.1704974033918916
 31
0.0
  0
ARC
  5
34101
  8
0
 10
3016.6426992884548781
 20
209.1300002993853013
 30
0.0
 40
0.0583380626554022
 50
136.0381070457360124
 51
180.6599200349990895
  0
LINE
  5
34102
  8
0
 10
3016.5843650952970165
 20
209.1293283894210902
 30
0.0
 11
3016.5838021306972223
 21
208.9025860382211022
 31
0.0
  0
ARC
  5
34103
  8
0
 10
3016.4566846300749603
 20
208.8979393852715134
 30
0.0
 40
0.1272023991437162
 50
329.9259547604899012
 51
2.093457758104873
  0
LINE
  5
34104
  8
0
 10
3016.566762853245109
 20
208.8341958747641911
 30
0.0
 11
3016.0566516067970042
 21
208.3179363783210931
 31
0.0
  0
ARC
  5
34105
  8
0
 10
3016.0990991528969971
 20
208.2755163692210942
 30
0.0
 40
0.060010426900057
 50
135.0185908724234025
 51
180.0061084206759006
  0
LINE
  5
34106
  8
0
 10
3016.0390887263379227
 20
208.275509971386299
 30
0.0
 11
3016.0391189203578506
 21
138.9023077991122932
 31
0.0
  0
ARC
  5
34107
  8
0
 10
2972.0970768360571128
 20
138.8999187174123904
 30
0.0
 40
43.9420229217223834
 50
359.0639580594923927
 51
0.0031143235304534
  0
LINE
  5
34108
  8
0
 10
2988.126095307497053
 20
138.1820627851211043
 30
0.0
 11
3021.3046020506972127
 21
138.1820627851211043
 31
0.0
  0
ARC
  5
34109
  8
0
 10
2988.126095307497053
 20
138.0570627851211043
 30
0.0
 40
0.1249999999999787
 50
90.0
 51
137.8702555997805064
  0
LINE
  5
3410A
  8
0
 10
2988.0337790732301073
 20
138.1413403793605994
 30
0.0
 11
2987.35530383999685
 21
136.9932558270211018
 31
0.0
  0
ARC
  5
3410B
  8
0
 10
2987.6718312618968412
 20
136.8070632257210946
 30
0.0
 40
0.367229211200019
 50
149.534455083717404
 51
180.0
  0
LINE
  5
3410C
  8
0
 10
2987.3046020506972127
 20
136.8070632257210946
 30
0.0
 11
2987.3046020506972127
 21
134.0101627851211106
 31
0.0
  0
LINE
  5
3410D
  8
0
 10
2987.3046020506972127
 20
134.0101627851211106
 30
0.0
 11
2987.4596020489921102
 21
134.0101627852220076
 31
0.0
  0
LINE
  5
3410E
  8
0
 10
2987.4596020489921102
 20
134.0101627852220076
 30
0.0
 11
2987.4745921756971256
 21
136.8068877558210943
 31
0.0
  0
ARC
  5
3410F
  8
0
 10
2987.6132942547169478
 20
136.8058028246699962
 30
0.0
 40
0.1387063087976162
 50
95.5125558298612134
 51
179.5540958251428947
  0
ARC
  5
34110
  8
0
 10
2987.6169926442930773
 20
136.7674816046373962
 30
0.0
 40
0.1772055813912718
 50
62.2329897139292214
 51
95.5125558298612134
  0
ARC
  5
34111
  8
0
 10
2987.645313800259828
 20
136.8212725064271069
 30
0.0
 40
0.1164145541700574
 50
21.7825973061562195
 51
62.2329897139292214
  0
ARC
  5
34112
  8
0
 10
2988.2962687852150339
 20
137.0814066050334077
 30
0.0
 40
0.5845933927863957
 50
201.7825973061561911
 51
208.2072954722275995
  0
ARC
  5
34113
  8
0
 10
2988.0529428821992042
 20
136.9317929135931138
 30
0.0
 40
0.2999200800727042
 50
204.9895158071219043
 51
270.0001267335629223
  0
LINE
  5
34114
  8
0
 10
2988.0529435455969178
 20
136.6318728335211006
 30
0.0
 11
2990.5097691467940422
 21
136.6316194186265136
 31
0.0
  0
ARC
  5
34115
  8
0
 10
2990.5098367618079465
 20
136.4946107416388088
 30
0.0
 40
0.137008693671988
 50
16.8965236034261004
 51
90.0282759803824177
  0
LINE
  5
34116
  8
0
 10
2990.640930957396904
 20
136.5344315154210904
 30
0.0
 11
2990.6483064815211037
 21
136.5101505105513979
 31
0.0
  0
ARC
  5
34117
  8
0
 10
2991.0238360929270129
 20
136.6242202421454977
 30
0.0
 40
0.392472155328869
 50
196.8965236034260897
 51
221.1085310584118133
  0
ARC
  5
34118
  8
0
 10
2990.59268770580411
 20
136.2479924680056058
 30
0.0
 40
0.1797483176996084
 50
20.9219929391957713
 51
41.1085310584117494
  0
ARC
  5
34119
  8
0
 10
2992.290219327028808
 20
136.9546698688465085
 30
0.0
 40
1.6590886548194661
 50
202.7837868499877914
 51
217.9772626239156921
  0
ARC
  5
3411A
  8
0
 10
2992.1611456963942146
 20
136.8568045517421865
 30
0.0
 40
1.4971261617127449
 50
218.0646137745584952
 51
226.46198058222231
  0
ARC
  5
3411B
  8
0
 10
2995.3419883620231303
 20
140.7432734455190939
 30
0.0
 40
6.5161600744768871
 50
229.7284598019811028
 51
234.9800918479159009
  0
ARC
  5
3411C
  8
0
 10
2988.8710718848951728
 20
134.6065682951208089
 30
0.0
 40
1.409549279482005
 50
165.3625692547128097
 51
177.2354251850721027
  0
ARC
  5
3411D
  8
0
 10
2988.7676934497958428
 20
134.6279211796212962
 30
0.0
 40
1.3041416054996711
 50
143.4958308605544914
 51
165.1225137032141959
  0
ARC
  5
3411E
  8
0
 10
2988.7708416131658851
 20
134.6242048632313129
 30
0.0
 40
1.3088833834427609
 50
90.7291109369042488
 51
143.4470466537873108
  0
LINE
  5
3411F
  8
0
 10
2988.7541860158089548
 20
135.9329822707873916
 30
0.0
 11
2990.2196020506439709
 21
135.9320627851643053
 31
0.0
  0
ARC
  5
34120
  8
0
 10
2990.0718306001540441
 20
134.2092696315683895
 30
0.0
 40
1.7291190392570319
 50
53.7246503027741511
 51
85.0974916448445242
  0
ARC
  5
34121
  8
0
 10
2943.8005233598378254
 20
48.9227354349570831
 30
0.0
 40
98.7434552012534539
 50
59.9200198392532073
 51
61.3823654648266626
  0
ARC
  5
34122
  8
0
 10
2994.3192719435528488
 20
136.3419789184785031
 30
0.0
 40
2.2254132979460302
 50
242.4966130474795989
 51
264.7261535578205098
  0
LINE
  5
34123
  8
0
 10
2994.1147207131612049
 20
134.1259863325657875
 30
0.0
 11
2994.1904768070389764
 21
134.1217389298408023
 31
0.0
  0
ARC
  5
34124
  8
0
 10
2993.901588914975946
 20
133.2742780848357995
 30
0.0
 40
0.8953469148866224
 50
55.2753414418307401
 51
71.1764537825417136
  0
ARC
  5
34125
  8
0
 10
2993.9894771095760007
 20
133.5321006025232862
 30
0.0
 40
0.6229560461398107
 50
71.1764537825417136
 51
84.6491984259432542
  0
ARC
  5
34126
  8
0
 10
2994.2785036919349295
 20
136.1559083234004106
 30
0.0
 40
2.0168312267070032
 50
240.8192796539044878
 51
263.4250237907854171
  0
ARC
  5
34127
  8
0
 10
2974.6046216414888477
 20
102.5440148756624978
 30
0.0
 40
36.9299916946963407
 50
59.5951050187624674
 51
61.8986419988604624
  0
ARC
  5
34128
  8
0
 10
2908.1149591949711066
 20
-21.9729543243898604
 30
0.0
 40
178.0871765313835908
 50
61.8986419988604624
 51
62.1756037550881473
  0
LINE
  5
34129
  8
0
 10
2994.4116083321400765
 20
134.0101627851211106
 30
0.0
 11
2995.4091020499968181
 21
134.0101627851211106
 31
0.0
  0
ARC
  5
3412A
  8
0
 10
2995.7871812887851775
 20
133.3163321651857132
 30
0.0
 40
0.7901549468065195
 50
112.0441379618493016
 51
118.5866625965661996
  0
ARC
  5
3412B
  8
0
 10
2995.7648710159810435
 20
133.3714297872105021
 30
0.0
 40
0.7307117283087277
 50
99.1100644837710547
 51
112.0441379618493016
  0
ARC
  5
3412C
  8
0
 10
2995.7762383613248858
 20
133.3005408176331912
 30
0.0
 40
0.8025063140927152
 50
89.127321192818826
 51
99.1100644837710547
  0
LINE
  5
3412D
  8
0
 10
2995.7884609574971364
 20
134.102954048021104
 30
0.0
 11
2997.3279170301298109
 21
134.0673455319692948
 31
0.0
  0
LINE
  5
3412E
  8
0
 10
2987.3107277782910387
 20
210.4080827851211097
 30
0.0
 11
3015.2601694676150146
 21
210.4080827851211097
 31
0.0
  0
ARC
  5
3412F
  8
0
 10
2987.3168139219869772
 20
210.2796698182980037
 30
0.0
 40
0.1285571125741347
 50
92.7135078744318406
 51
114.3458963329654949
  0
ARC
  5
34130
  8
0
 10
2987.3142337169069833
 20
210.2853721556668916
 30
0.0
 40
0.1222981901648297
 50
114.3458963329648981
 51
135.2303294565558076
  0
LINE
  5
34131
  8
0
 10
2987.2274088952967759
 20
210.3715016957210935
 30
0.0
 11
2986.0497552804968109
 21
209.1929505306210899
 31
0.0
  0
ARC
  5
34132
  8
0
 10
2986.1381476715400822
 20
209.1046431330973974
 30
0.0
 40
0.1249456331840939
 50
135.0275595665227968
 51
180.0249440828725938
  0
LINE
  5
34133
  8
0
 10
2986.0132020501969237
 20
209.1045887372210927
 30
0.0
 11
2986.0132020501750958
 21
138.5934539834615862
 31
0.0
  0
ARC
  5
34134
  8
0
 10
2986.1384139342098933
 20
138.5934656005512124
 30
0.0
 40
0.1252118845524697
 50
180.0053158893634873
 51
225.0091555474014058
  0
LINE
  5
34135
  8
0
 10
2986.0498899105969031
 20
138.5049132811211052
 30
0.0
 11
2987.2538987867819742
 21
137.3009046544046043
 31
0.0
  0
LINE
  5
34136
  8
0
 10
2987.4323560080761126
 20
137.1236399583239063
 30
0.0
 11
2987.3683436450110094
 21
137.1258906918633045
 31
0.0
  0
ARC
  5
34137
  8
0
 10
2987.3789990199538806
 20
137.2504304914529882
 30
0.0
 40
0.1249947946797459
 50
205.1643732100851878
 51
265.1097974292878234
  0
ARC
  5
34138
  8
0
 10
2987.3804970272349237
 20
137.2508714275845136
 30
0.0
 40
0.1265383455002842
 50
180.2674091397749976
 51
205.0566580560249008
  0
LINE
  5
34139
  8
0
 10
2987.2539600598920515
 20
137.2502808537662986
 30
0.0
 11
2987.2538987867819742
 21
137.3009046544046043
 31
0.0
  0
LINE
  5
3413A
  8
0
 10
3021.3046020506972127
 20
138.1820627851211043
 30
0.0
 11
3021.3046020506972127
 21
136.5070627851210929
 31
0.0
  0
ARC
  5
3413B
  8
0
 10
3021.1546020506971217
 20
136.5070627851210929
 30
0.0
 40
0.1499999999999915
 50
270.0
 51
359.9999999999984084
  0
LINE
  5
3413C
  8
0
 10
3021.1546020506971217
 20
136.3570627851210872
 30
0.0
 11
3020.9152378671178667
 21
136.3570627851210872
 31
0.0
  0
ARC
  5
3413D
  8
0
 10
3020.9152378671178667
 20
136.5072979875631063
 30
0.0
 40
0.150235202442019
 50
186.080772311083706
 51
270.0
  0
LINE
  5
3413E
  8
0
 10
3020.765847955692152
 20
136.4913835156309005
 30
0.0
 11
3020.7497985230979793
 21
136.6420403092631943
 31
0.0
  0
ARC
  5
3413F
  8
0
 10
3021.244934932958131
 20
136.701010760452391
 30
0.0
 40
0.0589489152255236
 50
269.6764512130071125
 51
0.8691819126609653
  0
LINE
  5
34140
  8
0
 10
3021.2446020506968125
 20
136.6420627851211123
 30
0.0
 11
3007.0040983581970977
 21
136.6420627851211123
 31
0.0
  0
LINE
  5
34141
  8
0
 10
3007.0040983581970977
 20
136.6420627851211123
 30
0.0
 11
3006.911722315112911
 21
136.4820627850691892
 31
0.0
  0
ARC
  5
34142
  8
0
 10
3006.6952159642760307
 20
136.6070627849840093
 30
0.0
 40
0.2499999998629093
 50
269.9999999818655851
 51
330.0000000044227022
  0
LINE
  5
34143
  8
0
 10
3006.6952159641969047
 20
136.3570627851210872
 30
0.0
 11
3006.0306491371970878
 21
136.3570627853314932
 31
0.0
  0
ARC
  5
34144
  8
0
 10
3006.0306491372762139
 20
136.6070186450448034
 30
0.0
 40
0.249955859713328
 50
210.0089697950957088
 51
269.9999999818655851
  0
LINE
  5
34145
  8
0
 10
3005.8142005811941999
 20
136.4820068281028966
 30
0.0
 11
3005.7217608008600109
 21
136.642059353275414
 31
0.0
  0
LINE
  5
34146
  8
0
 10
3005.7217608008600109
 20
136.642059353275414
 30
0.0
 11
2997.0040983581970977
 21
136.6420627851211123
 31
0.0
  0
LINE
  5
34147
  8
0
 10
2997.0040983581970977
 20
136.6420627851211123
 30
0.0
 11
2996.911722315112911
 21
136.4820627850691892
 31
0.0
  0
ARC
  5
34148
  8
0
 10
2996.6952159642760307
 20
136.6070627849840093
 30
0.0
 40
0.2499999998628899
 50
269.9999999818655851
 51
330.0000000044227022
  0
LINE
  5
34149
  8
0
 10
2996.6952159641969047
 20
136.3570627851210872
 30
0.0
 11
2996.0306491371961783
 21
136.3570627853314932
 31
0.0
  0
ARC
  5
3414A
  8
0
 10
2996.0306491372762139
 20
136.6070186450448887
 30
0.0
 40
0.2499558597133991
 50
210.0089697951243011
 51
269.9999999818655851
  0
LINE
  5
3414B
  8
0
 10
2995.8142005811951094
 20
136.4820068281028966
 30
0.0
 11
2995.7217608008600109
 21
136.642059353275414
 31
0.0
  0
LINE
  5
3414C
  8
0
 10
2995.7217608008600109
 20
136.642059353275414
 30
0.0
 11
2992.0473262112968769
 21
136.6420627853210874
 31
0.0
  0
ARC
  5
3414D
  8
0
 10
2992.0473260733051575
 20
136.4943244311293995
 30
0.0
 40
0.1477383541917772
 50
89.9999464838065819
 51
160.9237397281800952
  0
ARC
  5
3414E
  8
0
 10
2991.5151094462248693
 20
136.6783740385590988
 30
0.0
 40
0.4154035427888858
 50
269.1772719383600929
 51
340.9237397281801236
  0
LINE
  5
3414F
  8
0
 10
2991.5091447414970389
 20
136.2630133210386987
 30
0.0
 11
2991.0444405681078024
 21
136.2696866126217969
 31
0.0
  0
ARC
  5
34150
  8
0
 10
2991.050898372726806
 20
136.7193850440154961
 30
0.0
 40
0.4497447970109305
 50
204.2821840962834017
 51
269.1772719383600929
  0
ARC
  5
34151
  8
0
 10
3015.2531357427651528
 20
210.2817854098221915
 30
0.0
 40
0.1264930839716274
 50
45.174603115240032
 51
86.8123892262355383
  0
LINE
  5
34152
  8
0
 10
3015.3423068733832224
 20
210.3715016834684093
 30
0.0
 11
3016.5465074028961681
 21
209.1663831473211133
 31
0.0
  0
LINE
  5
34153
  8
0
 10
3016.5465074028961681
 20
209.1663831473211133
 30
0.0
 11
3016.5465074197632021
 21
208.9026500097210999
 31
0.0
  0
LINE
  5
34154
  8
0
 10
3021.3046020506972127
 20
210.4169161440210871
 30
0.0
 11
3021.3046020506972127
 21
209.2229606405211086
 31
0.0
  0
ARC
  5
34155
  8
0
 10
3021.1346020507271533
 20
209.2229606405211086
 30
0.0
 40
0.1699999999697326
 50
293.4460494736450187
 51
0.0000000000032569
  0
ARC
  5
34156
  8
0
 10
3021.4011852520247885
 20
208.6082791001431076
 30
0.0
 40
0.4999999995045873
 50
113.4460494736450045
 51
132.165122763949995
  0
ARC
  5
34157
  8
0
 10
3021.4021626028888932
 20
208.6071999128915024
 30
0.0
 40
0.501455973349144
 50
132.165122763949995
 51
145.9600369537330096
  0
LINE
  5
34158
  8
0
 10
3020.9866324437971343
 20
208.8879004296211122
 30
0.0
 11
3020.720910707118037
 21
208.4945438487247884
 31
0.0
  0
LINE
  5
34159
  8
0
 10
3021.0733320390982044
 20
209.0601495638977951
 30
0.0
 11
3021.1871453410540198
 21
209.0601495638977951
 31
0.0
  0
ARC
  5
3415A
  8
0
 10
3021.0928453370897842
 20
208.6837384929237942
 30
0.0
 40
0.3769165181830848
 50
92.9675735454910637
 51
124.1699005639664932
  0
ARC
  5
3415B
  8
0
 10
3021.0688686387411508
 20
208.7190590319339094
 30
0.0
 40
0.3342266770067619
 50
124.1699005639664932
 51
150.7454752185801965
  0
ARC
  5
3415C
  8
0
 10
3021.1673918338628937
 20
208.6638731702659015
 30
0.0
 40
0.447152755947416
 50
150.7454752185801965
 51
175.7632370848276082
  0
LINE
  5
3415D
  8
0
 10
3020.7214610212740808
 20
208.6969079630644899
 30
0.0
 11
3020.7212197261419533
 21
175.7123981283783962
 31
0.0
  0
ARC
  5
3415E
  8
0
 10
3018.7993315584658376
 20
175.7241812455766024
 30
0.0
 40
1.9218009232047271
 50
342.8576513621289905
 51
359.7034308868563244
  0
ARC
  5
3415F
  8
0
 10
3019.157445339467813
 20
175.6137212541555925
 30
0.0
 40
1.547038478650161
 50
309.3141177716668153
 51
342.8576513621273989
  0
ARC
  5
34160
  8
0
 10
3023.6960888280677864
 20
170.0713693107599056
 30
0.0
 40
5.6165465024236916
 50
129.3141177716667869
 51
130.6996358923645118
  0
ARC
  5
34161
  8
0
 10
3020.2492382705058844
 20
174.1200922874365915
 30
0.0
 40
0.3005957821637339
 50
135.8446064491348864
 51
149.4910296854382068
  0
ARC
  5
34162
  8
0
 10
3020.7622989253618471
 20
173.8323075494764112
 30
0.0
 40
0.8888119175020873
 50
150.298544836877312
 51
164.358584959910786
  0
ARC
  5
34163
  8
0
 10
3019.9453726077917963
 20
174.0719770982782109
 30
0.0
 40
0.0389710696200034
 50
180.0465727665514066
 51
202.0316098092380912
  0
ARC
  5
34164
  8
0
 10
3019.9327792593330742
 20
174.0668809716150065
 30
0.0
 40
0.0253856755373836
 50
202.0316098092380912
 51
223.0048978215885995
  0
ARC
  5
34165
  8
0
 10
3019.9863995809728294
 20
174.2960079794887918
 30
0.0
 40
0.2567958184062699
 50
253.6742619639780969
 51
267.0524814210911018
  0
ARC
  5
34166
  8
0
 10
3020.1079520843750288
 20
220.1920053704899942
 30
0.0
 40
46.1526502160822574
 50
269.8327066159531
 51
270.1245992686477848
  0
ARC
  5
34167
  8
0
 10
3020.4726971523659813
 20
116.2557879307052957
 30
0.0
 40
57.7842811598742898
 50
89.8026019509193247
 51
90.2621443688302634
  0
ARC
  5
34168
  8
0
 10
3020.6702143635620814
 20
173.9888464210849861
 30
0.0
 40
0.0509037437580389
 50
274.668446823370914
 51
88.2399465416301894
  0
ARC
  5
34169
  8
0
 10
3006.2700517378630138
 20
498.0630840709878839
 30
0.0
 40
324.4448825739424933
 50
272.4554159028244271
 51
272.5445840865879745
  0
ARC
  5
3416A
  8
0
 10
3020.1711969396228596
 20
173.8861640839384108
 30
0.0
 40
0.0299504875284062
 50
92.4598820996149726
 51
182.5510280139498036
  0
LINE
  5
3416B
  8
0
 10
3020.1412761336969197
 20
173.8848310138210991
 30
0.0
 11
3020.1422659223640039
 21
173.1679486664991998
 31
0.0
  0
ARC
  5
3416C
  8
0
 10
3019.9820622737797748
 20
173.1758212235511962
 30
0.0
 40
0.1603969643549734
 50
328.2486769723824978
 51
357.1866949299666203
  0
ARC
  5
3416D
  8
0
 10
3020.3416098312741269
 20
172.9533149620206132
 30
0.0
 40
0.2624309941813258
 50
148.2486769723824125
 51
172.9728189538907088
  0
ARC
  5
3416E
  8
0
 10
3019.4084588267619438
 20
173.107482712504094
 30
0.0
 40
0.6836758989428132
 50
324.7937646510198988
 51
349.7154060417129813
  0
LINE
  5
3416F
  8
0
 10
3021.3046478464971187
 20
172.7836374252210874
 30
0.0
 11
3016.2205994437968002
 21
172.5138872321211068
 31
0.0
  0
ARC
  5
34170
  8
0
 10
3016.2330481116709961
 20
172.2792641191776966
 30
0.0
 40
0.2349531324734728
 50
93.0371600536779084
 51
145.6348809455230082
  0
LINE
  5
34171
  8
0
 10
3021.3046478464971187
 20
172.7836374252210874
 30
0.0
 11
3021.3046020506972127
 21
171.8346387211211095
 31
0.0
  0
ARC
  5
34172
  8
0
 10
3021.1346280915699936
 20
171.8346469235490019
 30
0.0
 40
0.1699739593245913
 50
290.4577650459224856
 51
359.9972350794117801
  0
ARC
  5
34173
  8
0
 10
3021.3279658737310456
 20
171.3163772148755868
 30
0.0
 40
0.3831833319941383
 50
110.4577650459224998
 51
147.2883079588168016
  0
ARC
  5
34174
  8
0
 10
2917.8904738894661932
 20
214.1894100491132065
 30
0.0
 40
111.5934755923371
 50
337.3421101508719744
 51
337.5216821827427793
  0
ARC
  5
34175
  8
0
 10
2806.2995965930817874
 20
209.8610679154936065
 30
0.0
 40
218.0267611341878933
 50
349.4104060329977983
 51
349.7862841510487897
  0
ARC
  5
34176
  8
0
 10
3025.2114335705418853
 20
168.9339809275143125
 30
0.0
 40
4.6780183793369128
 50
169.4104060329977131
 51
180.5470250779347055
  0
LINE
  5
34177
  8
0
 10
3020.5336283964270478
 20
168.8893187462163894
 30
0.0
 11
3020.5337216700968384
 21
138.1820627851211043
 31
0.0
  0
ARC
  5
34178
  8
0
 10
3016.0134872606540739
 20
208.9079545637121953
 30
0.0
 40
0.7031941640293362
 50
15.7752616641231693
 51
26.0447344702739407
  0
ARC
  5
34179
  8
0
 10
3016.597839468031907
 20
209.0797207572551031
 30
0.0
 40
0.094373569448751
 50
359.1666997144436095
 51
11.8673045544009295
  0
LINE
  5
3417A
  8
0
 10
3016.6922030565619934
 20
209.0783482521482028
 30
0.0
 11
3016.69159549999722
 21
201.6401587981000887
 31
0.0
  0
ARC
  5
3417B
  8
0
 10
3016.6315810700971269
 20
201.6401637001210929
 30
0.0
 40
0.0600144301000873
 50
318.8576057684372245
 51
359.9953200402756011
  0
ARC
  5
3417C
  8
0
 10
3026.9143902057157902
 20
201.8022661706781093
 30
0.0
 40
10.2395981941619496
 50
181.1280602234922128
 51
182.7227074616073139
  0
LINE
  5
3417D
  8
0
 10
3016.6863512145400819
 20
201.3158614288603019
 30
0.0
 11
3016.6836510178968638
 21
200.5764173421210899
 31
0.0
  0
ARC
  5
3417E
  8
0
 10
3016.5879396715740768
 20
200.5010062662865096
 30
0.0
 40
0.1218502858984645
 50
354.9744177490778156
 51
38.2346142217415306
  0
LINE
  5
3417F
  8
0
 10
3016.7093215264972059
 20
200.4903321167211061
 30
0.0
 11
3016.6732110247780838
 21
172.5379019644167045
 31
0.0
  0
LINE
  5
34180
  8
0
 10
3016.5838022410121084
 20
208.9026500097210999
 30
0.0
 11
3016.4967959013970358
 21
208.9026500097210999
 31
0.0
  0
ARC
  5
34181
  8
0
 10
3016.4967959013970358
 20
208.9651119542612037
 30
0.0
 40
0.0624619445400967
 50
180.0433545620788891
 51
270.0
  0
LINE
  5
34182
  8
0
 10
3016.4343339747379105
 20
208.9650646905706992
 30
0.0
 11
3016.434277586467033
 21
209.0395853222871949
 31
0.0
  0
ARC
  5
34183
  8
0
 10
3016.3999282537129147
 20
209.0302310249138884
 30
0.0
 40
0.0356002744376339
 50
15.2338427448442904
 51
86.9155145391850965
  0
LINE
  5
34184
  8
0
 10
3016.4018438484968101
 20
209.0657797244211054
 30
0.0
 11
2987.5008057573968472
 21
209.0657797230211088
 31
0.0
  0
ARC
  5
34185
  8
0
 10
2987.5010664808878573
 20
208.9257751750058105
 30
0.0
 40
0.1400047909808916
 50
90.1066988687422281
 51
180.0242985895054062
  0
LINE
  5
34186
  8
0
 10
2987.3610617024969542
 20
208.9257158003210861
 30
0.0
 11
2987.3610618727361725
 21
137.2661083743581969
 31
0.0
  0
ARC
  5
34187
  8
0
 10
2987.3966838062069655
 20
137.2720822845109865
 30
0.0
 40
0.0361193818713255
 50
189.5200931000912874
 51
269.2774234766368977
  0
LINE
  5
34188
  8
0
 10
2987.3962283044970718
 20
137.2359657749211124
 30
0.0
 11
2987.4969192194898824
 21
137.2328908521562028
 31
0.0
  0
LINE
  5
34189
  8
0
 10
3017.1106730298761249
 20
209.0573959259376977
 30
0.0
 11
3017.1106730298761249
 21
138.1820627851211043
 31
0.0
  0
ARC
  5
3418A
  8
0
 10
3016.7103960464419288
 20
209.0323194653988139
 30
0.0
 40
0.0302017183081305
 50
93.523476249391237
 51
127.0449867604030061
  0
LINE
  5
3418B
  8
0
 10
3016.70853992409684
 20
209.0624640934211129
 30
0.0
 11
3021.1453182483978708
 21
209.3356538431775107
 31
0.0
  0
ARC
  5
3418C
  8
0
 10
3021.1347844411261576
 20
209.5067296899676137
 30
0.0
 40
0.1713998437881029
 50
273.5234762493913081
 51
352.2088339149800049
  0
ARC
  5
3418D
  8
0
 10
3017.1485167085311332
 20
209.0512718030923054
 30
0.0
 40
0.0383359999837211
 50
98.1514339623337406
 51
170.8076948421922907
  0
ARC
  5
3418E
  8
0
 10
3017.6039012470819216
 20
207.857379924146187
 30
0.0
 40
0.4949084901261347
 50
146.157902836301389
 51
175.2775893823240949
  0
LINE
  5
3418F
  8
0
 10
3017.1928423726972142
 20
208.1329974406210965
 30
0.0
 11
3017.8119034718160947
 21
208.9414513432321883
 31
0.0
  0
ARC
  5
34190
  8
0
 10
3018.2137124853779824
 20
208.6324458283048955
 30
0.0
 40
0.5068874545797922
 50
106.9559737596500071
 51
142.4384269021105922
  0
ARC
  5
34191
  8
0
 10
3018.4310498199788526
 20
207.9196088389585952
 30
0.0
 40
1.252120364744105
 50
98.9270384763841975
 51
106.9559737596500071
  0
ARC
  5
34192
  8
0
 10
3013.4511463120288681
 20
320.3265946702877045
 30
0.0
 40
111.5295834182334005
 50
273.3883057817697022
 51
273.8938308511969808
  0
ARC
  5
34193
  8
0
 10
3020.136113561421098
 20
174.5056485382573044
 30
0.0
 40
0.590529540503217
 50
255.1847182491719082
 51
273.2810149107731945
  0
ARC
  5
34194
  8
0
 10
3020.1487103760050559
 20
174.5532741308554989
 30
0.0
 40
0.63979288192462
 50
242.2857979924430083
 51
255.1847182491719082
  0
LINE
  5
34195
  8
0
 10
3019.8511673414968755
 20
173.9868793265210911
 30
0.0
 11
3019.8511633901989626
 21
174.1440809142287094
 31
0.0
  0
ARC
  5
34196
  8
0
 10
3020.0514053384190447
 20
208.8712588938205101
 30
0.0
 40
0.1210195579004573
 50
94.0595827911217555
 51
164.3030866444896105
  0
ARC
  5
34197
  8
0
 10
3020.0481988894889582
 20
208.8721599995834879
 30
0.0
 40
0.1176888963540854
 50
164.3030866444896105
 51
190.6734027850527866
  0
ARC
  5
34198
  8
0
 10
3019.7061095216740796
 20
208.7645049953042076
 30
0.0
 40
0.2421675113753249
 50
8.9774301714468177
 51
20.7651839442037094
  0
ARC
  5
34199
  8
0
 10
3022.0225243747900095
 20
208.8571001864148968
 30
0.0
 40
2.0779368084643819
 50
181.5113648306653999
 51
190.4485735410553104
  0
ARC
  5
3419A
  8
0
 10
3014.6043474673720084
 20
207.373645274928208
 30
0.0
 40
5.487436277218622
 50
2.5365136657572189
 51
11.6342464261395495
  0
ARC
  5
3419B
  8
0
 10
3021.6679857165258909
 20
207.7390833064605999
 30
0.0
 40
1.5863220518573251
 50
184.4320478649918869
 51
194.9680558989840051
  0
ARC
  5
3419C
  8
0
 10
3019.8273097125688764
 20
207.2691935892727031
 30
0.0
 40
0.3139975988707081
 50
358.6491909016086765
 51
11.0483610043398102
  0
LINE
  5
3419D
  8
0
 10
3020.1412200506961199
 20
207.2617914468210927
 30
0.0
 11
3020.1412197002550784
 21
206.3553887546187013
 31
0.0
  0
ARC
  5
3419E
  8
0
 10
3026.0191975599241232
 20
206.3249772210054118
 30
0.0
 40
5.8780565308710111
 50
179.7035652376738994
 51
180.2970111506870126
  0
ARC
  5
3419F
  8
0
 10
3019.9867049508220589
 20
206.2879640252837987
 30
0.0
 40
0.1546535066955392
 50
347.4717316763188251
 51
2.4245896293976181
  0
ARC
  5
341A0
  8
0
 10
3021.5533364604548296
 20
205.9084960794378958
 30
0.0
 40
1.4573109990591819
 50
166.2686973349626953
 51
179.0636767221535877
  0
LINE
  5
341A1
  8
0
 10
3020.0962200506969566
 20
205.9323102851211047
 30
0.0
 11
3020.0962224865188546
 21
204.104528945142107
 31
0.0
  0
ARC
  5
341A2
  8
0
 10
3021.2574477553148427
 20
204.1067515722052974
 30
0.0
 40
1.1612302708141971
 50
180.1204546187412916
 51
190.5591511759174068
  0
ARC
  5
341A3
  8
0
 10
3021.6990131055131314
 20
204.1444564707560971
 30
0.0
 40
1.6028276572988369
 50
188.9914394198499963
 51
193.0339246437366114
  0
ARC
  5
341A4
  8
0
 10
3019.956051823605776
 20
203.7458178590948989
 30
0.0
 40
0.1851934459121682
 50
357.4347870137552263
 51
11.5740664429164699
  0
LINE
  5
341A5
  8
0
 10
2987.3610615324550963
 20
208.8503596850260067
 30
0.0
 11
2999.4850630321261633
 21
208.8503596850260067
 31
0.0
  0
LINE
  5
341A6
  8
0
 10
2999.6066444269358726
 20
208.8503596850260067
 30
0.0
 11
3016.5746533652240942
 21
208.8503596850260067
 31
0.0
  0
LINE
  5
341A7
  8
0
 10
3017.7421514403549736
 20
208.8503596850260067
 30
0.0
 11
3019.9325473184708244
 21
208.8503596850260067
 31
0.0
  0
LINE
  5
341A8
  8
0
 10
2987.6296225735000007
 20
208.8343353960702018
 30
0.0
 11
2991.0819538166510938
 21
208.8343353960702018
 31
0.0
  0
LINE
  5
341A9
  8
0
 10
2991.236094559364119
 20
208.8343353960702018
 30
0.0
 11
2998.2933575174520229
 21
208.8343353960702018
 31
0.0
  0
LINE
  5
341AA
  8
0
 10
2998.4491635841850439
 20
208.8343353960702018
 30
0.0
 11
2999.4852901778472187
 21
208.8343353960702018
 31
0.0
  0
LINE
  5
341AB
  8
0
 10
2999.6062452677970214
 20
208.8343353960702018
 30
0.0
 11
3005.5072185451849691
 21
208.8343353960702018
 31
0.0
  0
LINE
  5
341AC
  8
0
 10
3005.6654288584450114
 20
208.8343353960702018
 30
0.0
 11
3012.7224901180002234
 21
208.8343353960702018
 31
0.0
  0
LINE
  5
341AD
  8
0
 10
3012.878786312171087
 20
208.8343353960702018
 30
0.0
 11
3016.566843528516074
 21
208.8343353960702018
 31
0.0
  0
LINE
  5
341AE
  8
0
 10
3017.7298810883889928
 20
208.8343353960702018
 30
0.0
 11
3019.9379905659498036
 21
208.8343353960702018
 31
0.0
  0
LINE
  5
341AF
  8
0
 10
2987.629395998812015
 20
206.2988704820809005
 30
0.0
 11
2991.0909502771501138
 21
206.2988704820809005
 31
0.0
  0
LINE
  5
341B0
  8
0
 10
2991.234511898198889
 20
206.2988704820809005
 30
0.0
 11
2998.2937931862870755
 21
206.2988704820809005
 31
0.0
  0
LINE
  5
341B1
  8
0
 10
2998.4437157067750377
 20
206.2988704820809005
 30
0.0
 11
2999.4852901778472187
 21
206.2988704820809005
 31
0.0
  0
LINE
  5
341B2
  8
0
 10
2999.6062452677970214
 20
206.2988704820809005
 30
0.0
 11
3005.5085793379621464
 21
206.2988704820809005
 31
0.0
  0
LINE
  5
341B3
  8
0
 10
3005.6591398981481689
 20
206.2988704820809005
 30
0.0
 11
3012.7226192050620739
 21
206.2988704820809005
 31
0.0
  0
LINE
  5
341B4
  8
0
 10
3012.8787432831500155
 20
206.2988704820809005
 30
0.0
 11
3016.0390895866521532
 21
206.2988704820809005
 31
0.0
  0
LINE
  5
341B5
  8
0
 10
3017.1106730298761249
 20
206.2988704820809005
 30
0.0
 11
3020.1411990044371123
 21
206.2988704820809005
 31
0.0
  0
ARC
  5
341B6
  8
0
 10
2987.6298225258310595
 20
206.3702060877726012
 30
0.0
 40
0.0713368808170006
 50
179.2693647026127906
 51
269.6574234349184849
  0
LINE
  5
341B7
  8
0
 10
2987.5584914450969336
 20
206.3711157504210973
 30
0.0
 11
2987.558465681711823
 21
208.7614021318163111
 31
0.0
  0
ARC
  5
341B8
  8
0
 10
2987.6308814373492169
 20
208.7619285277170889
 30
0.0
 40
0.0724178108125342
 50
90.9960425181418771
 51
180.4316804038556938
  0
ARC
  5
341B9
  8
0
 10
2991.0796323565809871
 20
208.7610181270520116
 30
0.0
 40
0.0733540122497293
 50
0.4343241771421074
 51
88.1864376193042858
  0
LINE
  5
341BA
  8
0
 10
2991.1529842612972061
 20
208.7615741735210975
 30
0.0
 11
2991.1529533281968725
 21
206.3711097286210929
 31
0.0
  0
ARC
  5
341BB
  8
0
 10
2991.0803599984651555
 20
206.370688416069612
 30
0.0
 40
0.0725945565800213
 50
278.3883887629867218
 51
0.3331040285022615
  0
ARC
  5
341BC
  8
0
 10
2991.2369169237808819
 20
206.3700967842165142
 30
0.0
 40
0.071266894586253
 50
179.1873179770259128
 51
268.0660868597823878
  0
LINE
  5
341BD
  8
0
 10
2991.1656571979960972
 20
206.371107598321089
 30
0.0
 11
2991.1656266700360902
 21
208.7613843077039064
 31
0.0
  0
ARC
  5
341BE
  8
0
 10
2991.2382901276018856
 20
208.7617043132212871
 30
0.0
 40
0.0726642602362917
 50
91.731469396481657
 51
180.2693523101270898
  0
ARC
  5
341BF
  8
0
 10
2998.2925376314560708
 20
208.7620254554803125
 30
0.0
 40
0.0723145885777028
 50
359.6441080732213891
 51
89.3503798512329865
  0
LINE
  5
341C0
  8
0
 10
2998.3648508249971201
 20
208.7615762773210975
 30
0.0
 11
2998.3648196659969472
 21
206.3711171230210937
 31
0.0
  0
ARC
  5
341C1
  8
0
 10
2998.293386074099999
 20
206.3703075102540936
 30
0.0
 40
0.0714381882087957
 50
270.3265191478275256
 51
0.6499486217486165
  0
ARC
  5
341C2
  8
0
 10
2998.4518520712749705
 20
206.3702906636258945
 30
0.0
 40
0.0718821449261468
 50
179.3488241358278117
 51
263.5007423238569118
  0
LINE
  5
341C3
  8
0
 10
2998.37997456869698
 20
206.371107598321089
 30
0.0
 11
2998.3799440733018855
 21
208.7614366965219972
 31
0.0
  0
ARC
  5
341C4
  8
0
 10
2998.4531324003601185
 20
208.7612545719881894
 30
0.0
 40
0.0731885124205351
 50
93.1085207737892659
 51
179.8709714221108982
  0
ARC
  5
341C5
  8
0
 10
3005.5079443804302173
 20
206.3700680361426123
 30
0.0
 40
0.0712003853601285
 50
270.510964496185295
 51
0.8442429812943411
  0
ARC
  5
341C6
  8
0
 10
3005.6673511788631004
 20
206.3714677067731884
 30
0.0
 40
0.0730601270460567
 50
180.2824081869175075
 51
263.5468511276354207
  0
LINE
  5
341C7
  8
0
 10
3005.5942919392969088
 20
206.371107598321089
 30
0.0
 11
3005.594261530996846
 21
208.7615762126210939
 31
0.0
  0
ARC
  5
341C8
  8
0
 10
3005.6678855990321608
 20
208.7607476639909976
 30
0.0
 40
0.0736287300369923
 50
91.9121204299946868
 51
179.3552334588219139
  0
ARC
  5
341C9
  8
0
 10
3005.5070607916932204
 20
208.7622252454189038
 30
0.0
 40
0.0721103232076229
 50
359.4843507364287802
 51
89.8746557207244336
  0
LINE
  5
341CA
  8
0
 10
3005.5791681945970595
 20
208.7615762773201027
 30
0.0
 11
3005.579137036596876
 21
206.3711171230210937
 31
0.0
  0
ARC
  5
341CB
  8
0
 10
3012.7221723721540911
 20
206.3701575743392027
 30
0.0
 40
0.0712884926358068
 50
270.3591295941545809
 51
0.771228959322896
  0
ARC
  5
341CC
  8
0
 10
3012.8802316546480142
 20
206.3704802989259122
 30
0.0
 40
0.0716252826751374
 50
179.4822863878931969
 51
268.8093095007728266
  0
LINE
  5
341CD
  8
0
 10
3012.7934544071968048
 20
206.3711171230210937
 30
0.0
 11
3012.7934855661969777
 21
208.7615762773210975
 31
0.0
  0
ARC
  5
341CE
  8
0
 10
3012.7207055131111701
 20
208.7615772259898108
 30
0.0
 40
0.0727800530918767
 50
359.9992531647370129
 51
88.5949367567366579
  0
ARC
  5
341CF
  8
0
 10
3012.8809764490401903
 20
208.761969913148306
 30
0.0
 40
0.072398617514606
 50
91.7335240728104253
 51
180.3115734878496141
  0
LINE
  5
341D0
  8
0
 10
3012.8085789019969525
 20
208.7615762126210939
 30
0.0
 11
3012.8086092959051712
 21
206.371127482357906
 31
0.0
  0
LINE
  5
341D1
  8
0
 10
3016.0390895921677838
 20
206.2861954475555137
 30
0.0
 11
3002.0581492199621607
 21
206.2861954475555137
 31
0.0
  0
LINE
  5
341D2
  8
0
 10
3001.901031626582153
 20
206.2861954475555137
 30
0.0
 11
2999.6062452677970214
 21
206.2861954475555137
 31
0.0
  0
LINE
  5
341D3
  8
0
 10
2999.4852901778472187
 20
206.2861954475555137
 30
0.0
 11
2994.8438755687170669
 21
206.2861954475555137
 31
0.0
  0
LINE
  5
341D4
  8
0
 10
2994.6863254819891154
 20
206.2861954475555137
 30
0.0
 11
2987.6293697780020011
 21
206.2861954475555137
 31
0.0
  0
LINE
  5
341D5
  8
0
 10
3017.1106730298761249
 20
206.2861954475555137
 30
0.0
 11
3020.1413483446881401
 21
206.2861954475555137
 31
0.0
  0
ARC
  5
341D6
  8
0
 10
2987.6315758410728449
 20
206.2131198732556925
 30
0.0
 40
0.0731088659023162
 50
91.7291650084680157
 51
179.6815481915708972
  0
LINE
  5
341D7
  8
0
 10
2987.55846810439607
 20
206.2135262126211046
 30
0.0
 11
2987.5584985122968646
 21
203.8230575983210997
 31
0.0
  0
ARC
  5
341D8
  8
0
 10
2987.6296888718998161
 20
203.8222837759925881
 30
0.0
 40
0.0711945651116953
 50
179.3772329801512058
 51
269.8312354304330825
  0
LINE
  5
341D9
  8
0
 10
2987.6294791687969337
 20
203.7510895197210914
 30
0.0
 11
2994.6866645410968886
 21
203.7510915584211091
 31
0.0
  0
ARC
  5
341DA
  8
0
 10
2994.6836274968691214
 20
203.8250904399083936
 30
0.0
 40
0.0740611265432911
 50
272.3506929296916041
 51
358.4345101257728174
  0
LINE
  5
341DB
  8
0
 10
2994.7576609801972154
 20
203.8230671230211044
 30
0.0
 11
2994.7576921396971557
 21
206.2135262773211082
 31
0.0
  0
ARC
  5
341DC
  8
0
 10
2994.6860461373162252
 20
206.214542757039311
 30
0.0
 40
0.0716532350397269
 50
359.1859089007385819
 51
89.7766282095040964
  0
ARC
  5
341DD
  8
0
 10
2994.8461058754119222
 20
206.2129063556079984
 30
0.0
 40
0.0733230200308808
 50
91.743066150644637
 51
179.5156280554801072
  0
ARC
  5
341DE
  8
0
 10
3135.9785932502531978
 20
205.0197600801166118
 30
0.0
 40
141.2108537857502029
 50
179.5156280554801072
 51
180.4857547164687048
  0
ARC
  5
341DF
  8
0
 10
2994.8449316040550912
 20
203.8231975241318139
 30
0.0
 40
0.072119869033253
 50
180.4857547164669995
 51
269.1164670166377846
  0
LINE
  5
341E0
  8
0
 10
2994.8438195193912179
 20
203.7510862297523886
 30
0.0
 11
2999.4852901778472187
 21
203.7510897343989029
 31
0.0
  0
LINE
  5
341E1
  8
0
 10
2999.6062452677970214
 20
203.7510898257287124
 30
0.0
 11
3001.9009819116968174
 21
203.7510915584211091
 31
0.0
  0
ARC
  5
341E2
  8
0
 10
3001.9001164639789749
 20
206.214304019215291
 30
0.0
 40
0.0718972530169709
 50
359.3801961086068104
 51
89.2706762977327202
  0
LINE
  5
341E3
  8
0
 10
3001.9720095102970845
 20
206.2135262773211082
 30
0.0
 11
3001.9719805577960869
 21
203.8225679057987918
 31
0.0
  0
ARC
  5
341E4
  8
0
 10
3001.900199531322869
 20
203.8228689522954085
 30
0.0
 40
0.0717816577576463
 50
270.6245046766705968
 51
359.7597054066814053
  0
ARC
  5
341E5
  8
0
 10
3002.0594783906180965
 20
206.2138314647926904
 30
0.0
 40
0.0723761887359087
 50
91.0522818560117173
 51
180.2416500961570023
  0
LINE
  5
341E6
  8
0
 10
3001.9871028455968371
 20
206.2135262126211046
 30
0.0
 11
3001.9871332539969444
 21
203.8230575983210997
 31
0.0
  0
ARC
  5
341E7
  8
0
 10
3002.0583253827171575
 20
203.8222823300245068
 30
0.0
 40
0.0711963498546581
 50
179.3760848785564121
 51
269.8483089367377943
  0
LINE
  5
341E8
  8
0
 10
3002.058136889996149
 20
203.7510862296880134
 30
0.0
 11
3002.6033161396821924
 21
203.7510866413427948
 31
0.0
  0
LINE
  5
341E9
  8
0
 10
3002.7069534852707875
 20
203.7510867195975095
 30
0.0
 11
3009.115299282297201
 21
203.7510915584211091
 31
0.0
  0
ARC
  5
341EA
  8
0
 10
3009.1155801604641056
 20
203.8218176793292002
 30
0.0
 40
0.0707265985204684
 50
269.7729728566188214
 51
1.0122298519224739
  0
LINE
  5
341EB
  8
0
 10
3009.1862957218968404
 20
203.8230671230211044
 30
0.0
 11
3009.1863268798970239
 21
206.2135262773199997
 31
0.0
  0
ARC
  5
341EC
  8
0
 10
3009.1134419005989002
 20
206.2133357267179008
 30
0.0
 40
0.072885228385474
 50
0.1497938337816235
 51
88.4841197578791139
  0
ARC
  5
341ED
  8
0
 10
3009.2734506528131533
 20
206.2141693813009056
 30
0.0
 40
0.0720333075248761
 50
90.8124225499860813
 51
180.511587511324791
  0
LINE
  5
341EE
  8
0
 10
3009.2014202166969881
 20
206.2135262126211046
 30
0.0
 11
3009.2014506241971503
 21
203.8230575983210997
 31
0.0
  0
ARC
  5
341EF
  8
0
 10
3009.2727910056801193
 20
203.8224285415703037
 30
0.0
 40
0.0713431544399442
 50
179.4947971642727964
 51
269.7110960234135177
  0
LINE
  5
341F0
  8
0
 10
3009.2724312717891735
 20
203.7510862940800109
 30
0.0
 11
3016.0390906992229247
 21
203.7426458679456118
 31
0.0
  0
LINE
  5
341F1
  8
0
 10
3020.1416276345689766
 20
202.1333015899720067
 30
0.0
 11
3020.1416272841270256
 21
201.2268988977695869
 31
0.0
  0
ARC
  5
341F2
  8
0
 10
3026.019605143795161
 20
201.1964873641562974
 30
0.0
 40
5.8780565308710111
 50
179.7035652376738994
 51
180.2970111506870126
  0
ARC
  5
341F3
  8
0
 10
3019.9871125346949157
 20
201.1594741684347127
 30
0.0
 40
0.1546535066955392
 50
347.4717316763188251
 51
2.4245896293976181
  0
ARC
  5
341F4
  8
0
 10
3021.5537440443267769
 20
200.7800062225888098
 30
0.0
 40
1.4573109990591819
 50
166.2686973349626953
 51
179.0636767221535877
  0
LINE
  5
341F5
  8
0
 10
3020.0966276345689039
 20
200.803820428272104
 30
0.0
 11
3020.0966300703908018
 21
198.9760390882929926
 31
0.0
  0
ARC
  5
341F6
  8
0
 10
3021.2578553391867899
 20
198.9782617153562114
 30
0.0
 40
1.1612302708141971
 50
180.1204546187412916
 51
190.5591511759174068
  0
ARC
  5
341F7
  8
0
 10
3021.6994206893850787
 20
199.0159666139070964
 30
0.0
 40
1.6028276572988369
 50
188.9914394198499963
 51
193.0339246437366114
  0
ARC
  5
341F8
  8
0
 10
3019.956459407478178
 20
198.6173280022458982
 30
0.0
 40
0.1851934459121682
 50
357.4347870137552263
 51
11.5740664429164699
  0
LINE
  5
341F9
  8
0
 10
2987.6300301573710385
 20
203.7058455392210874
 30
0.0
 11
2991.0823614005221316
 21
203.7058455392210874
 31
0.0
  0
LINE
  5
341FA
  8
0
 10
2991.2365021432360663
 20
203.7058455392210874
 30
0.0
 11
2998.2937651013248797
 21
203.7058455392210874
 31
0.0
  0
LINE
  5
341FB
  8
0
 10
2998.4495711680569912
 20
203.7058455392210874
 30
0.0
 11
2999.4852901778472187
 21
203.7058455392210874
 31
0.0
  0
LINE
  5
341FC
  8
0
 10
2999.6062452677970214
 20
203.7058455392210874
 30
0.0
 11
3002.6033183557551638
 21
203.7058455392210874
 31
0.0
  0
LINE
  5
341FD
  8
0
 10
3002.7069442814117792
 20
203.7058455392210874
 30
0.0
 11
3005.5076261290569164
 21
203.7058455392210874
 31
0.0
  0
LINE
  5
341FE
  8
0
 10
3005.6658364423169587
 20
203.7058455392210874
 30
0.0
 11
3012.7228977018721707
 21
203.7058455392210874
 31
0.0
  0
LINE
  5
341FF
  8
0
 10
3012.8791938960430343
 20
203.7058455392210874
 30
0.0
 11
3016.0390907152409454
 21
203.7058455392210874
 31
0.0
  0
LINE
  5
34200
  8
0
 10
2987.6298035826839623
 20
201.1703806252317861
 30
0.0
 11
2991.0913578610220611
 21
201.1703806252317861
 31
0.0
  0
LINE
  5
34201
  8
0
 10
2991.2349194820708362
 20
201.1703806252317861
 30
0.0
 11
2998.2942007701590228
 21
201.1703806252317861
 31
0.0
  0
LINE
  5
34202
  8
0
 10
2998.4441232906478945
 20
201.1703806252317861
 30
0.0
 11
2999.4852901778472187
 21
201.1703806252317861
 31
0.0
  0
LINE
  5
34203
  8
0
 10
2999.6062452677970214
 20
201.1703806252317861
 30
0.0
 11
3005.5089869218340937
 21
201.1703806252317861
 31
0.0
  0
LINE
  5
34204
  8
0
 10
3005.6595474820201161
 20
201.1703806252317861
 30
0.0
 11
3012.7230267889331117
 21
201.1703806252317861
 31
0.0
  0
LINE
  5
34205
  8
0
 10
3012.8791508670219628
 20
201.1703806252317861
 30
0.0
 11
3016.039497170523191
 21
201.1703806252317861
 31
0.0
  0
ARC
  5
34206
  8
0
 10
2987.6302301097020973
 20
201.2417162309234868
 30
0.0
 40
0.0713368808170006
 50
179.2693647026127906
 51
269.6574234349184849
  0
LINE
  5
34207
  8
0
 10
2987.5588990289679714
 20
201.2426258935720966
 30
0.0
 11
2987.558873265584225
 21
203.6329122749673104
 31
0.0
  0
ARC
  5
34208
  8
0
 10
2987.6312890212197999
 20
203.6334386708680881
 30
0.0
 40
0.0724178108125342
 50
90.9960425181418771
 51
180.4316804038556938
  0
ARC
  5
34209
  8
0
 10
2991.0800399404529344
 20
203.6325282702030108
 30
0.0
 40
0.0733540122497293
 50
0.4343241771421074
 51
88.1864376193042858
  0
LINE
  5
3420A
  8
0
 10
2991.1533918451691534
 20
203.6330843166720967
 30
0.0
 11
2991.1533609120688197
 21
201.2426198717720069
 31
0.0
  0
ARC
  5
3420B
  8
0
 10
2991.0807675823371028
 20
201.2421985592206113
 30
0.0
 40
0.0725945565800213
 50
278.3883887629867218
 51
0.3331040285022615
  0
ARC
  5
3420C
  8
0
 10
2991.2373245076528292
 20
201.2416069273675134
 30
0.0
 40
0.071266894586253
 50
179.1873179770259128
 51
268.0660868597823878
  0
LINE
  5
3420D
  8
0
 10
2991.1660647818680445
 20
201.2426177414720883
 30
0.0
 11
2991.1660342539080375
 21
203.6328944508549057
 31
0.0
  0
ARC
  5
3420E
  8
0
 10
2991.2386977114738329
 20
203.6332144563722011
 30
0.0
 40
0.0726642602362917
 50
91.731469396481657
 51
180.2693523101270898
  0
ARC
  5
3420F
  8
0
 10
2998.2929452153271086
 20
203.6335355986311981
 30
0.0
 40
0.0723145885777028
 50
359.6441080732213891
 51
89.3503798512329865
  0
LINE
  5
34210
  8
0
 10
2998.3652584088690674
 20
203.6330864204720967
 30
0.0
 11
2998.3652272498679849
 21
201.242627266172093
 31
0.0
  0
ARC
  5
34211
  8
0
 10
2998.2937936579719462
 20
201.2418176534050929
 30
0.0
 40
0.0714381882087957
 50
270.3265191478275256
 51
0.6499486217486165
  0
ARC
  5
34212
  8
0
 10
2998.4522596551469178
 20
201.2418008067768085
 30
0.0
 40
0.0718821449261468
 50
179.3488241358278117
 51
263.5007423238569118
  0
LINE
  5
34213
  8
0
 10
2998.3803821525689273
 20
201.2426177414720883
 30
0.0
 11
2998.380351657175197
 21
203.6329468396729965
 31
0.0
  0
ARC
  5
34214
  8
0
 10
2998.4535399842320658
 20
203.6327647151391886
 30
0.0
 40
0.0731885124205351
 50
93.1085207737892659
 51
179.8709714221108982
  0
ARC
  5
34215
  8
0
 10
3005.5083519643008003
 20
201.2415781792934979
 30
0.0
 40
0.0712003853601285
 50
270.510964496185295
 51
0.8442429812943411
  0
ARC
  5
34216
  8
0
 10
3005.6677587627341381
 20
201.2429778499241024
 30
0.0
 40
0.0730601270460567
 50
180.2824081869175075
 51
263.5468511276354207
  0
LINE
  5
34217
  8
0
 10
3005.5946995231688561
 20
201.2426177414720883
 30
0.0
 11
3005.5946691148687933
 21
203.6330863557720932
 31
0.0
  0
ARC
  5
34218
  8
0
 10
3005.6682931829041081
 20
203.6322578071419969
 30
0.0
 40
0.0736287300369923
 50
91.9121204299946868
 51
179.3552334588219139
  0
ARC
  5
34219
  8
0
 10
3005.5074683755651677
 20
203.6337353885699031
 30
0.0
 40
0.0721103232076229
 50
359.4843507364287802
 51
89.8746557207244336
  0
LINE
  5
3421A
  8
0
 10
3005.5795757784690068
 20
203.6330864204709883
 30
0.0
 11
3005.5795446204688233
 21
201.242627266172093
 31
0.0
  0
ARC
  5
3421B
  8
0
 10
3012.7225799560260384
 20
201.2416677174900883
 30
0.0
 40
0.0712884926358068
 50
270.3591295941545809
 51
0.771228959322896
  0
ARC
  5
3421C
  8
0
 10
3012.8806392385199615
 20
201.2419904420769114
 30
0.0
 40
0.0716252826751374
 50
179.4822863878931969
 51
268.8093095007728266
  0
LINE
  5
3421D
  8
0
 10
3012.7938619910692069
 20
201.242627266172093
 30
0.0
 11
3012.793893150068925
 21
203.6330864204720967
 31
0.0
  0
ARC
  5
3421E
  8
0
 10
3012.7211130969831174
 20
203.6330873691406964
 30
0.0
 40
0.0727800530918767
 50
359.9992531647370129
 51
88.5949367567366579
  0
ARC
  5
3421F
  8
0
 10
3012.8813840329121376
 20
203.6334800562991916
 30
0.0
 40
0.072398617514606
 50
91.7335240728104253
 51
180.3115734878496141
  0
LINE
  5
34220
  8
0
 10
3012.8089864858688998
 20
203.6330863557720932
 30
0.0
 11
3012.8090168797771184
 21
201.2426376255087916
 31
0.0
  0
LINE
  5
34221
  8
0
 10
3016.0394971760401859
 20
201.157705590706513
 30
0.0
 11
3002.058556803834108
 21
201.157705590706513
 31
0.0
  0
LINE
  5
34222
  8
0
 10
3001.9014392104541002
 20
201.157705590706513
 30
0.0
 11
2999.6062452677970214
 21
201.157705590706513
 31
0.0
  0
LINE
  5
34223
  8
0
 10
2999.4852901778472187
 20
201.157705590706513
 30
0.0
 11
2994.8442831525881047
 21
201.157705590706513
 31
0.0
  0
LINE
  5
34224
  8
0
 10
2994.6867330658619721
 20
201.157705590706513
 30
0.0
 11
2987.6297773618739484
 21
201.157705590706513
 31
0.0
  0
ARC
  5
34225
  8
0
 10
2987.6319834249447922
 20
201.0846300164066065
 30
0.0
 40
0.0731088659023162
 50
91.7291650084680157
 51
179.6815481915708972
  0
LINE
  5
34226
  8
0
 10
2987.5588756882680173
 20
201.0850363557721039
 30
0.0
 11
2987.5589060961688119
 21
198.6945677414720137
 31
0.0
  0
ARC
  5
34227
  8
0
 10
2987.6300964557722182
 20
198.6937939191435021
 30
0.0
 40
0.0711945651116953
 50
179.3772329801512058
 51
269.8312354304330825
  0
LINE
  5
34228
  8
0
 10
2987.6298867526688809
 20
198.6225996628720054
 30
0.0
 11
2994.6870721249679264
 21
198.6226017015721084
 31
0.0
  0
ARC
  5
34229
  8
0
 10
2994.6840350807410687
 20
198.6966005830593076
 30
0.0
 40
0.0740611265432911
 50
272.3506929296916041
 51
358.4345101257728174
  0
LINE
  5
3422A
  8
0
 10
2994.7580685640691627
 20
198.69457726617199
 30
0.0
 11
2994.7580997235691029
 21
201.0850364204721075
 31
0.0
  0
ARC
  5
3422B
  8
0
 10
2994.6864537211881725
 20
201.0860529001901966
 30
0.0
 40
0.0716532350397269
 50
359.1859089007385819
 51
89.7766282095040964
  0
ARC
  5
3422C
  8
0
 10
2994.8465134592838695
 20
201.0844164987589977
 30
0.0
 40
0.0733230200308808
 50
91.743066150644637
 51
179.5156280554801072
  0
ARC
  5
3422D
  8
0
 10
3135.979000834125145
 20
199.8912702232674974
 30
0.0
 40
141.2108537857502029
 50
179.5156280554801072
 51
180.4857547164687048
  0
ARC
  5
3422E
  8
0
 10
2994.8453391879270384
 20
198.6947076672828132
 30
0.0
 40
0.072119869033253
 50
180.4857547164669995
 51
269.1164670166377846
  0
LINE
  5
3422F
  8
0
 10
2994.8442271032631652
 20
198.6225963729033026
 30
0.0
 11
2999.4852901778472187
 21
198.6225998772420098
 31
0.0
  0
ARC
  5
34230
  8
0
 10
3001.9005240478500127
 20
201.0858141623662902
 30
0.0
 40
0.0718972530169709
 50
359.3801961086068104
 51
89.2706762977327202
  0
LINE
  5
34231
  8
0
 10
3001.9724170941690318
 20
201.0850364204721075
 30
0.0
 11
3001.9723881416680342
 21
198.6940780489497058
 31
0.0
  0
ARC
  5
34232
  8
0
 10
3001.9007464136020644
 20
198.6942389910965119
 30
0.0
 40
0.071641908843208
 50
270.5143131724361183
 51
359.8712860438221242
  0
ARC
  5
34233
  8
0
 10
3002.0598859744891342
 20
201.0853416079436045
 30
0.0
 40
0.0723761887359087
 50
91.0522818560117173
 51
180.2416500961570023
  0
LINE
  5
34234
  8
0
 10
3001.9875104294687844
 20
201.0850363557721039
 30
0.0
 11
3001.9875408378679822
 21
198.6945677414720137
 31
0.0
  0
ARC
  5
34235
  8
0
 10
3002.0587268620529358
 20
198.6937900075091079
 30
0.0
 40
0.0711902725752285
 50
179.3740470645801111
 51
269.8532090925729108
  0
ARC
  5
34236
  8
0
 10
3009.115984710525936
 20
198.6933290357692954
 30
0.0
 40
0.0707296104348524
 50
269.7754401353419098
 51
1.011203743443859
  0
LINE
  5
34237
  8
0
 10
3009.1867033057687877
 20
198.69457726617199
 30
0.0
 11
3009.1867344637689712
 21
201.085036420470999
 31
0.0
  0
ARC
  5
34238
  8
0
 10
3009.113849484469938
 20
201.0848458698689001
 30
0.0
 40
0.072885228385474
 50
0.1497938337816235
 51
88.4841197578791139
  0
ARC
  5
34239
  8
0
 10
3009.2738582366841911
 20
201.0856795244519049
 30
0.0
 40
0.0720333075248761
 50
90.8124225499860813
 51
180.511587511324791
  0
LINE
  5
3423A
  8
0
 10
3009.2018278005680259
 20
201.0850363557721039
 30
0.0
 11
3009.2018582080690976
 21
198.6945677414720137
 31
0.0
  0
ARC
  5
3423B
  8
0
 10
3009.2731925653752114
 20
198.6939362437348109
 30
0.0
 40
0.071337152064545
 50
179.4927940541128066
 51
269.7159102057926816
  0
LINE
  5
3423C
  8
0
 10
3017.1110806137471627
 20
198.6128193675716034
 30
0.0
 11
3020.1414672761688962
 21
198.6090393997666865
 31
0.0
  0
ARC
  5
3423D
  8
0
 10
3026.0198963662251117
 20
191.004377312670897
 30
0.0
 40
5.8780565308710111
 50
179.7035652376738994
 51
180.2970111506870126
  0
ARC
  5
3423E
  8
0
 10
3019.9874037571239569
 20
190.9673641169493976
 30
0.0
 40
0.1546535066955392
 50
347.4717316763188251
 51
2.4245896293976181
  0
ARC
  5
3423F
  8
0
 10
3021.5540352667558182
 20
190.5878961711034094
 30
0.0
 40
1.4573109990591819
 50
166.2686973349626953
 51
179.0636767221535877
  0
LINE
  5
34240
  8
0
 10
3020.0969188569979451
 20
190.6117103767867036
 30
0.0
 11
3020.0969212928198431
 21
188.7839290368077059
 31
0.0
  0
ARC
  5
34241
  8
0
 10
3021.2581465616158312
 20
188.7861516638708963
 30
0.0
 40
1.1612302708141971
 50
180.1204546187412916
 51
190.5591511759174068
  0
ARC
  5
34242
  8
0
 10
3021.6997119118132105
 20
188.823856562421696
 30
0.0
 40
1.6028276572988369
 50
188.9914394198499963
 51
193.0339246437366114
  0
ARC
  5
34243
  8
0
 10
3019.9567506299072193
 20
188.4252179507604978
 30
0.0
 40
0.1851934459121682
 50
357.4347870137552263
 51
11.5740664429164699
  0
LINE
  5
34244
  8
0
 10
3016.0397883984678629
 20
190.9655955392211126
 30
0.0
 11
3009.2731281007709185
 21
190.9655955392211126
 31
0.0
  0
LINE
  5
34245
  8
0
 10
3009.1160688138120349
 20
190.9655955392211126
 30
0.0
 11
3002.0588480262631492
 21
190.9655955392211126
 31
0.0
  0
LINE
  5
34246
  8
0
 10
3001.9017304328817772
 20
190.9655955392211126
 30
0.0
 11
2999.6062452677970214
 21
190.9655955392211126
 31
0.0
  0
LINE
  5
34247
  8
0
 10
2999.4852901778472187
 20
190.9655955392211126
 30
0.0
 11
2994.8445743750171459
 21
190.9655955392211126
 31
0.0
  0
LINE
  5
34248
  8
0
 10
2994.6870242882910134
 20
190.9655955392211126
 30
0.0
 11
2987.6300685843029896
 21
190.9655955392211126
 31
0.0
  0
LINE
  5
34249
  8
0
 10
3017.1113718361762039
 20
190.9655955392211126
 30
0.0
 11
3020.1420471509891286
 21
190.9655955392211126
 31
0.0
  0
ARC
  5
3424A
  8
0
 10
2987.6322746473729239
 20
190.8925199649212061
 30
0.0
 40
0.0731088659023162
 50
91.7291650084680157
 51
179.6815481915708972
  0
LINE
  5
3424B
  8
0
 10
2987.559166910697968
 20
190.8929263042867035
 30
0.0
 11
2987.5591973185978532
 21
188.5024576899866986
 31
0.0
  0
ARC
  5
3424C
  8
0
 10
2987.6303876782008047
 20
188.501683867658187
 30
0.0
 40
0.0711945651116953
 50
179.3772329801512058
 51
269.8312354304330825
  0
LINE
  5
3424D
  8
0
 10
2987.6301779750979222
 20
188.4304896113866903
 30
0.0
 11
2994.6873633473969676
 21
188.430491650086708
 31
0.0
  0
ARC
  5
3424E
  8
0
 10
2994.6843263031701099
 20
188.5044905315739925
 30
0.0
 40
0.0740611265432911
 50
272.3506929296916041
 51
358.4345101257728174
  0
LINE
  5
3424F
  8
0
 10
2994.7583597864982039
 20
188.5024672146867033
 30
0.0
 11
2994.7583909459967799
 21
190.8929263689867071
 31
0.0
  0
ARC
  5
34250
  8
0
 10
2994.6867449436172137
 20
190.8939428487049099
 30
0.0
 40
0.0716532350397269
 50
359.1859089007385819
 51
89.7766282095040964
  0
ARC
  5
34251
  8
0
 10
2994.8468046817129107
 20
190.8923064472735973
 30
0.0
 40
0.0733230200308808
 50
91.743066150644637
 51
179.5156280554801072
  0
ARC
  5
34252
  8
0
 10
3135.9792920565541863
 20
189.6991601717822107
 30
0.0
 40
141.2108537857502029
 50
179.5156280554801072
 51
180.4857547164687048
  0
ARC
  5
34253
  8
0
 10
2994.8456304103560797
 20
188.5025976157974128
 30
0.0
 40
0.072119869033253
 50
180.4857547164669995
 51
269.1164670166377846
  0
LINE
  5
34254
  8
0
 10
2994.8445183256922064
 20
188.4304863214179875
 30
0.0
 11
2999.4852901778472187
 21
188.4304898255367959
 31
0.0
  0
LINE
  5
34255
  8
0
 10
2999.6062452677970214
 20
188.4304899168666907
 30
0.0
 11
3001.9016807179978059
 21
188.430491650086708
 31
0.0
  0
ARC
  5
34256
  8
0
 10
3001.9008152702790539
 20
190.8937041108808899
 30
0.0
 40
0.0718972530169709
 50
359.3801961086068104
 51
89.2706762977327202
  0
LINE
  5
34257
  8
0
 10
3001.972708316598073
 20
190.8929263689867071
 30
0.0
 11
3001.9726793640970754
 21
188.5019679974643054
 31
0.0
  0
ARC
  5
34258
  8
0
 10
3001.9008983376238575
 20
188.5022690439610074
 30
0.0
 40
0.0717816577576463
 50
270.6245046766705968
 51
359.7597054066814053
  0
ARC
  5
34259
  8
0
 10
3002.060177196919085
 20
190.8932315564582041
 30
0.0
 40
0.0723761887359087
 50
91.0522818560117173
 51
180.2416500961570023
  0
LINE
  5
3425A
  8
0
 10
3001.9878016518969162
 20
190.8929263042867035
 30
0.0
 11
3001.9878320602979329
 21
188.5024576899866986
 31
0.0
  0
ARC
  5
3425B
  8
0
 10
3002.059024189018146
 20
188.5016824216901057
 30
0.0
 40
0.0711963498546581
 50
179.3760848785564121
 51
269.8483089367377943
  0
LINE
  5
3425C
  8
0
 10
3002.0588356962957732
 20
188.4304863213536123
 30
0.0
 11
3009.1159980885968253
 21
188.430491650086708
 31
0.0
  0
ARC
  5
3425D
  8
0
 10
3009.1162789667650941
 20
188.5012177709947991
 30
0.0
 40
0.0707265985204684
 50
269.7729728566188214
 51
1.0122298519224739
  0
LINE
  5
3425E
  8
0
 10
3009.1869945281978289
 20
188.5024672146867033
 30
0.0
 11
3009.1870256861980124
 21
190.8929263689855986
 31
0.0
  0
ARC
  5
3425F
  8
0
 10
3009.1141407068998888
 20
190.8927358183834997
 30
0.0
 40
0.072885228385474
 50
0.1497938337816235
 51
88.4841197578791139
  0
ARC
  5
34260
  8
0
 10
3009.2741494591127775
 20
190.8935694729665045
 30
0.0
 40
0.0720333075248761
 50
90.8124225499860813
 51
180.511587511324791
  0
LINE
  5
34261
  8
0
 10
3009.2021190229979766
 20
190.8929263042867035
 30
0.0
 11
3009.2021494304967746
 21
188.5024576899866986
 31
0.0
  0
ARC
  5
34262
  8
0
 10
3009.2734898119801983
 20
188.5018286332359025
 30
0.0
 40
0.0713431544399442
 50
179.4947971642727964
 51
269.7110960234135177
  0
LINE
  5
34263
  8
0
 10
3009.273130078090162
 20
188.4304863857454961
 30
0.0
 11
3016.0397895055239132
 21
188.4220459596112107
 31
0.0
  0
LINE
  5
34264
  8
0
 10
3017.1113718361762039
 20
188.4207093160862883
 30
0.0
 11
3020.1417584985979374
 21
188.4169293482812861
 31
0.0
  0
ARC
  5
34265
  8
0
 10
3026.0198963662251117
 20
185.9082773126708901
 30
0.0
 40
5.8780565308710111
 50
179.7035652376738994
 51
180.2970111506870126
  0
ARC
  5
34266
  8
0
 10
3019.9874037571239569
 20
185.8712641169493907
 30
0.0
 40
0.1546535066955392
 50
347.4717316763188251
 51
2.4245896293976181
  0
ARC
  5
34267
  8
0
 10
3021.5540352667558182
 20
185.4917961711034025
 30
0.0
 40
1.4573109990591819
 50
166.2686973349626953
 51
179.0636767221535877
  0
LINE
  5
34268
  8
0
 10
3020.0969188569979451
 20
185.5156103767866966
 30
0.0
 11
3020.0969212928198431
 21
183.6878290368076989
 31
0.0
  0
ARC
  5
34269
  8
0
 10
3021.2581465616158312
 20
183.6900516638708893
 30
0.0
 40
1.1612302708141971
 50
180.1204546187412916
 51
190.5591511759174068
  0
ARC
  5
3426A
  8
0
 10
3021.6997119118132105
 20
183.7277565624216891
 30
0.0
 40
1.6028276572988369
 50
188.9914394198499963
 51
193.0339246437366114
  0
ARC
  5
3426B
  8
0
 10
3019.9567506299072193
 20
183.3291179507604909
 30
0.0
 40
0.1851934459121682
 50
357.4347870137552263
 51
11.5740664429164699
  0
LINE
  5
3426C
  8
0
 10
3016.0397883984678629
 20
185.8694955392211057
 30
0.0
 11
3009.2731281007709185
 21
185.8694955392211057
 31
0.0
  0
LINE
  5
3426D
  8
0
 10
3009.1160688138120349
 20
185.8694955392211057
 30
0.0
 11
3002.0588480262631492
 21
185.8694955392211057
 31
0.0
  0
LINE
  5
3426E
  8
0
 10
3001.9017304328817772
 20
185.8694955392211057
 30
0.0
 11
2999.6062452677970214
 21
185.8694955392211057
 31
0.0
  0
LINE
  5
3426F
  8
0
 10
2999.4852901778472187
 20
185.8694955392211057
 30
0.0
 11
2994.8445743750171459
 21
185.8694955392211057
 31
0.0
  0
LINE
  5
34270
  8
0
 10
2994.6870242882910134
 20
185.8694955392211057
 30
0.0
 11
2987.6300685843029896
 21
185.8694955392211057
 31
0.0
  0
LINE
  5
34271
  8
0
 10
3017.1113718361762039
 20
185.8694955392211057
 30
0.0
 11
3020.1420471509891286
 21
185.8694955392211057
 31
0.0
  0
ARC
  5
34272
  8
0
 10
2987.6322746473729239
 20
185.7964199649211992
 30
0.0
 40
0.0731088659023162
 50
91.7291650084680157
 51
179.6815481915708972
  0
LINE
  5
34273
  8
0
 10
2987.559166910697968
 20
185.7968263042866965
 30
0.0
 11
2987.5584985122968646
 21
183.4386575983211003
 31
0.0
  0
ARC
  5
34274
  8
0
 10
2987.6292114250732084
 20
183.437409710317894
 30
0.0
 40
0.0707239228112421
 50
178.9889923593576952
 51
270.2169011978435833
  0
LINE
  5
34275
  8
0
 10
2994.7583601856990754
 20
183.4369926328672875
 30
0.0
 11
2994.7583909459967799
 21
185.7968263689867001
 31
0.0
  0
ARC
  5
34276
  8
0
 10
2994.6867449436172137
 20
185.797842848704903
 30
0.0
 40
0.0716532350397269
 50
359.1859089007385819
 51
89.7766282095040964
  0
ARC
  5
34277
  8
0
 10
2994.8468046817129107
 20
185.7962064472735904
 30
0.0
 40
0.0733230200308808
 50
91.743066150644637
 51
179.5156280554801072
  0
ARC
  5
34278
  8
0
 10
3135.9792920565541863
 20
184.6030601717822037
 30
0.0
 40
141.2108537857502029
 50
179.5156280554801072
 51
180.4750833947136073
  0
ARC
  5
34279
  8
0
 10
3001.9008152702790539
 20
185.7976041108809113
 30
0.0
 40
0.0718972530169709
 50
359.3801961086068104
 51
89.2706762977327202
  0
LINE
  5
3427A
  8
0
 10
3001.972708316598073
 20
185.7968263689867001
 30
0.0
 11
3001.9726797040498241
 21
183.4339419955313986
 31
0.0
  0
ARC
  5
3427B
  8
0
 10
3002.060177196919085
 20
185.7971315564581971
 30
0.0
 40
0.0723761887359087
 50
91.0522818560117173
 51
180.2416500961570023
  0
LINE
  5
3427C
  8
0
 10
3001.9878016518969162
 20
185.7968263042866965
 30
0.0
 11
3001.9878317925240481
 21
183.4274079575129974
 31
0.0
  0
LINE
  5
3427D
  8
0
 10
3009.1869949135361821
 20
183.4359306256980062
 30
0.0
 11
3009.1870256861980124
 21
185.7968263689855917
 31
0.0
  0
ARC
  5
3427E
  8
0
 10
3009.1141407068998888
 20
185.7966358183834927
 30
0.0
 40
0.072885228385474
 50
0.1497938337816235
 51
88.4841197578791139
  0
ARC
  5
3427F
  8
0
 10
3009.2741494591127775
 20
185.7974694729664975
 30
0.0
 40
0.0720333075248761
 50
90.8124225499860813
 51
180.511587511324791
  0
LINE
  5
34280
  8
0
 10
3009.2021190229979766
 20
185.7968263042866965
 30
0.0
 11
3009.2021492438288988
 21
183.4210325584982115
 31
0.0
  0
LINE
  5
34281
  8
0
 10
3017.1113718361762039
 20
183.3246093160863097
 30
0.0
 11
3020.1417584985979374
 21
183.3208293482813076
 31
0.0
  0
ARC
  5
34282
  8
0
 10
3025.833250322567892
 20
165.5238773126708907
 30
0.0
 40
5.8780565308710111
 50
179.7035652376738994
 51
180.2970111506870126
  0
ARC
  5
34283
  8
0
 10
3019.8007577134671919
 20
165.4868641169493912
 30
0.0
 40
0.1546535066955392
 50
347.4717316763188251
 51
2.4245896293976181
  0
ARC
  5
34284
  8
0
 10
3021.3673892230990532
 20
165.107396171103403
 30
0.0
 40
1.4573109990591819
 50
166.2686973349626953
 51
179.0636767221535877
  0
LINE
  5
34285
  8
0
 10
3019.9102728133411802
 20
165.1312103767866972
 30
0.0
 11
3019.9102752491630781
 21
163.3034290368076995
 31
0.0
  0
ARC
  5
34286
  8
0
 10
3021.0715005179590662
 20
163.3056516638708899
 30
0.0
 40
1.1612302708141971
 50
180.1204546187412916
 51
190.5591511759174068
  0
ARC
  5
34287
  8
0
 10
3021.5130658681569003
 20
163.3433565624216897
 30
0.0
 40
1.6028276572988369
 50
188.9914394198499963
 51
193.0339246437366114
  0
ARC
  5
34288
  8
0
 10
3019.7701045862499996
 20
162.9447179507604915
 30
0.0
 40
0.1851934459121682
 50
357.4347870137552263
 51
11.5740664429164699
  0
LINE
  5
34289
  8
0
 10
3016.0397883984678629
 20
165.4850955392211063
 30
0.0
 11
3009.2731281007709185
 21
165.4850955392211063
 31
0.0
  0
LINE
  5
3428A
  8
0
 10
3009.1160688138120349
 20
165.4850955392211063
 30
0.0
 11
3002.0588480262631492
 21
165.4850955392211063
 31
0.0
  0
LINE
  5
3428B
  8
0
 10
3001.9017304328817772
 20
165.4850955392211063
 30
0.0
 11
2994.8445743750171459
 21
165.4850955392211063
 31
0.0
  0
LINE
  5
3428C
  8
0
 10
2994.6870242882910134
 20
165.4850955392211063
 30
0.0
 11
2987.6300685843029896
 21
165.4850955392211063
 31
0.0
  0
LINE
  5
3428D
  8
0
 10
3017.1113718361762039
 20
165.4850955392211063
 30
0.0
 11
3019.9554011073319089
 21
165.4850955392211063
 31
0.0
  0
ARC
  5
3428E
  8
0
 10
2987.6322746473729239
 20
165.4120199649211997
 30
0.0
 40
0.0731088659023162
 50
91.7291650084680157
 51
179.6815481915708972
  0
LINE
  5
3428F
  8
0
 10
2987.559166910697968
 20
165.4124263042866971
 30
0.0
 11
2987.5591973185978532
 21
163.0219576899866922
 31
0.0
  0
ARC
  5
34290
  8
0
 10
2987.6303876782008047
 20
163.021183867658209
 30
0.0
 40
0.0711945651116953
 50
179.3772329801512058
 51
269.8312354304330825
  0
LINE
  5
34291
  8
0
 10
2987.6301779750979222
 20
162.9499896113867123
 30
0.0
 11
2994.6873633473969676
 21
162.9499916500867016
 31
0.0
  0
ARC
  5
34292
  8
0
 10
2994.6843263031701099
 20
163.0239905315739861
 30
0.0
 40
0.0740611265432911
 50
272.3506929296916041
 51
358.4345101257728174
  0
LINE
  5
34293
  8
0
 10
2994.7583597864982039
 20
163.0219672146866969
 30
0.0
 11
2994.7583909459967799
 21
165.4124263689867007
 31
0.0
  0
ARC
  5
34294
  8
0
 10
2994.6867449436172137
 20
165.4134428487049036
 30
0.0
 40
0.0716532350397269
 50
359.1859089007385819
 51
89.7766282095040964
  0
ARC
  5
34295
  8
0
 10
2994.8468046817129107
 20
165.4118064472735909
 30
0.0
 40
0.0733230200308808
 50
91.743066150644637
 51
179.5156280554801072
  0
ARC
  5
34296
  8
0
 10
3135.9792920565541863
 20
164.2186601717822043
 30
0.0
 40
141.2108537857502029
 50
179.5156280554801072
 51
180.4857547164687048
  0
ARC
  5
34297
  8
0
 10
2994.8456304103560797
 20
163.0220976157974064
 30
0.0
 40
0.072119869033253
 50
180.4857547164669995
 51
269.1164670166377846
  0
LINE
  5
34298
  8
0
 10
2994.8445183256922064
 20
162.9499863214180095
 30
0.0
 11
3001.9016807179978059
 21
162.9499916500867016
 31
0.0
  0
ARC
  5
34299
  8
0
 10
3001.9008152702790539
 20
165.4132041108809119
 30
0.0
 40
0.0718972530169709
 50
359.3801961086068104
 51
89.2706762977327202
  0
LINE
  5
3429A
  8
0
 10
3001.972708316598073
 20
165.4124263689867007
 30
0.0
 11
3001.9726793640970754
 21
163.0214679974644127
 31
0.0
  0
ARC
  5
3429B
  8
0
 10
3001.9008983376238575
 20
163.021769043961001
 30
0.0
 40
0.0717816577576463
 50
270.6245046766705968
 51
359.7597054066814053
  0
ARC
  5
3429C
  8
0
 10
3002.060177196919085
 20
165.4127315564581977
 30
0.0
 40
0.0723761887359087
 50
91.0522818560117173
 51
180.2416500961570023
  0
LINE
  5
3429D
  8
0
 10
3001.9878016518969162
 20
165.4124263042866971
 30
0.0
 11
3001.9878320602979329
 21
163.0219576899866922
 31
0.0
  0
ARC
  5
3429E
  8
0
 10
3002.059024189018146
 20
163.0211824216900993
 30
0.0
 40
0.0711963498546581
 50
179.3760848785564121
 51
269.8483089367377943
  0
LINE
  5
3429F
  8
0
 10
3002.0588356962957732
 20
162.9499863213536059
 30
0.0
 11
3009.1159980885968253
 21
162.9499916500867016
 31
0.0
  0
ARC
  5
342A0
  8
0
 10
3009.1162789667650941
 20
163.0207177709947928
 30
0.0
 40
0.0707265985204684
 50
269.7729728566188214
 51
1.0122298519224739
  0
LINE
  5
342A1
  8
0
 10
3009.1869945281978289
 20
163.0219672146866969
 30
0.0
 11
3009.1870256861980124
 21
165.4124263689855923
 31
0.0
  0
ARC
  5
342A2
  8
0
 10
3009.1141407068998888
 20
165.4122358183834933
 30
0.0
 40
0.072885228385474
 50
0.1497938337816235
 51
88.4841197578791139
  0
ARC
  5
342A3
  8
0
 10
3009.2741494591127775
 20
165.4130694729664981
 30
0.0
 40
0.0720333075248761
 50
90.8124225499860813
 51
180.511587511324791
  0
LINE
  5
342A4
  8
0
 10
3009.2021190229979766
 20
165.4124263042866971
 30
0.0
 11
3009.2021494304967746
 21
163.0219576899866922
 31
0.0
  0
ARC
  5
342A5
  8
0
 10
3009.2734898119801983
 20
163.0213286332358962
 30
0.0
 40
0.0713431544399442
 50
179.4947971642727964
 51
269.7110960234135177
  0
LINE
  5
342A6
  8
0
 10
3017.1113718361762039
 20
162.9402093160863103
 30
0.0
 11
3019.9551124549411725
 21
162.9364293482813082
 31
0.0
  0
ARC
  5
342A7
  8
0
 10
3025.8332529205340506
 20
160.4601656194010104
 30
0.0
 40
5.8780565308710111
 50
179.7035652376738994
 51
180.2970111506870126
  0
ARC
  5
342A8
  8
0
 10
3019.8007603114328958
 20
160.423152423679511
 30
0.0
 40
0.1546535066955392
 50
347.4717316763188251
 51
2.4245896293976181
  0
ARC
  5
342A9
  8
0
 10
3021.3673918210652118
 20
160.0436844778334944
 30
0.0
 40
1.4573109990591819
 50
166.2686973349626953
 51
179.0636767221535877
  0
LINE
  5
342AA
  8
0
 10
3019.9102754113068841
 20
160.0674986835167886
 30
0.0
 11
3019.9102778471301463
 21
158.2397173435377908
 31
0.0
  0
ARC
  5
342AB
  8
0
 10
3021.0715031159252248
 20
158.2419399706010097
 30
0.0
 40
1.1612302708141971
 50
180.1204546187412916
 51
190.5591511759174068
  0
ARC
  5
342AC
  8
0
 10
3021.5130684661230589
 20
158.2796448691518094
 30
0.0
 40
1.6028276572988369
 50
188.9914394198499963
 51
193.0339246437366114
  0
ARC
  5
342AD
  8
0
 10
3019.7701071842161582
 20
157.8810062574906112
 30
0.0
 40
0.1851934459121682
 50
357.4347870137552263
 51
11.5740664429164699
  0
LINE
  5
342AE
  8
0
 10
3016.039790996434931
 20
160.4213838459511976
 30
0.0
 11
3009.2731306987370772
 21
160.4213838459511976
 31
0.0
  0
LINE
  5
342AF
  8
0
 10
3009.1160714117791031
 20
160.4213838459511976
 30
0.0
 11
3002.0588506242302174
 21
160.4213838459511976
 31
0.0
  0
LINE
  5
342B0
  8
0
 10
3001.9017330308488454
 20
160.4213838459511976
 30
0.0
 11
2994.8445769729842141
 21
160.4213838459511976
 31
0.0
  0
LINE
  5
342B1
  8
0
 10
2994.687026886257172
 20
160.4213838459511976
 30
0.0
 11
2987.6300711822700578
 21
160.4213838459511976
 31
0.0
  0
LINE
  5
342B2
  8
0
 10
3017.1113744341428173
 20
160.4213838459511976
 30
0.0
 11
3019.9554037052980675
 21
160.4213838459511976
 31
0.0
  0
ARC
  5
342B3
  8
0
 10
2987.6322772453399921
 20
160.3483082716512911
 30
0.0
 40
0.0731088659023162
 50
91.7291650084680157
 51
179.6815481915708972
  0
LINE
  5
342B4
  8
0
 10
2987.5591695086641266
 20
160.3487146110167885
 30
0.0
 11
2987.5591999165640118
 21
157.958245996716812
 31
0.0
  0
ARC
  5
342B5
  8
0
 10
2987.6303902761669633
 20
157.9574721743883003
 30
0.0
 40
0.0711945651116953
 50
179.3772329801512058
 51
269.8312354304330825
  0
LINE
  5
342B6
  8
0
 10
2987.6301805730640808
 20
157.8862779181168037
 30
0.0
 11
2994.6873659453640357
 21
157.8862799568167929
 31
0.0
  0
ARC
  5
342B7
  8
0
 10
2994.6843289011358138
 20
157.9602788383041059
 30
0.0
 40
0.0740611265432911
 50
272.3506929296916041
 51
358.4345101257728174
  0
LINE
  5
342B8
  8
0
 10
2994.7583623844639078
 20
157.9582555214167883
 30
0.0
 11
2994.7583935439638481
 21
160.348714675716792
 31
0.0
  0
ARC
  5
342B9
  8
0
 10
2994.6867475415838271
 20
160.3497311554349949
 30
0.0
 40
0.0716532350397269
 50
359.1859089007385819
 51
89.7766282095040964
  0
ARC
  5
342BA
  8
0
 10
2994.8468072796790693
 20
160.3480947540037107
 30
0.0
 40
0.0733230200308808
 50
91.743066150644637
 51
179.5156280554801072
  0
ARC
  5
342BB
  8
0
 10
3135.9792946545207997
 20
159.1549484785122957
 30
0.0
 40
141.2108537857502029
 50
179.5156280554801072
 51
180.4857547164687048
  0
ARC
  5
342BC
  8
0
 10
2994.8456330083217836
 20
157.9583859225274978
 30
0.0
 40
0.072119869033253
 50
180.4857547164669995
 51
269.1164670166377846
  0
LINE
  5
342BD
  8
0
 10
2994.8445209236579103
 20
157.8862746281481009
 30
0.0
 11
3001.9016833159639646
 21
157.8862799568167929
 31
0.0
  0
ARC
  5
342BE
  8
0
 10
3001.9008178682461221
 20
160.3494924176110032
 30
0.0
 40
0.0718972530169709
 50
359.3801961086068104
 51
89.2706762977327202
  0
LINE
  5
342BF
  8
0
 10
3001.9727109145637769
 20
160.348714675716792
 30
0.0
 11
3001.9726819620641436
 21
157.9577563041945041
 31
0.0
  0
ARC
  5
342C0
  8
0
 10
3001.9009009355909257
 20
157.9580573506910923
 30
0.0
 40
0.0717816577576463
 50
270.6245046766705968
 51
359.7597054066814053
  0
ARC
  5
342C1
  8
0
 10
3002.0601797948847889
 20
160.349019863188289
 30
0.0
 40
0.0723761887359087
 50
91.0522818560117173
 51
180.2416500961570023
  0
LINE
  5
342C2
  8
0
 10
3001.9878042498639843
 20
160.3487146110167885
 30
0.0
 11
3001.9878346582640916
 21
157.958245996716812
 31
0.0
  0
ARC
  5
342C3
  8
0
 10
3002.0590267869838499
 20
157.9574707284201907
 30
0.0
 40
0.0711963498546581
 50
179.3760848785564121
 51
269.8483089367377943
  0
LINE
  5
342C4
  8
0
 10
3002.0588382942628414
 20
157.8862746280836973
 30
0.0
 11
3009.1160006865638934
 21
157.8862799568167929
 31
0.0
  0
ARC
  5
342C5
  8
0
 10
3009.116281564730798
 20
157.9570060777249125
 30
0.0
 40
0.0707265985204684
 50
269.7729728566188214
 51
1.0122298519224739
  0
LINE
  5
342C6
  8
0
 10
3009.1869971261639876
 20
157.9582555214167883
 30
0.0
 11
3009.1870282841641711
 21
160.348714675715712
 31
0.0
  0
ARC
  5
342C7
  8
0
 10
3009.1141433048660474
 20
160.3485241251136131
 30
0.0
 40
0.072885228385474
 50
0.1497938337816235
 51
88.4841197578791139
  0
ARC
  5
342C8
  8
0
 10
3009.2741520570789362
 20
160.3493577796965894
 30
0.0
 40
0.0720333075248761
 50
90.8124225499860813
 51
180.511587511324791
  0
LINE
  5
342C9
  8
0
 10
3009.2021216209641352
 20
160.3487146110167885
 30
0.0
 11
3009.2021520284638427
 21
157.958245996716812
 31
0.0
  0
ARC
  5
342CA
  8
0
 10
3009.2734924099468117
 20
157.9576169399659875
 30
0.0
 40
0.0713431544399442
 50
179.4947971642727964
 51
269.7110960234135177
  0
LINE
  5
342CB
  8
0
 10
3009.2731326760567754
 20
157.8862746924756095
 30
0.0
 11
3016.0397921034909814
 21
157.8778342663412957
 31
0.0
  0
LINE
  5
342CC
  8
0
 10
3017.1113744341428173
 20
157.8764976228164016
 30
0.0
 11
3019.9551150529077859
 21
157.8727176550113995
 31
0.0
  0
ARC
  5
342CD
  8
0
 10
3025.8332917175180228
 20
155.3640656194208987
 30
0.0
 40
5.8780565308710111
 50
179.7035652376738994
 51
180.2970111506870126
  0
ARC
  5
342CE
  8
0
 10
3019.800799108416868
 20
155.3270524236993992
 30
0.0
 40
0.1546535066955392
 50
347.4717316763188251
 51
2.4245896293976181
  0
ARC
  5
342CF
  8
0
 10
3021.367430618049184
 20
154.947584477853411
 30
0.0
 40
1.4573109990591819
 50
166.2686973349626953
 51
179.0636767221535877
  0
LINE
  5
342D0
  8
0
 10
3019.9103142082908562
 20
154.9713986835367052
 30
0.0
 11
3019.9103166441132089
 21
153.1436173435577075
 31
0.0
  0
ARC
  5
342D1
  8
0
 10
3021.071541912909197
 20
153.1458399706208979
 30
0.0
 40
1.1612302708141971
 50
180.1204546187412916
 51
190.5591511759174068
  0
ARC
  5
342D2
  8
0
 10
3021.5131072631061215
 20
153.1835448691716977
 30
0.0
 40
1.6028276572988369
 50
188.9914394198499963
 51
193.0339246437366114
  0
ARC
  5
342D3
  8
0
 10
3019.7701459812001303
 20
152.7849062575104995
 30
0.0
 40
0.1851934459121682
 50
357.4347870137552263
 51
11.5740664429164699
  0
LINE
  5
342D4
  8
0
 10
3016.0398297934189031
 20
155.3252838459710858
 30
0.0
 11
3009.2731694957210493
 21
155.3252838459710858
 31
0.0
  0
LINE
  5
342D5
  8
0
 10
3009.1161102087621657
 20
155.3252838459710858
 30
0.0
 11
3002.0588894212128253
 21
155.3252838459710858
 31
0.0
  0
LINE
  5
342D6
  8
0
 10
3001.901771827831908
 20
155.3252838459710858
 30
0.0
 11
2994.844615769966822
 21
155.3252838459710858
 31
0.0
  0
LINE
  5
342D7
  8
0
 10
2994.6870656832397799
 20
155.3252838459710858
 30
0.0
 11
2987.6301099792531204
 21
155.3252838459710858
 31
0.0
  0
LINE
  5
342D8
  8
0
 10
3017.11141323112588
 20
155.3252838459710858
 30
0.0
 11
3019.9554425022820396
 21
155.3252838459710858
 31
0.0
  0
ARC
  5
342D9
  8
0
 10
2987.6323160423230547
 20
155.252208271671293
 30
0.0
 40
0.0731088659023162
 50
91.7291650084680157
 51
179.6815481915708972
  0
LINE
  5
342DA
  8
0
 10
2987.5592083056480988
 20
155.2526146110367051
 30
0.0
 11
2987.5592387135479839
 21
152.8621459967367002
 31
0.0
  0
ARC
  5
342DB
  8
0
 10
2987.6304290731509354
 20
152.8613721744081886
 30
0.0
 40
0.0711945651116953
 50
179.3772329801512058
 51
269.8312354304330825
  0
LINE
  5
342DC
  8
0
 10
2987.630219370048053
 20
152.7901779181366919
 30
0.0
 11
2994.6874047423480079
 21
152.7901799568367096
 31
0.0
  0
ARC
  5
342DD
  8
0
 10
2994.6843676981197859
 20
152.8641788383239941
 30
0.0
 40
0.0740611265432911
 50
272.3506929296916041
 51
358.4345101257728174
  0
LINE
  5
342DE
  8
0
 10
2994.7584011814478799
 20
152.8621555214367049
 30
0.0
 11
2994.7584323409469107
 21
155.2526146757367087
 31
0.0
  0
ARC
  5
342DF
  8
0
 10
2994.6867863385668898
 20
155.2536311554549115
 30
0.0
 40
0.0716532350397269
 50
359.1859089007385819
 51
89.7766282095040964
  0
ARC
  5
342E0
  8
0
 10
2994.8468460766630415
 20
155.2519947540235989
 30
0.0
 40
0.0733230200308808
 50
91.743066150644637
 51
179.5156280554801072
  0
ARC
  5
342E1
  8
0
 10
3135.9793334515038623
 20
154.0588484785322123
 30
0.0
 40
141.2108537857502029
 50
179.5156280554801072
 51
180.4857547164687048
  0
ARC
  5
342E2
  8
0
 10
2994.8456718053062104
 20
152.862285922547386
 30
0.0
 40
0.072119869033253
 50
180.4857547164669995
 51
269.1164670166377846
  0
LINE
  5
342E3
  8
0
 10
2994.8445597206418824
 20
152.7901746281679891
 30
0.0
 11
3001.9017221129470272
 21
152.7901799568367096
 31
0.0
  0
ARC
  5
342E4
  8
0
 10
3001.9008566652291847
 20
155.2533924176308915
 30
0.0
 40
0.0718972530169709
 50
359.3801961086068104
 51
89.2706762977327202
  0
LINE
  5
342E5
  8
0
 10
3001.9727497115468395
 20
155.2526146757367087
 30
0.0
 11
3001.9727207590472062
 21
152.8616563042143071
 31
0.0
  0
ARC
  5
342E6
  8
0
 10
3001.9009397325739883
 20
152.861957350711009
 30
0.0
 40
0.0717816577576463
 50
270.6245046766705968
 51
359.7597054066814053
  0
ARC
  5
342E7
  8
0
 10
3002.0602185918678515
 20
155.2529198632082057
 30
0.0
 40
0.0723761887359087
 50
91.0522818560117173
 51
180.2416500961570023
  0
LINE
  5
342E8
  8
0
 10
3001.9878430468479564
 20
155.2526146110367051
 30
0.0
 11
3001.9878734552480637
 21
152.8621459967367002
 31
0.0
  0
ARC
  5
342E9
  8
0
 10
3002.059065583967822
 20
152.8613707284401073
 30
0.0
 40
0.0711963498546581
 50
179.3760848785564121
 51
269.8483089367377943
  0
LINE
  5
342EA
  8
0
 10
3002.0588770912468135
 20
152.7901746281036139
 30
0.0
 11
3009.1160394835478655
 21
152.7901799568367096
 31
0.0
  0
ARC
  5
342EB
  8
0
 10
3009.1163203617152249
 20
152.8609060777448008
 30
0.0
 40
0.0707265985204684
 50
269.7729728566188214
 51
1.0122298519224739
  0
LINE
  5
342EC
  8
0
 10
3009.1870359231479597
 20
152.8621555214367049
 30
0.0
 11
3009.1870670811481432
 21
155.2526146757356003
 31
0.0
  0
ARC
  5
342ED
  8
0
 10
3009.1141821018500195
 20
155.2524241251335013
 30
0.0
 40
0.072885228385474
 50
0.1497938337816235
 51
88.4841197578791139
  0
ARC
  5
342EE
  8
0
 10
3009.2741908540638178
 20
155.2532577797165061
 30
0.0
 40
0.0720333075248761
 50
90.8124225499860813
 51
180.511587511324791
  0
LINE
  5
342EF
  8
0
 10
3009.2021604179481074
 20
155.2526146110367051
 30
0.0
 11
3009.2021908254478149
 21
152.8621459967367002
 31
0.0
  0
ARC
  5
342F0
  8
0
 10
3009.2735312069307838
 20
152.8615169399859042
 30
0.0
 40
0.0713431544399442
 50
179.4947971642727964
 51
269.7110960234135177
  0
LINE
  5
342F1
  8
0
 10
3009.273171473039838
 20
152.7901746924956115
 30
0.0
 11
3016.039830900474044
 21
152.7817342663612123
 31
0.0
  0
LINE
  5
342F2
  8
0
 10
3017.11141323112588
 20
152.7803976228362899
 30
0.0
 11
3019.9551538498908485
 21
152.7766176550312878
 31
0.0
  0
ARC
  5
342F3
  8
0
 10
3025.8332917175180228
 20
150.2679656194208917
 30
0.0
 40
5.8780565308710111
 50
179.7035652376738994
 51
180.2970111506870126
  0
ARC
  5
342F4
  8
0
 10
3019.800799108416868
 20
150.2309524236993923
 30
0.0
 40
0.1546535066955392
 50
347.4717316763188251
 51
2.4245896293976181
  0
ARC
  5
342F5
  8
0
 10
3021.367430618049184
 20
149.8514844778534041
 30
0.0
 40
1.4573109990591819
 50
166.2686973349626953
 51
179.0636767221535877
  0
LINE
  5
342F6
  8
0
 10
3019.9103142082908562
 20
149.8752986835366983
 30
0.0
 11
3019.9103166441132089
 21
148.0475173435577005
 31
0.0
  0
ARC
  5
342F7
  8
0
 10
3021.071541912909197
 20
148.049739970620891
 30
0.0
 40
1.1612302708141971
 50
180.1204546187412916
 51
190.5591511759174068
  0
ARC
  5
342F8
  8
0
 10
3021.5131072631061215
 20
148.0874448691716907
 30
0.0
 40
1.6028276572988369
 50
188.9914394198499963
 51
193.0339246437366114
  0
ARC
  5
342F9
  8
0
 10
3019.7701459812001303
 20
147.6888062575104925
 30
0.0
 40
0.1851934459121682
 50
357.4347870137552263
 51
11.5740664429164699
  0
LINE
  5
342FA
  8
0
 10
3016.0398297934189031
 20
150.2291838459711073
 30
0.0
 11
3009.2731694957210493
 21
150.2291838459711073
 31
0.0
  0
LINE
  5
342FB
  8
0
 10
3009.1161102087621657
 20
150.2291838459711073
 30
0.0
 11
3002.0588894212128253
 21
150.2291838459711073
 31
0.0
  0
LINE
  5
342FC
  8
0
 10
3001.901771827831908
 20
150.2291838459711073
 30
0.0
 11
2994.844615769966822
 21
150.2291838459711073
 31
0.0
  0
LINE
  5
342FD
  8
0
 10
2994.6870656832397799
 20
150.2291838459711073
 30
0.0
 11
2987.6301099792531204
 21
150.2291838459711073
 31
0.0
  0
LINE
  5
342FE
  8
0
 10
3017.11141323112588
 20
150.2291838459711073
 30
0.0
 11
3019.9554425022820396
 21
150.2291838459711073
 31
0.0
  0
ARC
  5
342FF
  8
0
 10
2987.6323160423230547
 20
150.1561082716712008
 30
0.0
 40
0.0731088659023162
 50
91.7291650084680157
 51
179.6815481915708972
  0
LINE
  5
34300
  8
0
 10
2987.5592083056480988
 20
150.1565146110366982
 30
0.0
 11
2987.5592387135479839
 21
147.7660459967366933
 31
0.0
  0
ARC
  5
34301
  8
0
 10
2987.6304290731509354
 20
147.76527217440821
 30
0.0
 40
0.0711945651116953
 50
179.3772329801512058
 51
269.8312354304330825
  0
LINE
  5
34302
  8
0
 10
2987.630219370048053
 20
147.6940779181367134
 30
0.0
 11
2994.6874047423480079
 21
147.6940799568367026
 31
0.0
  0
ARC
  5
34303
  8
0
 10
2994.6843676981197859
 20
147.7680788383239872
 30
0.0
 40
0.0740611265432911
 50
272.3506929296916041
 51
358.4345101257728174
  0
LINE
  5
34304
  8
0
 10
2994.7584011814478799
 20
147.766055521436698
 30
0.0
 11
2994.7584323409469107
 21
150.1565146757367017
 31
0.0
  0
ARC
  5
34305
  8
0
 10
2994.6867863385668898
 20
150.1575311554549046
 30
0.0
 40
0.0716532350397269
 50
359.1859089007385819
 51
89.7766282095040964
  0
ARC
  5
34306
  8
0
 10
2994.8468460766630415
 20
150.155894754023592
 30
0.0
 40
0.0733230200308808
 50
91.743066150644637
 51
179.5156280554801072
  0
ARC
  5
34307
  8
0
 10
3135.9793334515038623
 20
148.9627484785322054
 30
0.0
 40
141.2108537857502029
 50
179.5156280554801072
 51
180.4857547164687048
  0
ARC
  5
34308
  8
0
 10
2994.8456718053062104
 20
147.7661859225474075
 30
0.0
 40
0.072119869033253
 50
180.4857547164669995
 51
269.1164670166377846
  0
LINE
  5
34309
  8
0
 10
2994.8445597206418824
 20
147.6940746281680106
 30
0.0
 11
3001.9017221129470272
 21
147.6940799568367026
 31
0.0
  0
ARC
  5
3430A
  8
0
 10
3001.9008566652291847
 20
150.157292417630913
 30
0.0
 40
0.0718972530169709
 50
359.3801961086068104
 51
89.2706762977327202
  0
LINE
  5
3430B
  8
0
 10
3001.9727497115468395
 20
150.1565146757367017
 30
0.0
 11
3001.9727207590472062
 21
147.7655563042144138
 31
0.0
  0
ARC
  5
3430C
  8
0
 10
3001.9009397325739883
 20
147.765857350711002
 30
0.0
 40
0.0717816577576463
 50
270.6245046766705968
 51
359.7597054066814053
  0
ARC
  5
3430D
  8
0
 10
3002.0602185918678515
 20
150.1568198632081987
 30
0.0
 40
0.0723761887359087
 50
91.0522818560117173
 51
180.2416500961570023
  0
LINE
  5
3430E
  8
0
 10
3001.9878430468479564
 20
150.1565146110366982
 30
0.0
 11
3001.9878734552480637
 21
147.7660459967366933
 31
0.0
  0
ARC
  5
3430F
  8
0
 10
3002.059065583967822
 20
147.7652707284401004
 30
0.0
 40
0.0711963498546581
 50
179.3760848785564121
 51
269.8483089367377943
  0
LINE
  5
34310
  8
0
 10
3002.0588770912468135
 20
147.694074628103607
 30
0.0
 11
3009.1160394835478655
 21
147.6940799568367026
 31
0.0
  0
ARC
  5
34311
  8
0
 10
3009.1163203617152249
 20
147.7648060777447938
 30
0.0
 40
0.0707265985204684
 50
269.7729728566188214
 51
1.0122298519224739
  0
LINE
  5
34312
  8
0
 10
3009.1870359231479597
 20
147.766055521436698
 30
0.0
 11
3009.1870670811481432
 21
150.1565146757355933
 31
0.0
  0
ARC
  5
34313
  8
0
 10
3009.1141821018500195
 20
150.1563241251334944
 30
0.0
 40
0.072885228385474
 50
0.1497938337816235
 51
88.4841197578791139
  0
ARC
  5
34314
  8
0
 10
3009.2741908540638178
 20
150.1571577797164991
 30
0.0
 40
0.0720333075248761
 50
90.8124225499860813
 51
180.511587511324791
  0
LINE
  5
34315
  8
0
 10
3009.2021604179481074
 20
150.1565146110366982
 30
0.0
 11
3009.2021908254478149
 21
147.7660459967366933
 31
0.0
  0
ARC
  5
34316
  8
0
 10
3009.2735312069307838
 20
147.7654169399858972
 30
0.0
 40
0.0713431544399442
 50
179.4947971642727964
 51
269.7110960234135177
  0
LINE
  5
34317
  8
0
 10
3009.273171473039838
 20
147.6940746924956045
 30
0.0
 11
3016.039830900474044
 21
147.6856342663612054
 31
0.0
  0
LINE
  5
34318
  8
0
 10
3017.11141323112588
 20
147.6842976228363113
 30
0.0
 11
3019.9551538498908485
 21
147.6805176550313092
 31
0.0
  0
ARC
  5
34319
  8
0
 10
3025.8332917175180228
 20
145.1718656194209132
 30
0.0
 40
5.8780565308710111
 50
179.7035652376738994
 51
180.2970111506870126
  0
ARC
  5
3431A
  8
0
 10
3019.800799108416868
 20
145.1348524236994137
 30
0.0
 40
0.1546535066955392
 50
347.4717316763188251
 51
2.4245896293976181
  0
ARC
  5
3431B
  8
0
 10
3021.367430618049184
 20
144.7553844778533971
 30
0.0
 40
1.4573109990591819
 50
166.2686973349626953
 51
179.0636767221535877
  0
LINE
  5
3431C
  8
0
 10
3019.9103142082908562
 20
144.7791986835366913
 30
0.0
 11
3019.9103166441132089
 21
142.9514173435576936
 31
0.0
  0
ARC
  5
3431D
  8
0
 10
3021.071541912909197
 20
142.9536399706209124
 30
0.0
 40
1.1612302708141971
 50
180.1204546187412916
 51
190.5591511759174068
  0
ARC
  5
3431E
  8
0
 10
3021.5131072631061215
 20
142.9913448691717122
 30
0.0
 40
1.6028276572988369
 50
188.9914394198499963
 51
193.0339246437366114
  0
ARC
  5
3431F
  8
0
 10
3019.7701459812001303
 20
142.592706257510514
 30
0.0
 40
0.1851934459121682
 50
357.4347870137552263
 51
11.5740664429164699
  0
LINE
  5
34320
  8
0
 10
3016.0398297934189031
 20
145.1330838459711003
 30
0.0
 11
3009.2731694957210493
 21
145.1330838459711003
 31
0.0
  0
LINE
  5
34321
  8
0
 10
3009.1161102087621657
 20
145.1330838459711003
 30
0.0
 11
3002.8998357954410494
 21
145.1330838459711003
 31
0.0
  0
LINE
  5
34322
  8
0
 10
3002.7539574138199896
 20
145.1330838459711003
 30
0.0
 11
3002.5629059932239215
 21
145.1330838459711003
 31
0.0
  0
LINE
  5
34323
  8
0
 10
3002.4170276116028617
 20
145.1330838459711003
 30
0.0
 11
3002.0588894212128253
 21
145.1330838459711003
 31
0.0
  0
LINE
  5
34324
  8
0
 10
3001.901771827831908
 20
145.1330838459711003
 30
0.0
 11
2994.844615769966822
 21
145.1330838459711003
 31
0.0
  0
LINE
  5
34325
  8
0
 10
2994.6870656832397799
 20
145.1330838459711003
 30
0.0
 11
2987.6301099792531204
 21
145.1330838459711003
 31
0.0
  0
LINE
  5
34326
  8
0
 10
3017.11141323112588
 20
145.1330838459711003
 30
0.0
 11
3019.9554425022820396
 21
145.1330838459711003
 31
0.0
  0
ARC
  5
34327
  8
0
 10
2987.6323160423230547
 20
145.0600082716713075
 30
0.0
 40
0.0731088659023162
 50
91.7291650084680157
 51
179.6815481915708972
  0
LINE
  5
34328
  8
0
 10
2987.5592083056480988
 20
145.0604146110366912
 30
0.0
 11
2987.5592387135479839
 21
142.6699459967366863
 31
0.0
  0
ARC
  5
34329
  8
0
 10
2987.6304290731509354
 20
142.6691721744082031
 30
0.0
 40
0.0711945651116953
 50
179.3772329801512058
 51
269.8312354304330825
  0
LINE
  5
3432A
  8
0
 10
2987.630219370048053
 20
142.5979779181367064
 30
0.0
 11
2994.6874047423480079
 21
142.5979799568366957
 31
0.0
  0
ARC
  5
3432B
  8
0
 10
2994.6843676981197859
 20
142.6719788383240086
 30
0.0
 40
0.0740611265432911
 50
272.3506929296916041
 51
358.4345101257728174
  0
LINE
  5
3432C
  8
0
 10
2994.7584011814478799
 20
142.669955521436691
 30
0.0
 11
2994.7584323409469107
 21
145.0604146757366948
 31
0.0
  0
ARC
  5
3432D
  8
0
 10
2994.6867863385668898
 20
145.0614311554548976
 30
0.0
 40
0.0716532350397269
 50
359.1859089007385819
 51
89.7766282095040964
  0
ARC
  5
3432E
  8
0
 10
2994.8468460766630415
 20
145.0597947540236135
 30
0.0
 40
0.0733230200308808
 50
91.743066150644637
 51
179.5156280554801072
  0
ARC
  5
3432F
  8
0
 10
3135.9793334515038623
 20
143.8666484785321984
 30
0.0
 40
141.2108537857502029
 50
179.5156280554801072
 51
180.4857547164687048
  0
ARC
  5
34330
  8
0
 10
2994.8456718053062104
 20
142.6700859225474005
 30
0.0
 40
0.072119869033253
 50
180.4857547164669995
 51
269.1164670166377846
  0
LINE
  5
34331
  8
0
 10
2994.8445597206418824
 20
142.5979746281680036
 30
0.0
 11
3001.9017221129470272
 21
142.5979799568366957
 31
0.0
  0
ARC
  5
34332
  8
0
 10
3001.9008566652291847
 20
145.061192417630906
 30
0.0
 40
0.0718972530169709
 50
359.3801961086068104
 51
89.2706762977327202
  0
LINE
  5
34333
  8
0
 10
3001.9727497115468395
 20
145.0604146757366948
 30
0.0
 11
3001.9727452121451279
 21
144.6888445364033089
 31
0.0
  0
LINE
  5
34334
  8
0
 10
3001.9727434394480952
 20
144.5424514890250123
 30
0.0
 11
3001.9727207590472062
 21
142.6694563042142931
 31
0.0
  0
ARC
  5
34335
  8
0
 10
3001.9009397325739883
 20
142.6697573507109951
 30
0.0
 40
0.0717816577576463
 50
270.6245046766705968
 51
359.7597054066814053
  0
ARC
  5
34336
  8
0
 10
3002.0602185918678515
 20
145.0607198632081918
 30
0.0
 40
0.0723761887359087
 50
91.0522818560117173
 51
180.2416500961570023
  0
LINE
  5
34337
  8
0
 10
3001.9878430468479564
 20
145.0604146110366912
 30
0.0
 11
3001.9878475813798104
 21
144.7039454408954953
 31
0.0
  0
LINE
  5
34338
  8
0
 10
3001.9878494433819469
 20
144.5575695182029108
 30
0.0
 11
3001.9878734552480637
 21
142.6699459967366863
 31
0.0
  0
ARC
  5
34339
  8
0
 10
3002.059065583967822
 20
142.6691707284400934
 30
0.0
 40
0.0711963498546581
 50
179.3760848785564121
 51
269.8483089367377943
  0
LINE
  5
3433A
  8
0
 10
3002.0588770912468135
 20
142.5979746281036
 30
0.0
 11
3009.1160394835478655
 21
142.5979799568366957
 31
0.0
  0
ARC
  5
3433B
  8
0
 10
3009.1163203617152249
 20
142.6687060777447869
 30
0.0
 40
0.0707265985204684
 50
269.7729728566188214
 51
1.0122298519224739
  0
LINE
  5
3433C
  8
0
 10
3009.1870359231479597
 20
142.669955521436691
 30
0.0
 11
3009.1870670811481432
 21
145.0604146757355863
 31
0.0
  0
ARC
  5
3433D
  8
0
 10
3009.1141821018500195
 20
145.0602241251334874
 30
0.0
 40
0.072885228385474
 50
0.1497938337816235
 51
88.4841197578791139
  0
ARC
  5
3433E
  8
0
 10
3009.2741908540638178
 20
145.0610577797164922
 30
0.0
 40
0.0720333075248761
 50
90.8124225499860813
 51
180.511587511324791
  0
LINE
  5
3433F
  8
0
 10
3009.2021604179481074
 20
145.0604146110366912
 30
0.0
 11
3009.2021908254478149
 21
142.6699459967366863
 31
0.0
  0
ARC
  5
34340
  8
0
 10
3009.2735312069307838
 20
142.6693169399858903
 30
0.0
 40
0.0713431544399442
 50
179.4947971642727964
 51
269.7110960234135177
  0
LINE
  5
34341
  8
0
 10
3009.273171473039838
 20
142.5979746924955975
 30
0.0
 11
3016.039830900474044
 21
142.5895342663611984
 31
0.0
  0
LINE
  5
34342
  8
0
 10
3017.11141323112588
 20
142.5881976228363044
 30
0.0
 11
3019.9551538498908485
 21
142.5844176550313023
 31
0.0
  0
LINE
  5
34343
  8
0
 10
2993.3608588480519757
 20
208.834453258644686
 30
0.0
 11
2993.3385731375969954
 21
207.6527382524211021
 31
0.0
  0
LINE
  5
34344
  8
0
 10
2993.3385731375969954
 20
207.6527382524211021
 30
0.0
 11
2993.4176483261448993
 21
207.3891191668039085
 31
0.0
  0
LINE
  5
34345
  8
0
 10
2993.4176483261448993
 20
207.3891191668039085
 30
0.0
 11
2993.5003640131972134
 21
207.6475619378211093
 31
0.0
  0
LINE
  5
34346
  8
0
 10
2993.5003640131972134
 20
207.6475619378211093
 30
0.0
 11
2993.5226335804331939
 21
208.8343328694211039
 31
0.0
  0
LINE
  5
34347
  8
0
 10
2999.4852901778472187
 20
208.8343353960702018
 30
0.0
 11
2999.4852901778472187
 21
174.7327470345566098
 31
0.0
  0
LINE
  5
34348
  8
0
 10
2999.6062452677970214
 20
208.8343353960702018
 30
0.0
 11
2999.6062452677970214
 21
174.7327470345566098
 31
0.0
  0
LINE
  5
34349
  8
0
 10
2987.3610617837280188
 20
174.7327470345566098
 30
0.0
 11
3016.0391033255032198
 21
174.7327470345566098
 31
0.0
  0
LINE
  5
3434A
  8
0
 10
3017.1106730298761249
 20
174.7327470345566098
 30
0.0
 11
3020.0407286822478454
 21
174.7327470345566098
 31
0.0
  0
LINE
  5
3434B
  8
0
 10
3010.715145935846067
 20
208.8343353960702018
 30
0.0
 11
3010.7184197127421612
 21
207.6527376091339931
 31
0.0
  0
LINE
  5
3434C
  8
0
 10
3010.7184197127421612
 20
207.6527376091339931
 30
0.0
 11
3010.7977496873668315
 21
207.2547716306524137
 31
0.0
  0
LINE
  5
3434D
  8
0
 10
3010.7977496873668315
 20
207.2547716306524137
 30
0.0
 11
3010.8805542798440911
 21
207.647561937709213
 31
0.0
  0
LINE
  5
3434E
  8
0
 10
3010.8805542798440911
 20
207.647561937709213
 30
0.0
 11
3010.9028472824661549
 21
208.8343353960702018
 31
0.0
  0
LINE
  5
3434F
  8
0
 10
3005.1149814380041789
 20
208.8343353960702018
 30
0.0
 11
3005.1182374977129257
 21
207.6527364725164944
 31
0.0
  0
LINE
  5
34350
  8
0
 10
3005.1182374977129257
 20
207.6527364725164944
 30
0.0
 11
3005.1981054267971558
 21
207.2712923989211049
 31
0.0
  0
LINE
  5
34351
  8
0
 10
3005.1981054267971558
 20
207.2712923989211049
 30
0.0
 11
3005.2809118165400832
 21
207.6475619375038946
 31
0.0
  0
LINE
  5
34352
  8
0
 10
3005.2809118165400832
 20
207.6475619375038946
 30
0.0
 11
3005.3035716507970392
 21
208.8503596850210897
 31
0.0
  0
LINE
  5
34353
  8
0
 10
2987.5445357475618948
 20
198.5188969573210898
 30
0.0
 11
2999.3024148123968189
 21
198.5188969573210898
 31
0.0
  0
LINE
  5
34354
  8
0
 10
2999.3024148123968189
 20
198.5188969573210898
 30
0.0
 11
2999.3024148123968189
 21
193.0188969573210898
 31
0.0
  0
LINE
  5
34355
  8
0
 10
2999.3024148123968189
 20
193.0188969573210898
 30
0.0
 11
2987.5445357475618948
 21
193.0188969692852936
 31
0.0
  0
LINE
  5
34356
  8
0
 10
2987.5445357475618948
 20
193.0188969692852936
 30
0.0
 11
2987.5445357475618948
 21
198.5188969573210898
 31
0.0
  0
LINE
  5
34357
  8
0
 10
2987.6295050263997837
 20
191.0108310362332986
 30
0.0
 11
2991.0819664391410697
 21
191.0108462879190938
 31
0.0
  0
ARC
  5
34358
  8
0
 10
2991.0819661255168285
 20
191.0818401122984938
 30
0.0
 40
0.0709938243800998
 50
270.000253111369318
 51
0.7825560999058027
  0
LINE
  5
34359
  8
0
 10
2991.1529533281968725
 20
191.0828097286211005
 30
0.0
 11
2991.1528324301948487
 21
192.7758368465646868
 31
0.0
  0
ARC
  5
3435A
  8
0
 10
2987.6440030792450671
 20
191.0961491171092064
 30
0.0
 40
0.0865448918791679
 50
188.8624580567957025
 51
260.3410157929085926
  0
LINE
  5
3435B
  8
0
 10
2987.5584914446972107
 20
191.0828157504205933
 30
0.0
 11
2987.5581533020567804
 21
192.7693313058665012
 31
0.0
  0
ARC
  5
3435C
  8
0
 10
2987.6106182579701454
 20
192.7714174781808083
 30
0.0
 40
0.0525064159314164
 50
98.0127104156077422
 51
182.2770615334115121
  0
LINE
  5
3435D
  8
0
 10
2987.6032992428317812
 20
192.8234112829211142
 30
0.0
 11
2991.0915160504100641
 21
192.8234112829211142
 31
0.0
  0
LINE
  5
3435E
  8
0
 10
2991.2190648248251819
 20
192.8234112829211142
 30
0.0
 11
2998.3260343696888413
 21
192.8234112829211142
 31
0.0
  0
LINE
  5
3435F
  8
0
 10
2998.4210390856078448
 20
192.8234112829211142
 30
0.0
 11
2999.4852901778472187
 21
192.8234112829211142
 31
0.0
  0
LINE
  5
34360
  8
0
 10
2999.6062452677970214
 20
192.8234112829211142
 30
0.0
 11
3016.039095451715184
 21
192.8234112829211142
 31
0.0
  0
ARC
  5
34361
  8
0
 10
2991.0911924058150362
 20
192.7590785868308103
 30
0.0
 40
0.0643335101799339
 50
15.09916126417858
 51
89.711759120696712
  0
ARC
  5
34362
  8
0
 10
2991.2601015606760484
 20
191.1049719119455119
 30
0.0
 40
0.0970102800756123
 50
193.2072384344353964
 51
256.0171550149044037
  0
LINE
  5
34363
  8
0
 10
2991.1656571979960972
 20
191.0828075983210965
 30
0.0
 11
2991.1659421733829731
 21
192.7758367996279105
 31
0.0
  0
ARC
  5
34364
  8
0
 10
2991.2359119166908386
 20
192.75022164246991
 30
0.0
 40
0.075103581630201
 50
102.9627825600182973
 51
160.0582260405462875
  0
LINE
  5
34365
  8
0
 10
2991.2366608340821585
 20
191.010836229141006
 30
0.0
 11
2998.293823860214161
 21
191.0108416360139927
 31
0.0
  0
ARC
  5
34366
  8
0
 10
2998.2705284520648092
 20
191.1048224354647971
 30
0.0
 40
0.0968249281239435
 50
283.9215473435659192
 51
346.8636557362481767
  0
ARC
  5
34367
  8
0
 10
2998.4742068530740653
 20
191.1047566431857945
 30
0.0
 40
0.0967502670249325
 50
193.1003564936252133
 51
256.1082228756411041
  0
LINE
  5
34368
  8
0
 10
2998.3799791827441368
 20
191.0828076041728139
 30
0.0
 11
2998.3802688061191475
 21
192.7758367980561047
 31
0.0
  0
LINE
  5
34369
  8
0
 10
2998.3651648944000954
 20
192.7758368470450989
 30
0.0
 11
2998.3648196659969472
 21
191.0828171230211012
 31
0.0
  0
ARC
  5
3436A
  8
0
 10
2998.300079047709005
 20
192.7626563231395096
 30
0.0
 40
0.0660669650972399
 50
9.8884468346889971
 51
66.8671859799360107
  0
ARC
  5
3436B
  8
0
 10
2998.4540536436679758
 20
192.7529630560545115
 30
0.0
 40
0.0778004737294423
 50
115.1094681228045999
 51
162.902068978350286
  0
ARC
  5
3436C
  8
0
 10
3003.8719679886999074
 20
204.3500947853831065
 30
0.0
 40
1.297133283884442
 50
159.6630240038614943
 51
166.3861299355637016
  0
ARC
  5
3436D
  8
0
 10
3002.8889400280449991
 20
204.5881661902666053
 30
0.0
 40
0.2856878007998467
 50
166.3861299355637016
 51
180.7284166820207076
  0
LINE
  5
3436E
  8
0
 10
3002.6032753143967966
 20
204.5845342621211103
 30
0.0
 11
3002.6034202369969535
 21
201.6259414019210965
 31
0.0
  0
ARC
  5
3436F
  8
0
 10
3002.8680354449011247
 20
201.6078250977149935
 30
0.0
 40
0.2652346295872367
 50
176.0834806602231026
 51
215.482443895430805
  0
ARC
  5
34370
  8
0
 10
3002.3304720745331906
 20
201.6503050004768056
 30
0.0
 40
0.376834010834456
 50
328.5817910431898099
 51
356.3012667567198264
  0
LINE
  5
34371
  8
0
 10
3002.706521156996132
 20
201.6259953460211136
 30
0.0
 11
3002.707114263837866
 21
204.5413869741807957
 31
0.0
  0
ARC
  5
34372
  8
0
 10
3001.7810266660089837
 20
204.5386364459305071
 30
0.0
 40
0.9260916824256552
 50
0.1701709397225742
 51
5.057351113467754
  0
ARC
  5
34373
  8
0
 10
3002.1551889644288167
 20
204.571748828892197
 30
0.0
 40
0.5504670620080646
 50
5.057351113467754
 51
24.6004457754303196
  0
LINE
  5
34374
  8
0
 10
2999.6062452677970214
 20
196.0938164970243918
 30
0.0
 11
3001.901237704120831
 21
196.0938164970243918
 31
0.0
  0
LINE
  5
34375
  8
0
 10
3002.0582990080661148
 20
196.0938164970243918
 30
0.0
 11
3009.1154806144118083
 21
196.0938164970243918
 31
0.0
  0
LINE
  5
34376
  8
0
 10
3009.272713362110153
 20
196.0938164970243918
 30
0.0
 11
3016.0390940283032251
 21
196.0938164970243918
 31
0.0
  0
LINE
  5
34377
  8
0
 10
2999.6062452677970214
 20
196.1061867657145115
 30
0.0
 11
3016.0390940229181069
 21
196.1061867657145115
 31
0.0
  0
ARC
  5
34378
  8
0
 10
3009.1138110363249325
 20
196.021319875592809
 30
0.0
 40
0.0725158438549122
 50
0.0050580939482474
 51
88.6807264970924649
  0
ARC
  5
34379
  8
0
 10
3009.2759186608968776
 20
196.0193611011794133
 30
0.0
 40
0.0745243578352169
 50
92.465056612939847
 51
178.4890088684705916
  0
LINE
  5
3437A
  8
0
 10
3009.2014202162968104
 20
196.0213262126216023
 30
0.0
 11
3009.201449068115835
 21
193.6303860883330117
 31
0.0
  0
ARC
  5
3437B
  8
0
 10
3009.2729515191967948
 20
193.6303869511633877
 30
0.0
 40
0.0715024510871606
 50
180.0006913964128898
 51
269.6015375212671756
  0
LINE
  5
3437C
  8
0
 10
3009.2724542606829345
 20
193.5588862291708949
 30
0.0
 11
3016.0390887262969954
 21
193.5581160448149944
 31
0.0
  0
LINE
  5
3437D
  8
0
 10
3016.0376922684968122
 20
193.5460328079211081
 30
0.0
 11
3012.8796255516967904
 21
193.5453045326210884
 31
0.0
  0
ARC
  5
3437E
  8
0
 10
3012.8796419408899965
 20
193.4742350271334885
 30
0.0
 40
0.0710695073772821
 50
90.0132128621667391
 51
180.7730135409138938
  0
LINE
  5
3437F
  8
0
 10
3012.8085789015967748
 20
193.4732762126211014
 30
0.0
 11
3012.8085789015967748
 21
192.9251583456116919
 31
0.0
  0
LINE
  5
34380
  8
0
 10
3016.0376922684968122
 20
192.9250627851210993
 30
0.0
 11
2999.6062452677970214
 21
192.9250627851210993
 31
0.0
  0
ARC
  5
34381
  8
0
 10
3001.8985446916749424
 20
196.0203951495983006
 30
0.0
 40
0.0734707191600873
 50
0.7261548213480671
 51
87.899396919202033
  0
ARC
  5
34382
  8
0
 10
3002.0594256206281898
 20
196.0215022831162912
 30
0.0
 40
0.0723229893534322
 50
90.8925620532143768
 51
180.1394868532022997
  0
LINE
  5
34383
  8
0
 10
3001.9720095092970951
 20
196.0213262773199858
 30
0.0
 11
3001.9719783512969116
 21
193.6308671230210905
 31
0.0
  0
ARC
  5
34384
  8
0
 10
3001.8999950838579025
 20
193.6308680612737021
 30
0.0
 40
0.0719832674451736
 50
270.7854997904092897
 51
359.9992531887077121
  0
LINE
  5
34385
  8
0
 10
3001.9871028460970592
 20
196.0213262126210907
 30
0.0
 11
3001.9871332534971771
 21
193.6308575983204037
 31
0.0
  0
ARC
  5
34386
  8
0
 10
3002.0591121455740904
 20
193.6308585139111926
 30
0.0
 40
0.0719788920822392
 50
180.0007288176375084
 51
269.2236649263763866
  0
LINE
  5
34387
  8
0
 10
3002.0581368899938752
 20
193.5588862290931047
 30
0.0
 11
3009.115299282297201
 21
193.5588915584210952
 31
0.0
  0
ARC
  5
34388
  8
0
 10
3009.1152524128938239
 20
193.6299408896331897
 30
0.0
 40
0.0710493466713549
 50
270.0377965360319195
 51
0.7469564430628961
  0
LINE
  5
34389
  8
0
 10
3009.1862957218968404
 20
193.6308671230210905
 30
0.0
 11
3009.1863268798970239
 21
196.0213262773199858
 31
0.0
  0
LINE
  5
3438A
  8
0
 10
2999.6062452677970214
 20
193.5460353626299934
 30
0.0
 11
3005.5081144317118742
 21
193.5460353626299934
 31
0.0
  0
LINE
  5
3438B
  8
0
 10
3005.6654695431871005
 20
193.5460353626299934
 30
0.0
 11
3012.7222679223191335
 21
193.5460353626299934
 31
0.0
  0
ARC
  5
3438C
  8
0
 10
3005.5064843006339288
 20
193.4733696899527047
 30
0.0
 40
0.0726839549899276
 50
359.9263640645502846
 51
88.7148819483585953
  0
ARC
  5
3438D
  8
0
 10
3005.6680398896378392
 20
193.4722952664934041
 30
0.0
 40
0.0737848796103591
 50
91.9963413443743292
 51
179.2382486876786061
  0
LINE
  5
3438E
  8
0
 10
3005.594261530996846
 20
193.473276212621613
 30
0.0
 11
3005.5939285108829608
 21
192.9250627851210993
 31
0.0
  0
LINE
  5
3438F
  8
0
 10
3005.5795000498651461
 20
192.9250627851210993
 30
0.0
 11
3005.5791681955970489
 21
193.473276277321105
 31
0.0
  0
ARC
  5
34390
  8
0
 10
3012.7186886234298981
 20
193.4712979221716864
 30
0.0
 40
0.0748231006227242
 50
1.5151017647019851
 51
87.258105924585891
  0
LINE
  5
34391
  8
0
 10
3012.7934855651969883
 20
193.4732762773199966
 30
0.0
 11
3012.7938174205710311
 21
192.9250627851210993
 31
0.0
  0
LINE
  5
34392
  8
0
 10
3005.5797483633618867
 20
192.8234112829211142
 30
0.0
 11
3005.579137036596876
 21
191.0828171230211012
 31
0.0
  0
ARC
  5
34393
  8
0
 10
3005.5071291508770628
 20
191.0828424134355998
 30
0.0
 40
0.0720078901612275
 50
270.8053258499775779
 51
359.9798767323812854
  0
LINE
  5
34394
  8
0
 10
3005.5081412307617938
 20
191.0108416360803005
 30
0.0
 11
2999.6062452677970214
 21
190.9979828706495084
 31
0.0
  0
LINE
  5
34395
  8
0
 10
3005.5938218448250154
 20
192.8234112829211142
 30
0.0
 11
3005.5960293565021857
 21
191.0828098017942978
 31
0.0
  0
ARC
  5
34396
  8
0
 10
3005.6681508822712203
 20
191.0829012696644895
 30
0.0
 40
0.0721215837710834
 50
180.0726651308993098
 51
267.7310563996408064
  0
LINE
  5
34397
  8
0
 10
3005.6652955752902017
 20
191.0108362291267952
 30
0.0
 11
3012.7224586013790031
 21
191.0108416360554884
 31
0.0
  0
ARC
  5
34398
  8
0
 10
3012.7225315583928023
 20
191.0817721447826898
 30
0.0
 40
0.0709305462479858
 50
269.9410672838217806
 51
0.8441357355987767
  0
LINE
  5
34399
  8
0
 10
3012.7934544066970375
 20
191.0828171230218118
 30
0.0
 11
3012.7938530107958286
 21
192.8234112829211142
 31
0.0
  0
LINE
  5
3439A
  8
0
 10
3012.8079457529797764
 20
192.8234112829211142
 30
0.0
 11
3012.8101532649598084
 21
191.0828095564367004
 31
0.0
  0
ARC
  5
3439B
  8
0
 10
3012.8822668417428758
 20
191.0829010142252002
 30
0.0
 40
0.0721136347780551
 50
180.0726651306582085
 51
267.8909484133566252
  0
LINE
  5
3439C
  8
0
 10
3012.8796129458901305
 20
191.0108362297760038
 30
0.0
 11
3016.0390962406199833
 21
191.0108376049107903
 31
0.0
  0
LINE
  5
3439D
  8
0
 10
2999.6062452677970214
 20
198.6225999685719046
 30
0.0
 11
3001.9013894955678552
 21
198.6225999685719046
 31
0.0
  0
LINE
  5
3439E
  8
0
 10
3002.0585444738699152
 20
198.6225999685719046
 30
0.0
 11
3009.1162619210172124
 21
198.6225999685719046
 31
0.0
  0
LINE
  5
3439F
  8
0
 10
3009.272838855658847
 20
198.6225999685719046
 30
0.0
 11
3016.039092927674119
 21
198.6225999685719046
 31
0.0
  0
LINE
  5
343A0
  8
0
 10
2999.6062452677970214
 20
198.6108031935063991
 30
0.0
 11
3016.0390929328091261
 21
198.6108031935063991
 31
0.0
  0
LINE
  5
343A1
  8
0
 10
2987.5445357531648369
 20
180.472900900921104
 30
0.0
 11
2999.3024148123968189
 21
180.472900900921104
 31
0.0
  0
LINE
  5
343A2
  8
0
 10
2999.3024148123968189
 20
180.472900900921104
 30
0.0
 11
2999.3024148123968189
 21
174.972900900921104
 31
0.0
  0
LINE
  5
343A3
  8
0
 10
2999.3024148123968189
 20
174.972900900921104
 30
0.0
 11
2987.5445357475878154
 21
174.9729009128433859
 31
0.0
  0
LINE
  5
343A4
  8
0
 10
2987.5445357475878154
 20
174.9729009128433859
 30
0.0
 11
2987.5445357531648369
 21
180.472900900921104
 31
0.0
  0
LINE
  5
343A5
  8
0
 10
2987.5446868333970087
 20
174.5968028063211079
 30
0.0
 11
2987.5446868333970087
 21
169.0968028063211079
 31
0.0
  0
LINE
  5
343A6
  8
0
 10
2987.5446868333970087
 20
169.0968028063211079
 30
0.0
 11
3011.55163197239699
 21
169.0968028063211079
 31
0.0
  0
LINE
  5
343A7
  8
0
 10
3011.55163197239699
 20
169.0968028063211079
 30
0.0
 11
3011.55163197239699
 21
174.5968028063211079
 31
0.0
  0
LINE
  5
343A8
  8
0
 10
3011.55163197239699
 20
174.5968028063211079
 30
0.0
 11
2987.544535747496866
 21
174.5968028063211079
 31
0.0
  0
LINE
  5
343A9
  8
0
 10
2987.6294822649970229
 20
185.914734319221111
 30
0.0
 11
2991.0819661489967984
 21
185.9147462111210984
 31
0.0
  0
ARC
  5
343AA
  8
0
 10
2991.081965904460958
 20
185.9857402545924003
 30
0.0
 40
0.0709940434717017
 50
270.0001973523005177
 51
0.7824388357182408
  0
LINE
  5
343AB
  8
0
 10
2991.1529533281968725
 20
185.9867097286210935
 30
0.0
 11
2991.1535659506230331
 21
187.8049972265469876
 31
0.0
  0
LINE
  5
343AC
  8
0
 10
2987.5581433423799353
 20
187.8049041258549892
 30
0.0
 11
2999.4852901778472187
 21
187.8049041258549892
 31
0.0
  0
LINE
  5
343AD
  8
0
 10
2999.6062452677970214
 20
187.8049041258549892
 30
0.0
 11
3016.0390976359722117
 21
187.8049041258549892
 31
0.0
  0
ARC
  5
343AE
  8
0
 10
2987.6294678138069685
 20
185.9857144581438888
 30
0.0
 40
0.0709834315765589
 50
179.1917589357678935
 51
270.0300368526956163
  0
LINE
  5
343AF
  8
0
 10
2987.5584914446972107
 20
185.9867157504210979
 30
0.0
 11
2987.5581433423799353
 21
187.8049041258549892
 31
0.0
  0
LINE
  5
343B0
  8
0
 10
2991.1655687875181684
 20
187.8049041258549892
 30
0.0
 11
2991.1629711198861514
 21
185.9866954162415027
 31
0.0
  0
ARC
  5
343B1
  8
0
 10
2991.234850344933875
 20
185.9865927226753968
 30
0.0
 40
0.0718792984069103
 50
179.9181418008489004
 51
271.4433134585584071
  0
LINE
  5
343B2
  8
0
 10
2991.2366608340821585
 20
185.9147362291029992
 30
0.0
 11
2998.2921056367781603
 21
185.9147365914654983
 31
0.0
  0
ARC
  5
343B3
  8
0
 10
2998.2937311047658113
 20
185.9857986634463032
 30
0.0
 40
0.0710944942025846
 50
268.2695567601168136
 51
0.7402165495808162
  0
LINE
  5
343B4
  8
0
 10
2998.3648196659969472
 20
185.9867171230210943
 30
0.0
 11
2998.3651700757500294
 21
187.8049041258549892
 31
0.0
  0
LINE
  5
343B5
  8
0
 10
2998.3798861581180972
 20
187.8049041258549892
 30
0.0
 11
2998.3799730122800611
 21
185.9862335587671112
 31
0.0
  0
ARC
  5
343B6
  8
0
 10
2998.4514723341699209
 20
185.9862369733567107
 30
0.0
 40
0.0714993219710895
 50
180.0027362717636947
 51
269.5856068841649176
  0
LINE
  5
343B7
  8
0
 10
2998.4509552180970786
 20
185.9147395214210974
 30
0.0
 11
2999.4852901778472187
 21
185.9140150270617085
 31
0.0
  0
LINE
  5
343B8
  8
0
 10
2999.6062452677970214
 20
185.9139865009059918
 30
0.0
 11
3005.5081412399968031
 21
185.9147384804211072
 31
0.0
  0
ARC
  5
343B9
  8
0
 10
3005.5081321922020834
 20
185.9857499114991128
 30
0.0
 40
0.0710114316543957
 50
270.0073002391847012
 51
0.7804215524212522
  0
LINE
  5
343BA
  8
0
 10
3005.579137036596876
 20
185.9867171230210943
 30
0.0
 11
3005.5793411595068392
 21
187.8049041258549892
 31
0.0
  0
LINE
  5
343BB
  8
0
 10
3005.5942035287180261
 20
187.8049041258549892
 30
0.0
 11
3005.5942903828959061
 21
185.9862335609913089
 31
0.0
  0
ARC
  5
343BC
  8
0
 10
3005.6665626874869304
 20
185.9865543144923095
 30
0.0
 40
0.0722730163608393
 50
180.2542841454068991
 51
268.9954217410376032
  0
LINE
  5
343BD
  8
0
 10
3005.6652955752902017
 20
185.914292406680687
 30
0.0
 11
3012.7225860388371075
 21
185.914292406680687
 31
0.0
  0
LINE
  5
343BE
  8
0
 10
3012.8785988542658743
 20
185.914292406680687
 30
0.0
 11
3016.0390984588430001
 21
185.914292406680687
 31
0.0
  0
ARC
  5
343BF
  8
0
 10
3012.7214977627818371
 20
185.9862423872554871
 30
0.0
 40
0.0719582104382786
 50
270.8665585444678072
 51
0.3780048574190296
  0
ARC
  5
343C0
  8
0
 10
3012.8800948217422047
 20
185.9857684342304935
 30
0.0
 40
0.0714916808656244
 50
179.2473014227389001
 51
268.800995054578209
  0
LINE
  5
343C1
  8
0
 10
3012.8086093098968377
 20
185.9867075983210896
 30
0.0
 11
3012.8082464732951848
 21
187.8049041258549892
 31
0.0
  0
LINE
  5
343C2
  8
0
 10
3012.7934544066970375
 20
185.9867171230218048
 30
0.0
 11
3012.7934544066970375
 21
187.8049041258549892
 31
0.0
  0
ARC
  5
343C3
  8
0
 10
3002.4096818855441597
 20
208.883802662947403
 30
0.0
 40
2.9248100571732811
 50
178.4842383312382026
 51
180.9690888301336997
  0
ARC
  5
343C4
  8
0
 10
2999.5455615266218956
 20
208.9635628085331973
 30
0.0
 40
0.0597142435945355
 50
358.8946023343506226
 51
182.2969156803202964
  0
ARC
  5
343C5
  8
0
 10
2997.8859200143751877
 20
208.8852051807598116
 30
0.0
 40
1.721077195409275
 50
358.3062651008766011
 51
2.5710888701560308
  0
LINE
  5
343C6
  8
0
 10
2999.4852901778472187
 20
180.8182732706904119
 30
0.0
 11
2998.4502929908808255
 21
180.8182732706904119
 31
0.0
  0
LINE
  5
343C7
  8
0
 10
2998.2961377846531832
 20
180.8182732706904119
 30
0.0
 11
2991.2351118146871158
 21
180.8182732706904119
 31
0.0
  0
LINE
  5
343C8
  8
0
 10
2991.0843597293501261
 20
180.8182732706904119
 30
0.0
 11
2987.6256633178709308
 21
180.8182732706904119
 31
0.0
  0
ARC
  5
343C9
  8
0
 10
2987.6300436713631825
 20
180.8896971979336001
 30
0.0
 40
0.0715581223869761
 50
179.2645052099738905
 51
266.4905063913254253
  0
LINE
  5
343CA
  8
0
 10
2987.5584914446972107
 20
180.8906157504206078
 30
0.0
 11
2987.5584657882968713
 21
183.2810735219210869
 31
0.0
  0
ARC
  5
343CB
  8
0
 10
2987.6310525950889314
 20
183.2806652245099883
 30
0.0
 40
0.0725879556098742
 50
91.2131933609068568
 51
179.6777173066344062
  0
LINE
  5
343CC
  8
0
 10
2987.6294791597488256
 20
183.3666862942808109
 30
0.0
 11
2994.6896991471389811
 21
183.3666862942808109
 31
0.0
  0
LINE
  5
343CD
  8
0
 10
2994.8411769587878553
 20
183.3666862942808109
 30
0.0
 11
2999.4852901778472187
 21
183.3666862942808109
 31
0.0
  0
LINE
  5
343CE
  8
0
 10
2999.6062452677970214
 20
183.3666862942808109
 30
0.0
 11
3001.9040165283859096
 21
183.3666862942808109
 31
0.0
  0
LINE
  5
343CF
  8
0
 10
3002.0548341885728405
 20
183.3666862942808109
 30
0.0
 11
3009.1211819902550815
 21
183.3666862942808109
 31
0.0
  0
LINE
  5
343D0
  8
0
 10
3009.2646288372111485
 20
183.3666862942808109
 30
0.0
 11
3016.039099567663925
 21
183.3666862942808109
 31
0.0
  0
LINE
  5
343D1
  8
0
 10
2987.6295157166969148
 20
183.3532369084124127
 30
0.0
 11
2991.0819538166588245
 21
183.3530969487111122
 31
0.0
  0
LINE
  5
343D2
  8
0
 10
2991.2371593181551361
 20
183.3532369084124127
 30
0.0
 11
2998.2938334920968373
 21
183.3530987404211032
 31
0.0
  0
LINE
  5
343D3
  8
0
 10
2998.4510034470281425
 20
183.3532369084124127
 30
0.0
 11
2999.4852901778472187
 21
183.3532369084124127
 31
0.0
  0
ARC
  5
343D4
  8
0
 10
2991.0816111392841776
 20
183.2817217114447033
 30
0.0
 40
0.0713760598703604
 50
359.480194071801975
 51
89.7249211737295838
  0
ARC
  5
343D5
  8
0
 10
2991.2384830717260229
 20
183.2803894160821017
 30
0.0
 40
0.0728595186803603
 50
91.041039900436445
 51
179.4599041201909984
  0
ARC
  5
343D6
  8
0
 10
2994.6867326963160849
 20
183.4383315279218039
 30
0.0
 40
0.0716400019207704
 50
269.9454912497034798
 51
358.9291247867996049
  0
ARC
  5
343D7
  8
0
 10
2994.8433689846488051
 20
183.4368859020264892
 30
0.0
 40
0.0702338230842505
 50
183.8371914911469105
 51
268.2114852386624761
  0
ARC
  5
343D8
  8
0
 10
2998.2931511859660532
 20
183.2814016108135036
 30
0.0
 40
0.0717003761191286
 50
359.7400250735170175
 51
89.4547608563784138
  0
ARC
  5
343D9
  8
0
 10
2998.4521036294268015
 20
183.2810858266184937
 30
0.0
 40
0.0721594692700564
 50
90.8735963719574471
 51
180.0076336686504987
  0
LINE
  5
343DA
  8
0
 10
2998.3799441607970948
 20
183.2810762126210875
 30
0.0
 11
2998.3799745681972126
 21
180.890607598321111
 31
0.0
  0
ARC
  5
343DB
  8
0
 10
2998.4523387389249365
 20
180.8906085188127122
 30
0.0
 40
0.0723641707336778
 50
180.0007288176309999
 51
268.3800222389331225
  0
ARC
  5
343DC
  8
0
 10
2998.2933764492868249
 20
180.8896693935583073
 30
0.0
 40
0.0714495019826662
 50
272.2148828109180272
 51
0.7600121661122236
  0
LINE
  5
343DD
  8
0
 10
2998.3648196659969472
 20
180.8906171230210873
 30
0.0
 11
2998.3648508239962212
 21
183.2810762773200111
 31
0.0
  0
ARC
  5
343DE
  8
0
 10
2991.0815300968138217
 20
180.8896469223892041
 30
0.0
 40
0.0714297205447866
 50
272.2703215740219207
 51
0.7723172333836708
  0
ARC
  5
343DF
  8
0
 10
2991.237105331688781
 20
180.8896993624946106
 30
0.0
 40
0.0714539061245103
 50
179.2717055814511866
 51
268.401277975892981
  0
LINE
  5
343E0
  8
0
 10
2991.1656571979960972
 20
180.890607598321111
 30
0.0
 11
2991.1656267900971216
 21
183.2810762126210875
 31
0.0
  0
LINE
  5
343E1
  8
0
 10
2991.1529842617969734
 20
183.2810741735210911
 30
0.0
 11
2991.1529533276971051
 21
180.8906097286217971
 31
0.0
  0
ARC
  5
343E2
  8
0
 10
3001.9009956933928152
 20
183.4385217952784899
 30
0.0
 40
0.071830160445124
 50
269.9895124711762833
 51
356.3444142856550911
  0
ARC
  5
343E3
  8
0
 10
3002.0579699891982273
 20
183.4374736650082127
 30
0.0
 40
0.0708567928999286
 50
188.1668968234916122
 51
267.4635199579241771
  0
ARC
  5
343E4
  8
0
 10
3009.1146902210189182
 20
183.4387543085238121
 30
0.0
 40
0.0723598075228481
 50
275.1472187054470169
 51
357.7635899981041803
  0
ARC
  5
343E5
  8
0
 10
3009.274511051420177
 20
183.4411356570030023
 30
0.0
 40
0.0751023685873352
 50
195.526019529937912
 51
262.4389077783491757
  0
LINE
  5
343E6
  8
0
 10
3005.508513078388205
 20
183.3536023014621037
 30
0.0
 11
2999.6062452677970214
 21
183.3536023014621037
 31
0.0
  0
LINE
  5
343E7
  8
0
 10
2999.4852901778472187
 20
183.3536023014621037
 30
0.0
 11
2998.7123776574107978
 21
183.3536023014621037
 31
0.0
  0
LINE
  5
343E8
  8
0
 10
2998.0873154573919237
 20
183.3536023014621037
 30
0.0
 11
2991.4980600147391669
 21
183.3536023014621037
 31
0.0
  0
LINE
  5
343E9
  8
0
 10
2990.8745001542729369
 20
183.3536023014621037
 30
0.0
 11
2988.0576578289460485
 21
183.3536023014621037
 31
0.0
  0
LINE
  5
343EA
  8
0
 10
3005.6647906675248123
 20
183.3536023014621037
 30
0.0
 11
3016.0390995733591808
 21
183.3536023014621037
 31
0.0
  0
LINE
  5
343EB
  8
0
 10
3017.1106730298761249
 20
183.3536023014621037
 30
0.0
 11
3020.1403184075238642
 21
183.3536023014621037
 31
0.0
  0
LINE
  5
343EC
  8
0
 10
2987.6292611253102223
 20
180.8057195004940922
 30
0.0
 11
2999.4852901778472187
 21
180.8057195004940922
 31
0.0
  0
LINE
  5
343ED
  8
0
 10
2999.6062452677970214
 20
180.8057195004940922
 30
0.0
 11
3001.900796608876135
 21
180.8057195004940922
 31
0.0
  0
LINE
  5
343EE
  8
0
 10
3002.0581494957968971
 20
180.8057195004940922
 30
0.0
 11
3009.1172595020461813
 21
180.8057195004940922
 31
0.0
  0
LINE
  5
343EF
  8
0
 10
3009.2729826636250436
 20
180.8057195004940922
 30
0.0
 11
3016.039100682300159
 21
180.8057195004940922
 31
0.0
  0
LINE
  5
343F0
  8
0
 10
3017.1106730298761249
 20
180.8057195004940922
 30
0.0
 11
3020.140668076106067
 21
180.8057195004940922
 31
0.0
  0
LINE
  5
343F1
  8
0
 10
2999.6062452677970214
 20
178.2700369309877999
 30
0.0
 11
3001.9012499974260209
 21
178.2700369309877999
 31
0.0
  0
LINE
  5
343F2
  8
0
 10
3002.0565011428097932
 20
178.2700369309877999
 30
0.0
 11
3009.1181367900621808
 21
178.2700369309877999
 31
0.0
  0
LINE
  5
343F3
  8
0
 10
3009.2704362323697751
 20
178.2700369309877999
 30
0.0
 11
3016.0391017859319618
 21
178.2700369309877999
 31
0.0
  0
LINE
  5
343F4
  8
0
 10
2999.6062452677970214
 20
178.2577340087385096
 30
0.0
 11
3005.5083165908517913
 21
178.2577340087385096
 31
0.0
  0
LINE
  5
343F5
  8
0
 10
3005.6639900946188391
 20
178.2577340087385096
 30
0.0
 11
3012.7226569522349564
 21
178.2577340087385096
 31
0.0
  0
LINE
  5
343F6
  8
0
 10
3012.8776112186560567
 20
178.2577340087385096
 30
0.0
 11
3016.0391017912861571
 21
178.2577340087385096
 31
0.0
  0
LINE
  5
343F7
  8
0
 10
2999.6062452677970214
 20
175.7091092023838996
 30
0.0
 11
3001.9020947141889337
 21
175.7091092023838996
 31
0.0
  0
LINE
  5
343F8
  8
0
 10
3002.0568087008741713
 20
175.7091092023838996
 30
0.0
 11
3016.0391029005509154
 21
175.7091092023838996
 31
0.0
  0
LINE
  5
343F9
  8
0
 10
2999.6062452677970214
 20
175.721785554130804
 30
0.0
 11
3005.511261886470038
 21
175.721785554130804
 31
0.0
  0
LINE
  5
343FA
  8
0
 10
3005.6630284417169605
 20
175.721785554130804
 30
0.0
 11
3012.7226772425228773
 21
175.721785554130804
 31
0.0
  0
LINE
  5
343FB
  8
0
 10
3012.8765192807409221
 20
175.721785554130804
 30
0.0
 11
3016.0391028950339205
 21
175.721785554130804
 31
0.0
  0
LINE
  5
343FC
  8
0
 10
3016.0391032729189646
 20
174.8535627851211132
 30
0.0
 11
2999.6062452677970214
 21
174.8535627851211132
 31
0.0
  0
LINE
  5
343FD
  8
0
 10
2999.4852901778472187
 20
174.8535627851211132
 30
0.0
 11
2987.3610617834401637
 21
174.8535627851211132
 31
0.0
  0
ARC
  5
343FE
  8
0
 10
3012.7210352291967865
 20
183.2811659490430998
 30
0.0
 40
0.0724503914927115
 50
359.9290850956285226
 51
88.8720405128028261
  0
ARC
  5
343FF
  8
0
 10
3012.8800437132308616
 20
183.2821303462544904
 30
0.0
 40
0.0714725852507896
 50
90.2405766000844949
 51
180.8450736449088083
  0
LINE
  5
34400
  8
0
 10
3012.8085789019969525
 20
183.2810762126210875
 30
0.0
 11
3012.8086093094971147
 21
180.890607598321111
 31
0.0
  0
ARC
  5
34401
  8
0
 10
3012.8805189834811245
 20
180.8900317367290995
 30
0.0
 40
0.0719119793328532
 50
179.5411780936591128
 51
269.0834062026503943
  0
ARC
  5
34402
  8
0
 10
3012.7214059784150777
 20
180.8899474164159926
 30
0.0
 40
0.0720515412526984
 50
274.6098772038175753
 51
0.5325620221669202
  0
LINE
  5
34403
  8
0
 10
3012.7934544071968048
 20
180.8906171230210873
 30
0.0
 11
3012.7934855651969883
 21
183.2810762773189879
 31
0.0
  0
ARC
  5
34404
  8
0
 10
3005.5077379075651152
 20
183.2821678797072025
 30
0.0
 40
0.071438627515286
 50
359.1244702489806855
 51
89.3782790943879633
  0
ARC
  5
34405
  8
0
 10
3005.6663975566020781
 20
183.281483028056698
 30
0.0
 40
0.0721371727268657
 50
91.2763957122970311
 51
180.3231195536959035
  0
LINE
  5
34406
  8
0
 10
3005.594261530996846
 20
183.2810762126210875
 30
0.0
 11
3005.5942919392969088
 21
180.890607598321111
 31
0.0
  0
ARC
  5
34407
  8
0
 10
3005.6664256513759028
 20
180.8901330730820121
 30
0.0
 40
0.0721352733737777
 50
179.6230902262443863
 51
266.5443528306564076
  0
ARC
  5
34408
  8
0
 10
3005.5071157096090246
 20
180.8901227929225968
 30
0.0
 40
0.0720230234256117
 50
271.6312896542523845
 51
0.3932527316752079
  0
LINE
  5
34409
  8
0
 10
3005.579137036596876
 20
180.8906171230210873
 30
0.0
 11
3005.5791681945970595
 21
183.2810762773210911
 31
0.0
  0
ARC
  5
3440A
  8
0
 10
2987.6312067762601146
 20
180.7330068525405977
 30
0.0
 40
0.0727386742387794
 50
91.532759383013186
 51
179.9847501906417904
  0
LINE
  5
3440B
  8
0
 10
2987.5584681045970683
 20
180.7330262126210982
 30
0.0
 11
2987.5581071769602204
 21
180.472900900921104
 31
0.0
  0
ARC
  5
3440C
  8
0
 10
3001.8991925645182164
 20
180.7329201468025133
 30
0.0
 40
0.0728170231210463
 50
0.083508397984376
 51
88.7377621007936739
  0
ARC
  5
3440D
  8
0
 10
3002.060127723324058
 20
180.7327207835892011
 30
0.0
 40
0.0730255164576598
 50
91.5523061126599771
 51
179.7603598525759878
  0
LINE
  5
3440E
  8
0
 10
3005.5091660271241381
 20
180.8181289591487939
 30
0.0
 11
2999.6062452677970214
 21
180.8181289591487939
 31
0.0
  0
LINE
  5
3440F
  8
0
 10
3005.6620776355748603
 20
180.8181289591487939
 30
0.0
 11
3012.7271968153700072
 21
180.8181289591487939
 31
0.0
  0
LINE
  5
34410
  8
0
 10
3012.879368614931991
 20
180.8181289591487939
 30
0.0
 11
3016.0391006768991247
 21
180.8181289591487939
 31
0.0
  0
ARC
  5
34411
  8
0
 10
3001.8996452060241609
 20
175.6367862329313994
 30
0.0
 40
0.072364438785174
 50
0.1108826041748325
 51
88.060189543564718
  0
LINE
  5
34412
  8
0
 10
3001.9720095092970951
 20
175.6369262773199864
 30
0.0
 11
3001.9735255283339939
 21
174.8535627851211132
 31
0.0
  0
ARC
  5
34413
  8
0
 10
3002.0580063495749528
 20
175.6382042941860107
 30
0.0
 40
0.0709150221671413
 50
90.9676860598004993
 51
181.0326816827586924
  0
LINE
  5
34414
  8
0
 10
3001.9871028455968371
 20
175.6369262126216881
 30
0.0
 11
3001.9871028455968371
 21
174.8535627851211132
 31
0.0
  0
ARC
  5
34415
  8
0
 10
3005.506571917814199
 20
175.794199650645794
 30
0.0
 40
0.0725658127500403
 50
273.7056408236093716
 51
0.2506674230592382
  0
ARC
  5
34416
  8
0
 10
3005.6666624300241892
 20
175.7940660977083951
 30
0.0
 40
0.0723718374154757
 50
179.6504679228104067
 51
267.1218115421102084
  0
LINE
  5
34417
  8
0
 10
3005.5942919392969088
 20
175.7945075983211041
 30
0.0
 11
3005.5942615313970236
 21
178.184976212621109
 31
0.0
  0
ARC
  5
34418
  8
0
 10
3005.668209267642851
 20
178.1838988748880013
 30
0.0
 40
0.0739555840470058
 50
93.2705053406606481
 51
179.1653221406048999
  0
ARC
  5
34419
  8
0
 10
3005.5057019806040444
 20
178.1843113233994984
 30
0.0
 40
0.0734692242313
 50
0.5185786818215466
 51
87.9605369003257209
  0
LINE
  5
3441A
  8
0
 10
3005.5791681955970489
 20
178.1849762773211125
 30
0.0
 11
3005.5791370360971086
 21
175.7945171230217909
 31
0.0
  0
ARC
  5
3441B
  8
0
 10
3012.7216428020369676
 20
178.1858925604473995
 30
0.0
 40
0.0718486060629744
 50
359.2692888280254806
 51
89.1912375348253335
  0
ARC
  5
3441C
  8
0
 10
3012.8805177854651447
 20
178.1858485728423034
 30
0.0
 40
0.0719441729718701
 50
92.3153973405488131
 51
180.6947579173505005
  0
ARC
  5
3441D
  8
0
 10
3012.7210551081511767
 20
175.7941675224004996
 30
0.0
 40
0.0724001426139529
 50
271.2838266290161187
 51
0.2766668295342132
  0
ARC
  5
3441E
  8
0
 10
3012.8819461916018554
 20
175.7949225422773054
 30
0.0
 40
0.0733380555825467
 50
180.3241790920905885
 51
265.7563156003865856
  0
LINE
  5
3441F
  8
0
 10
3012.7934544066970375
 20
175.7945171230211088
 30
0.0
 11
3012.7934855651969883
 21
178.1849762773211125
 31
0.0
  0
LINE
  5
34420
  8
0
 10
3012.8085736124940013
 20
178.1858485728423034
 30
0.0
 11
3012.8086093098968377
 21
175.7945075983211041
 31
0.0
  0
ARC
  5
34421
  8
0
 10
3001.9002084300168463
 20
178.3418033581982911
 30
0.0
 40
0.0717739851005996
 50
270.8314922364510835
 51
0.6097101442328455
  0
ARC
  5
34422
  8
0
 10
3002.0592357343498406
 20
178.3420890594152866
 30
0.0
 40
0.0721040026754033
 50
179.6276837654866085
 51
267.8264987681973253
  0
ARC
  5
34423
  8
0
 10
3009.1138447010321215
 20
178.3423609989789043
 30
0.0
 40
0.0724513135769309
 50
273.3962483770350786
 51
0.1630067561571441
  0
ARC
  5
34424
  8
0
 10
3009.273175912428087
 20
178.3417148308226956
 30
0.0
 40
0.0717302388923831
 50
179.3268092714725981
 51
267.8111003509583838
  0
ARC
  5
34425
  8
0
 10
3009.1139717873829795
 20
180.7334379687252124
 30
0.0
 40
0.0723562637410092
 50
359.6739977158251804
 51
87.3957050313567265
  0
ARC
  5
34426
  8
0
 10
3009.273388746009914
 20
180.7337484924645139
 30
0.0
 40
0.071972153640766
 50
90.3232768382712834
 51
180.5750040707789026
  0
LINE
  5
34427
  8
0
 10
3001.9720095102970845
 20
180.7330262773211018
 30
0.0
 11
3001.9719783512969116
 21
178.342567123021098
 31
0.0
  0
LINE
  5
34428
  8
0
 10
3001.9871332539969444
 20
178.3425575983210933
 30
0.0
 11
3001.9871028455968371
 21
180.7330262126218088
 31
0.0
  0
LINE
  5
34429
  8
0
 10
3009.1863268798970239
 20
180.7330262773199934
 30
0.0
 11
3009.1862957213970731
 21
178.342567123021098
 31
0.0
  0
LINE
  5
3442A
  8
0
 10
3009.201445673536
 20
178.3417148308226956
 30
0.0
 11
3009.2014202166969881
 21
180.7330262126210982
 31
0.0
  0
LINE
  5
3442B
  8
0
 10
3009.273130078090162
 20
162.9499863857456035
 30
0.0
 11
3016.0391084538368887
 21
162.9499863857456035
 31
0.0
  0
LINE
  5
3442C
  8
0
 10
2998.2953568560737949
 20
162.9212803064768877
 30
0.0
 11
2991.2384011520862259
 21
162.9212803064768877
 31
0.0
  0
ARC
  5
3442D
  8
0
 10
2991.2406072151561602
 20
162.8482047321770949
 30
0.0
 40
0.0731088659023162
 50
91.7291650084680157
 51
179.6815481915708972
  0
LINE
  5
3442E
  8
0
 10
2991.1674994784812043
 20
162.848611071542507
 30
0.0
 11
2991.16752988638018
 21
160.5203581206380079
 31
0.0
  0
ARC
  5
3442F
  8
0
 10
2991.238720245984041
 20
160.5195842983094963
 30
0.0
 40
0.0711945651116953
 50
179.3772329801512058
 51
269.8312354304330825
  0
LINE
  5
34430
  8
0
 10
2991.2385105428797942
 20
160.4483900420378859
 30
0.0
 11
2998.2956959151802039
 21
160.4483920807379036
 31
0.0
  0
ARC
  5
34431
  8
0
 10
2998.2926588709528914
 20
160.5223909622251881
 30
0.0
 40
0.0740611265432911
 50
272.3506929296916041
 51
358.4345101257728174
  0
LINE
  5
34432
  8
0
 10
2998.366692354280076
 20
160.5203676453378989
 30
0.0
 11
2998.3667235137800162
 21
162.8486111362425106
 31
0.0
  0
ARC
  5
34433
  8
0
 10
2998.2950775113999953
 20
162.8496276159607135
 30
0.0
 40
0.0716532350397269
 50
359.1859089007385819
 51
89.7766282095040964
  0
ARC
  5
34434
  8
0
 10
2991.0429637491020003
 20
160.5223909622251881
 30
0.0
 40
0.0740611265432911
 50
272.3506929296916041
 51
358.4345101257728174
  0
LINE
  5
34435
  8
0
 10
2991.1169972324310038
 20
160.5203676453378989
 30
0.0
 11
2991.1170283919309441
 21
162.8486111362425106
 31
0.0
  0
ARC
  5
34436
  8
0
 10
2991.0453823895500136
 20
162.8496276159607135
 30
0.0
 40
0.0716532350397269
 50
359.1859089007385819
 51
89.7766282095040964
  0
LINE
  5
34437
  8
0
 10
2991.0456617342238133
 20
162.9212803064768877
 30
0.0
 11
2987.3610618117882041
 21
162.9212803064768877
 31
0.0
  0
LINE
  5
34438
  8
0
 10
2991.0460014271211548
 20
160.4483921583355084
 30
0.0
 11
2987.3610618176621756
 21
160.4483921583355084
 31
0.0
  0
LINE
  5
34439
  8
0
 10
3005.5280054654867854
 20
162.9212803064768877
 30
0.0
 11
2998.4710497615001259
 21
162.9212803064768877
 31
0.0
  0
ARC
  5
3443A
  8
0
 10
2998.4732558245700602
 20
162.8482047321770949
 30
0.0
 40
0.0731088659023162
 50
91.7291650084680157
 51
179.6815481915708972
  0
LINE
  5
3443B
  8
0
 10
2998.4001480878941948
 20
162.848611071542507
 30
0.0
 11
2998.4001784957940799
 21
160.5203581206380079
 31
0.0
  0
ARC
  5
3443C
  8
0
 10
2998.4713688553970314
 20
160.5195842983094963
 30
0.0
 40
0.0711945651116953
 50
179.3772329801512058
 51
269.8312354304330825
  0
LINE
  5
3443D
  8
0
 10
2998.471159152294149
 20
160.4483900420378859
 30
0.0
 11
3005.5283445245941039
 21
160.4483920807379036
 31
0.0
  0
ARC
  5
3443E
  8
0
 10
3005.5253074803658819
 20
160.5223909622251881
 30
0.0
 40
0.0740611265432911
 50
272.3506929296916041
 51
358.4345101257728174
  0
LINE
  5
3443F
  8
0
 10
3005.5993409636939759
 20
160.5203676453378989
 30
0.0
 11
3005.5993721231939162
 21
162.8486111362425106
 31
0.0
  0
ARC
  5
34440
  8
0
 10
3005.5277261208138952
 20
162.8496276159607135
 30
0.0
 40
0.0716532350397269
 50
359.1859089007385819
 51
89.7766282095040964
  0
LINE
  5
34441
  8
0
 10
3012.7971840702589361
 20
162.9212803064768877
 30
0.0
 11
3005.7402283662709124
 21
162.9212803064768877
 31
0.0
  0
ARC
  5
34442
  8
0
 10
3005.7424344293408467
 20
162.8482047321770949
 30
0.0
 40
0.0731088659023162
 50
91.7291650084680157
 51
179.6815481915708972
  0
LINE
  5
34443
  8
0
 10
3005.6693266926658907
 20
162.848611071542507
 30
0.0
 11
3005.6693571005657759
 21
160.5203581206380079
 31
0.0
  0
ARC
  5
34444
  8
0
 10
3005.7405474601691822
 20
160.5195842983094963
 30
0.0
 40
0.0711945651116953
 50
179.3772329801512058
 51
269.8312354304330825
  0
LINE
  5
34445
  8
0
 10
3005.7403377570658449
 20
160.4483900420378859
 30
0.0
 11
3012.7975231293657998
 21
160.4483920807379036
 31
0.0
  0
ARC
  5
34446
  8
0
 10
3012.7944860851380326
 20
160.5223909622251881
 30
0.0
 40
0.0740611265432911
 50
272.3506929296916041
 51
358.4345101257728174
  0
LINE
  5
34447
  8
0
 10
3012.8685195684661267
 20
160.5203676453378989
 30
0.0
 11
3012.8685507279651574
 21
162.8486111362425106
 31
0.0
  0
ARC
  5
34448
  8
0
 10
3012.796904725586046
 20
162.8496276159607135
 30
0.0
 40
0.0716532350397269
 50
359.1859089007385819
 51
89.7766282095040964
  0
ARC
  5
34449
  8
0
 10
3012.9681549730121333
 20
162.8482047321770949
 30
0.0
 40
0.0731088659023162
 50
91.7291650084680157
 51
179.6815481915708972
  0
LINE
  5
3444A
  8
0
 10
3012.8950472363358131
 20
162.848611071542507
 30
0.0
 11
3012.895077644236153
 21
160.5203581206380079
 31
0.0
  0
ARC
  5
3444B
  8
0
 10
3012.966268003840014
 20
160.5195842983094963
 30
0.0
 40
0.0711945651116953
 50
179.3772329801512058
 51
269.8312354304330825
  0
LINE
  5
3444C
  8
0
 10
3012.965948909942199
 20
162.9212803064768877
 30
0.0
 11
3016.0391084663301626
 21
162.9212803064768877
 31
0.0
  0
LINE
  5
3444D
  8
0
 10
3012.9660583007371315
 20
160.4483900420378859
 30
0.0
 11
3016.0391095426321044
 21
160.4483900420378859
 31
0.0
  0
LINE
  5
3444E
  8
0
 10
2998.2953568560737949
 20
157.8575686132070075
 30
0.0
 11
2991.2384011520862259
 21
157.8575686132070075
 31
0.0
  0
ARC
  5
3444F
  8
0
 10
2991.2406072151561602
 20
157.7844930389071862
 30
0.0
 40
0.0731088659023162
 50
91.7291650084680157
 51
179.6815481915708972
  0
LINE
  5
34450
  8
0
 10
2991.1674994784812043
 20
157.7848993782725984
 30
0.0
 11
2991.16752988638018
 21
155.456646427368014
 31
0.0
  0
ARC
  5
34451
  8
0
 10
2991.238720245984041
 20
155.4558726050395023
 30
0.0
 40
0.0711945651116953
 50
179.3772329801512058
 51
269.8312354304330825
  0
LINE
  5
34452
  8
0
 10
2991.2385105428797942
 20
155.3846783487680057
 30
0.0
 11
2998.2956959151802039
 21
155.3846803874679949
 31
0.0
  0
ARC
  5
34453
  8
0
 10
2998.2926588709528914
 20
155.4586792689553079
 30
0.0
 40
0.0740611265432911
 50
272.3506929296916041
 51
358.4345101257728174
  0
LINE
  5
34454
  8
0
 10
2998.366692354280076
 20
155.4566559520679903
 30
0.0
 11
2998.3667235137800162
 21
157.7848994429726019
 31
0.0
  0
ARC
  5
34455
  8
0
 10
2998.2950775113999953
 20
157.7859159226908048
 30
0.0
 40
0.0716532350397269
 50
359.1859089007385819
 51
89.7766282095040964
  0
ARC
  5
34456
  8
0
 10
2991.0429637491020003
 20
155.4586792689553079
 30
0.0
 40
0.0740611265432911
 50
272.3506929296916041
 51
358.4345101257728174
  0
LINE
  5
34457
  8
0
 10
2991.1169972324310038
 20
155.4566559520679903
 30
0.0
 11
2991.1170283919100257
 21
157.7848978669339033
 31
0.0
  0
ARC
  5
34458
  8
0
 10
2991.0453823895500136
 20
157.7859159226908048
 30
0.0
 40
0.0716532350397269
 50
359.1859089007385819
 51
89.7766282095040964
  0
LINE
  5
34459
  8
0
 10
2991.0456617342238133
 20
157.8575686132070075
 30
0.0
 11
2987.3610618117882041
 21
157.8575686132070075
 31
0.0
  0
LINE
  5
3445A
  8
0
 10
2991.0460014271211548
 20
155.3846804650655997
 30
0.0
 11
2987.3610618176621756
 21
155.3846804650655997
 31
0.0
  0
LINE
  5
3445B
  8
0
 10
3005.5280054654867854
 20
157.8575686132070075
 30
0.0
 11
2998.4710497615001259
 21
157.8575686132070075
 31
0.0
  0
ARC
  5
3445C
  8
0
 10
2998.4732558245700602
 20
157.7844930389071862
 30
0.0
 40
0.0731088659023162
 50
91.7291650084680157
 51
179.6815481915708972
  0
LINE
  5
3445D
  8
0
 10
2998.4001480878941948
 20
157.7848993782725984
 30
0.0
 11
2998.4001784957940799
 21
155.456646427368014
 31
0.0
  0
ARC
  5
3445E
  8
0
 10
2998.4713688553970314
 20
155.4558726050395023
 30
0.0
 40
0.0711945651116953
 50
179.3772329801512058
 51
269.8312354304330825
  0
LINE
  5
3445F
  8
0
 10
2998.471159152294149
 20
155.3846783487680057
 30
0.0
 11
3005.5283445245941039
 21
155.3846803874679949
 31
0.0
  0
ARC
  5
34460
  8
0
 10
3005.5253074803658819
 20
155.4586792689553079
 30
0.0
 40
0.0740611265432911
 50
272.3506929296916041
 51
358.4345101257728174
  0
LINE
  5
34461
  8
0
 10
3005.5993409636939759
 20
155.4566559520679903
 30
0.0
 11
3005.5993721231939162
 21
157.7848994429726019
 31
0.0
  0
ARC
  5
34462
  8
0
 10
3005.5277261208138952
 20
157.7859159226908048
 30
0.0
 40
0.0716532350397269
 50
359.1859089007385819
 51
89.7766282095040964
  0
LINE
  5
34463
  8
0
 10
3012.7971840702589361
 20
157.8575686132070075
 30
0.0
 11
3005.7402283662709124
 21
157.8575686132070075
 31
0.0
  0
ARC
  5
34464
  8
0
 10
3005.7424344293408467
 20
157.7844930389071862
 30
0.0
 40
0.0731088659023162
 50
91.7291650084680157
 51
179.6815481915708972
  0
LINE
  5
34465
  8
0
 10
3005.6693266926658907
 20
157.7848993782725984
 30
0.0
 11
3005.6693571005657759
 21
155.456646427368014
 31
0.0
  0
ARC
  5
34466
  8
0
 10
3005.7405474601691822
 20
155.4558726050395023
 30
0.0
 40
0.0711945651116953
 50
179.3772329801512058
 51
269.8312354304330825
  0
LINE
  5
34467
  8
0
 10
3005.7403377570658449
 20
155.3846783487680057
 30
0.0
 11
3012.7975231293657998
 21
155.3846803874679949
 31
0.0
  0
ARC
  5
34468
  8
0
 10
3012.7944860851380326
 20
155.4586792689553079
 30
0.0
 40
0.0740611265432911
 50
272.3506929296916041
 51
358.4345101257728174
  0
LINE
  5
34469
  8
0
 10
3012.8685195684661267
 20
155.4566559520679903
 30
0.0
 11
3012.8685507279651574
 21
157.7848994429726019
 31
0.0
  0
ARC
  5
3446A
  8
0
 10
3012.796904725586046
 20
157.7859159226908048
 30
0.0
 40
0.0716532350397269
 50
359.1859089007385819
 51
89.7766282095040964
  0
ARC
  5
3446B
  8
0
 10
3012.9681549730121333
 20
157.7844930389071862
 30
0.0
 40
0.0731088659023162
 50
91.7291650084680157
 51
179.6815481915708972
  0
LINE
  5
3446C
  8
0
 10
3012.8950472363358131
 20
157.7848993782725984
 30
0.0
 11
3012.895077644236153
 21
155.456646427368014
 31
0.0
  0
ARC
  5
3446D
  8
0
 10
3012.966268003840014
 20
155.4558726050395023
 30
0.0
 40
0.0711945651116953
 50
179.3772329801512058
 51
269.8312354304330825
  0
LINE
  5
3446E
  8
0
 10
3012.965948909942199
 20
157.8575686132070075
 30
0.0
 11
3016.0391084663301626
 21
157.8575686132070075
 31
0.0
  0
LINE
  5
3446F
  8
0
 10
3012.9660583007371315
 20
155.3846783487680057
 30
0.0
 11
3016.0391095426321044
 21
155.3846783487680057
 31
0.0
  0
LINE
  5
34470
  8
0
 10
2998.2953568560737949
 20
152.7614686132268957
 30
0.0
 11
2991.2384011520862259
 21
152.7614686132268957
 31
0.0
  0
ARC
  5
34471
  8
0
 10
2991.2406072151561602
 20
152.6883930389269892
 30
0.0
 40
0.0731088659023162
 50
91.7291650084680157
 51
179.6815481915708972
  0
LINE
  5
34472
  8
0
 10
2991.1674994784812043
 20
152.6887993782924866
 30
0.0
 11
2991.16752988638018
 21
150.3605464273879022
 31
0.0
  0
ARC
  5
34473
  8
0
 10
2991.238720245984041
 20
150.3597726050593906
 30
0.0
 40
0.0711945651116953
 50
179.3772329801512058
 51
269.8312354304330825
  0
LINE
  5
34474
  8
0
 10
2991.2385105428797942
 20
150.2885783487878939
 30
0.0
 11
2998.2956959151802039
 21
150.2885803874879969
 31
0.0
  0
ARC
  5
34475
  8
0
 10
2998.2926588709528914
 20
150.3625792689753098
 30
0.0
 40
0.0740611265432911
 50
272.3506929296916041
 51
358.4345101257728174
  0
LINE
  5
34476
  8
0
 10
2998.366692354280076
 20
150.3605559520879069
 30
0.0
 11
2998.3667235137800162
 21
152.6887994429924902
 31
0.0
  0
ARC
  5
34477
  8
0
 10
2998.2950775113999953
 20
152.689815922710693
 30
0.0
 40
0.0716532350397269
 50
359.1859089007385819
 51
89.7766282095040964
  0
ARC
  5
34478
  8
0
 10
2991.0429637491020003
 20
150.3625792689753098
 30
0.0
 40
0.0740611265432911
 50
272.3506929296916041
 51
358.4345101257728174
  0
LINE
  5
34479
  8
0
 10
2991.1169972324310038
 20
150.3605559520879069
 30
0.0
 11
2991.1170283919100257
 21
152.6887978669537915
 31
0.0
  0
ARC
  5
3447A
  8
0
 10
2991.0453823895500136
 20
152.689815922710693
 30
0.0
 40
0.0716532350397269
 50
359.1859089007385819
 51
89.7766282095040964
  0
LINE
  5
3447B
  8
0
 10
2991.0456617342238133
 20
152.7614686132268957
 30
0.0
 11
2987.3610618117882041
 21
152.7614686132268957
 31
0.0
  0
LINE
  5
3447C
  8
0
 10
2991.0460014271211548
 20
150.288580465085488
 30
0.0
 11
2987.3610618176621756
 21
150.288580465085488
 31
0.0
  0
LINE
  5
3447D
  8
0
 10
3005.5280054654867854
 20
152.7614686132268957
 30
0.0
 11
2998.4710497615001259
 21
152.7614686132268957
 31
0.0
  0
ARC
  5
3447E
  8
0
 10
2998.4732558245700602
 20
152.6883930389269892
 30
0.0
 40
0.0731088659023162
 50
91.7291650084680157
 51
179.6815481915708972
  0
LINE
  5
3447F
  8
0
 10
2998.4001480878941948
 20
152.6887993782924866
 30
0.0
 11
2998.4001784957940799
 21
150.3605464273879022
 31
0.0
  0
ARC
  5
34480
  8
0
 10
2998.4713688553970314
 20
150.3597726050593906
 30
0.0
 40
0.0711945651116953
 50
179.3772329801512058
 51
269.8312354304330825
  0
LINE
  5
34481
  8
0
 10
2998.471159152294149
 20
150.2885783487878939
 30
0.0
 11
3005.5283445245941039
 21
150.2885803874879969
 31
0.0
  0
ARC
  5
34482
  8
0
 10
3005.5253074803658819
 20
150.3625792689753098
 30
0.0
 40
0.0740611265432911
 50
272.3506929296916041
 51
358.4345101257728174
  0
LINE
  5
34483
  8
0
 10
3005.5993409636939759
 20
150.3605559520879069
 30
0.0
 11
3005.5993721231939162
 21
152.6887994429924902
 31
0.0
  0
ARC
  5
34484
  8
0
 10
3005.5277261208138952
 20
152.689815922710693
 30
0.0
 40
0.0716532350397269
 50
359.1859089007385819
 51
89.7766282095040964
  0
LINE
  5
34485
  8
0
 10
3012.7971840702589361
 20
152.7614686132268957
 30
0.0
 11
3005.7402283662709124
 21
152.7614686132268957
 31
0.0
  0
ARC
  5
34486
  8
0
 10
3005.7424344293408467
 20
152.6883930389269892
 30
0.0
 40
0.0731088659023162
 50
91.7291650084680157
 51
179.6815481915708972
  0
LINE
  5
34487
  8
0
 10
3005.6693266926658907
 20
152.6887993782924866
 30
0.0
 11
3005.6693571005657759
 21
150.3605464273879022
 31
0.0
  0
ARC
  5
34488
  8
0
 10
3005.7405474601691822
 20
150.3597726050593906
 30
0.0
 40
0.0711945651116953
 50
179.3772329801512058
 51
269.8312354304330825
  0
LINE
  5
34489
  8
0
 10
3005.7403377570658449
 20
150.2885783487878939
 30
0.0
 11
3012.7975231293657998
 21
150.2885803874879969
 31
0.0
  0
ARC
  5
3448A
  8
0
 10
3012.7944860851380326
 20
150.3625792689753098
 30
0.0
 40
0.0740611265432911
 50
272.3506929296916041
 51
358.4345101257728174
  0
LINE
  5
3448B
  8
0
 10
3012.8685195684661267
 20
150.3605559520879069
 30
0.0
 11
3012.8685507279651574
 21
152.6887994429924902
 31
0.0
  0
ARC
  5
3448C
  8
0
 10
3012.796904725586046
 20
152.689815922710693
 30
0.0
 40
0.0716532350397269
 50
359.1859089007385819
 51
89.7766282095040964
  0
ARC
  5
3448D
  8
0
 10
3012.9681549730121333
 20
152.6883930389269892
 30
0.0
 40
0.0731088659023162
 50
91.7291650084680157
 51
179.6815481915708972
  0
LINE
  5
3448E
  8
0
 10
3012.8950472363358131
 20
152.6887993782924866
 30
0.0
 11
3012.895077644236153
 21
150.3605464273879022
 31
0.0
  0
ARC
  5
3448F
  8
0
 10
3012.966268003840014
 20
150.3597726050593906
 30
0.0
 40
0.0711945651116953
 50
179.3772329801512058
 51
269.8312354304330825
  0
LINE
  5
34490
  8
0
 10
3012.965948909942199
 20
152.7614686132268957
 30
0.0
 11
3016.0391084663301626
 21
152.7614686132268957
 31
0.0
  0
LINE
  5
34491
  8
0
 10
3012.9660583007371315
 20
150.2885783487878939
 30
0.0
 11
3016.0391095426321044
 21
150.2885783487878939
 31
0.0
  0
LINE
  5
34492
  8
0
 10
2998.2953568560737949
 20
147.6653686132268888
 30
0.0
 11
2991.2384011520862259
 21
147.6653686132268888
 31
0.0
  0
ARC
  5
34493
  8
0
 10
2991.2406072151561602
 20
147.5922930389270959
 30
0.0
 40
0.0731088659023162
 50
91.7291650084680157
 51
179.6815481915708972
  0
LINE
  5
34494
  8
0
 10
2991.1674994784812043
 20
147.5926993782925081
 30
0.0
 11
2991.16752988638018
 21
145.2644464273878953
 31
0.0
  0
ARC
  5
34495
  8
0
 10
2991.238720245984041
 20
145.263672605059412
 30
0.0
 40
0.0711945651116953
 50
179.3772329801512058
 51
269.8312354304330825
  0
LINE
  5
34496
  8
0
 10
2991.2385105428797942
 20
145.1924783487878869
 30
0.0
 11
2998.2956959151802039
 21
145.1924803874879046
 31
0.0
  0
ARC
  5
34497
  8
0
 10
2998.2926588709528914
 20
145.2664792689751891
 30
0.0
 40
0.0740611265432911
 50
272.3506929296916041
 51
358.4345101257728174
  0
LINE
  5
34498
  8
0
 10
2998.366692354280076
 20
145.2644559520879
 30
0.0
 11
2998.3667235137800162
 21
147.5926994429925116
 31
0.0
  0
ARC
  5
34499
  8
0
 10
2998.2950775113999953
 20
147.5937159227106861
 30
0.0
 40
0.0716532350397269
 50
359.1859089007385819
 51
89.7766282095040964
  0
ARC
  5
3449A
  8
0
 10
2991.0429637491020003
 20
145.2664792689751891
 30
0.0
 40
0.0740611265432911
 50
272.3506929296916041
 51
358.4345101257728174
  0
LINE
  5
3449B
  8
0
 10
2991.1169972324310038
 20
145.2644559520879
 30
0.0
 11
2991.1170283919309441
 21
147.5926994429925116
 31
0.0
  0
ARC
  5
3449C
  8
0
 10
2991.0476540085528541
 20
147.5959468475593894
 30
0.0
 40
0.0694503470502192
 50
357.3199494160750191
 51
91.6438301165026985
  0
LINE
  5
3449D
  8
0
 10
2991.0456617342238133
 20
147.6653686132268888
 30
0.0
 11
2987.3610618117882041
 21
147.6653686132268888
 31
0.0
  0
LINE
  5
3449E
  8
0
 10
2991.0460014271211548
 20
145.1924804650855094
 30
0.0
 11
2987.3610618176621756
 21
145.1924804650855094
 31
0.0
  0
LINE
  5
3449F
  8
0
 10
3005.5280054654867854
 20
147.6653686132268888
 30
0.0
 11
2998.4710497615001259
 21
147.6653686132268888
 31
0.0
  0
ARC
  5
344A0
  8
0
 10
2998.4732558245700602
 20
147.5922930389270959
 30
0.0
 40
0.0731088659023162
 50
91.7291650084680157
 51
179.6815481915708972
  0
LINE
  5
344A1
  8
0
 10
2998.4001480878941948
 20
147.5926993782925081
 30
0.0
 11
2998.4001784957940799
 21
145.2644464273878953
 31
0.0
  0
ARC
  5
344A2
  8
0
 10
2998.4713688553970314
 20
145.263672605059412
 30
0.0
 40
0.0711945651116953
 50
179.3772329801512058
 51
269.8312354304330825
  0
LINE
  5
344A3
  8
0
 10
2998.471159152294149
 20
145.1924783487878869
 30
0.0
 11
3002.4764290326761511
 21
145.1924795058417885
 31
0.0
  0
LINE
  5
344A4
  8
0
 10
3002.6222544504530561
 20
145.1924795479683041
 30
0.0
 11
3002.6946089357052188
 21
145.1924795688703114
 31
0.0
  0
LINE
  5
344A5
  8
0
 10
3002.8404342692028877
 20
145.1924796109967133
 30
0.0
 11
3005.5283445245941039
 21
145.1924803874879046
 31
0.0
  0
ARC
  5
344A6
  8
0
 10
3005.5253074803658819
 20
145.2664792689751891
 30
0.0
 40
0.0740611265432911
 50
272.3506929296916041
 51
358.4345101257728174
  0
LINE
  5
344A7
  8
0
 10
3005.5993409636939759
 20
145.2644559520879
 30
0.0
 11
3005.5993721231939162
 21
147.5926994429925116
 31
0.0
  0
ARC
  5
344A8
  8
0
 10
3005.5277261208138952
 20
147.5937159227106861
 30
0.0
 40
0.0716532350397269
 50
359.1859089007385819
 51
89.7766282095040964
  0
LINE
  5
344A9
  8
0
 10
3012.7971840702589361
 20
147.6653686132268888
 30
0.0
 11
3005.7402283662709124
 21
147.6653686132268888
 31
0.0
  0
ARC
  5
344AA
  8
0
 10
3005.7424344293408467
 20
147.5922930389270959
 30
0.0
 40
0.0731088659023162
 50
91.7291650084680157
 51
179.6815481915708972
  0
LINE
  5
344AB
  8
0
 10
3005.6693266926658907
 20
147.5926993782925081
 30
0.0
 11
3005.6693571005657759
 21
145.2644464273878953
 31
0.0
  0
ARC
  5
344AC
  8
0
 10
3005.7405474601691822
 20
145.263672605059412
 30
0.0
 40
0.0711945651116953
 50
179.3772329801512058
 51
269.8312354304330825
  0
LINE
  5
344AD
  8
0
 10
3005.7403377570658449
 20
145.1924783487878869
 30
0.0
 11
3012.7975231293657998
 21
145.1924803874879046
 31
0.0
  0
ARC
  5
344AE
  8
0
 10
3012.7944860851380326
 20
145.2664792689751891
 30
0.0
 40
0.0740611265432911
 50
272.3506929296916041
 51
358.4345101257728174
  0
LINE
  5
344AF
  8
0
 10
3012.8685195684661267
 20
145.2644559520879
 30
0.0
 11
3012.8685507279651574
 21
147.5926994429925116
 31
0.0
  0
ARC
  5
344B0
  8
0
 10
3012.796904725586046
 20
147.5937159227106861
 30
0.0
 40
0.0716532350397269
 50
359.1859089007385819
 51
89.7766282095040964
  0
ARC
  5
344B1
  8
0
 10
3012.9681549730121333
 20
147.5922930389270959
 30
0.0
 40
0.0731088659023162
 50
91.7291650084680157
 51
179.6815481915708972
  0
LINE
  5
344B2
  8
0
 10
3012.8950472363358131
 20
147.5926993782925081
 30
0.0
 11
3012.895077644236153
 21
145.2644464273878953
 31
0.0
  0
ARC
  5
344B3
  8
0
 10
3012.966268003840014
 20
145.263672605059412
 30
0.0
 40
0.0711945651116953
 50
179.3772329801512058
 51
269.8312354304330825
  0
LINE
  5
344B4
  8
0
 10
3012.965948909942199
 20
147.6653686132268888
 30
0.0
 11
3016.0391084663301626
 21
147.6653686132268888
 31
0.0
  0
LINE
  5
344B5
  8
0
 10
3012.9660583007371315
 20
145.1924783487878869
 30
0.0
 11
3016.0391095426321044
 21
145.1924783487878869
 31
0.0
  0
LINE
  5
344B6
  8
0
 10
2998.2953568560737949
 20
142.5692686132269102
 30
0.0
 11
2991.2384011520862259
 21
142.5692686132269102
 31
0.0
  0
ARC
  5
344B7
  8
0
 10
2991.2406072151561602
 20
142.496193038927089
 30
0.0
 40
0.0731088659023162
 50
91.7291650084680157
 51
179.6815481915708972
  0
LINE
  5
344B8
  8
0
 10
2991.1674994784812043
 20
142.4965993782925011
 30
0.0
 11
2991.16752988638018
 21
140.168346427388002
 31
0.0
  0
ARC
  5
344B9
  8
0
 10
2991.238720245984041
 20
140.1675726050594051
 30
0.0
 40
0.0711945651116953
 50
179.3772329801512058
 51
269.8312354304330825
  0
LINE
  5
344BA
  8
0
 10
2991.2385105428797942
 20
140.0963783487879084
 30
0.0
 11
2998.2956959151802039
 21
140.0963803874878977
 31
0.0
  0
ARC
  5
344BB
  8
0
 10
2998.2926588709528914
 20
140.1703792689752106
 30
0.0
 40
0.0740611265432911
 50
272.3506929296916041
 51
358.4345101257728174
  0
LINE
  5
344BC
  8
0
 10
2998.366692354280076
 20
140.168355952087893
 30
0.0
 11
2998.3667235137800162
 21
142.4965994429925047
 31
0.0
  0
ARC
  5
344BD
  8
0
 10
2998.2950775113999953
 20
142.4976159227107075
 30
0.0
 40
0.0716532350397269
 50
359.1859089007385819
 51
89.7766282095040964
  0
ARC
  5
344BE
  8
0
 10
2991.0429637491020003
 20
140.1703792689752106
 30
0.0
 40
0.0740611265432911
 50
272.3506929296916041
 51
358.4345101257728174
  0
LINE
  5
344BF
  8
0
 10
2991.1169972324310038
 20
140.168355952087893
 30
0.0
 11
2991.1170283919309441
 21
142.4965994429925047
 31
0.0
  0
ARC
  5
344C0
  8
0
 10
2991.0453823895500136
 20
142.4976159227107075
 30
0.0
 40
0.0716532350397269
 50
359.1859089007385819
 51
89.7766282095040964
  0
LINE
  5
344C1
  8
0
 10
2991.0456617342238133
 20
142.5692686132269102
 30
0.0
 11
2987.3610618117882041
 21
142.5692686132269102
 31
0.0
  0
LINE
  5
344C2
  8
0
 10
2991.0460014271211548
 20
140.0963804650855025
 30
0.0
 11
2987.3610618176621756
 21
140.0963804650855025
 31
0.0
  0
LINE
  5
344C3
  8
0
 10
3005.5280054654867854
 20
142.5692686132269102
 30
0.0
 11
2998.4710497615001259
 21
142.5692686132269102
 31
0.0
  0
ARC
  5
344C4
  8
0
 10
2998.4732558245700602
 20
142.496193038927089
 30
0.0
 40
0.0731088659023162
 50
91.7291650084680157
 51
179.6815481915708972
  0
LINE
  5
344C5
  8
0
 10
2998.4001480878941948
 20
142.4965993782925011
 30
0.0
 11
2998.4001784957940799
 21
140.168346427388002
 31
0.0
  0
ARC
  5
344C6
  8
0
 10
2998.4713688553970314
 20
140.1675726050594051
 30
0.0
 40
0.0711945651116953
 50
179.3772329801512058
 51
269.8312354304330825
  0
LINE
  5
344C7
  8
0
 10
2998.471159152294149
 20
140.0963783487879084
 30
0.0
 11
3005.5283445245941039
 21
140.0963803874878977
 31
0.0
  0
ARC
  5
344C8
  8
0
 10
3005.5253074803658819
 20
140.1703792689752106
 30
0.0
 40
0.0740611265432911
 50
272.3506929296916041
 51
358.4345101257728174
  0
LINE
  5
344C9
  8
0
 10
3005.5993409636939759
 20
140.168355952087893
 30
0.0
 11
3005.5993721231939162
 21
142.4965994429925047
 31
0.0
  0
ARC
  5
344CA
  8
0
 10
3005.5277261208138952
 20
142.4976159227107075
 30
0.0
 40
0.0716532350397269
 50
359.1859089007385819
 51
89.7766282095040964
  0
LINE
  5
344CB
  8
0
 10
3012.7971840702589361
 20
142.5692686132269102
 30
0.0
 11
3005.7402283662709124
 21
142.5692686132269102
 31
0.0
  0
ARC
  5
344CC
  8
0
 10
3005.7424344293408467
 20
142.496193038927089
 30
0.0
 40
0.0731088659023162
 50
91.7291650084680157
 51
179.6815481915708972
  0
LINE
  5
344CD
  8
0
 10
3005.6693266926658907
 20
142.4965993782925011
 30
0.0
 11
3005.6693571005657759
 21
140.168346427388002
 31
0.0
  0
ARC
  5
344CE
  8
0
 10
3005.7405474601691822
 20
140.1675726050594051
 30
0.0
 40
0.0711945651116953
 50
179.3772329801512058
 51
269.8312354304330825
  0
LINE
  5
344CF
  8
0
 10
3005.7403377570658449
 20
140.0963783487879084
 30
0.0
 11
3012.7975231293657998
 21
140.0963803874878977
 31
0.0
  0
ARC
  5
344D0
  8
0
 10
3012.7944860851380326
 20
140.1703792689752106
 30
0.0
 40
0.0740611265432911
 50
272.3506929296916041
 51
358.4345101257728174
  0
LINE
  5
344D1
  8
0
 10
3012.8685195684661267
 20
140.168355952087893
 30
0.0
 11
3012.8685507279651574
 21
142.4965994429925047
 31
0.0
  0
ARC
  5
344D2
  8
0
 10
3012.796904725586046
 20
142.4976159227107075
 30
0.0
 40
0.0716532350397269
 50
359.1859089007385819
 51
89.7766282095040964
  0
ARC
  5
344D3
  8
0
 10
3012.9681549730121333
 20
142.496193038927089
 30
0.0
 40
0.0731088659023162
 50
91.7291650084680157
 51
179.6815481915708972
  0
LINE
  5
344D4
  8
0
 10
3012.8950472363358131
 20
142.4965993782925011
 30
0.0
 11
3012.895077644236153
 21
140.168346427388002
 31
0.0
  0
ARC
  5
344D5
  8
0
 10
3012.966268003840014
 20
140.1675726050594051
 30
0.0
 40
0.0711945651116953
 50
179.3772329801512058
 51
269.8312354304330825
  0
LINE
  5
344D6
  8
0
 10
3012.965948909942199
 20
142.5692686132269102
 30
0.0
 11
3016.0391084663301626
 21
142.5692686132269102
 31
0.0
  0
LINE
  5
344D7
  8
0
 10
3012.9660583007371315
 20
140.0963783487879084
 30
0.0
 11
3016.0391095426321044
 21
140.0963783487879084
 31
0.0
  0
LINE
  5
344D8
  8
0
 10
2998.2953546436078796
 20
168.0045978121563053
 30
0.0
 11
2991.2383989396212201
 21
168.0045978121563053
 31
0.0
  0
ARC
  5
344D9
  8
0
 10
2991.2406050026911544
 20
167.9315222378565124
 30
0.0
 40
0.0731088659023162
 50
91.7291650084680157
 51
179.6815481915708972
  0
LINE
  5
344DA
  8
0
 10
2991.1674972660161984
 20
167.9319285772220098
 30
0.0
 11
2991.1675276739160836
 21
165.603675626317397
 31
0.0
  0
ARC
  5
344DB
  8
0
 10
2991.2387180335181256
 20
165.6029018039889138
 30
0.0
 40
0.0711945651116953
 50
179.3772329801512058
 51
269.8312354304330825
  0
LINE
  5
344DC
  8
0
 10
2991.2385083304147884
 20
165.5317075477173887
 30
0.0
 11
2998.295693702715198
 21
165.5317095864174064
 31
0.0
  0
ARC
  5
344DD
  8
0
 10
2998.2926566584878856
 20
165.6057084679046909
 30
0.0
 40
0.0740611265432911
 50
272.3506929296916041
 51
358.4345101257728174
  0
LINE
  5
344DE
  8
0
 10
2998.3666901418150701
 20
165.6036851510174017
 30
0.0
 11
2998.3667213013150104
 21
167.9319286419220134
 31
0.0
  0
ARC
  5
344DF
  8
0
 10
2998.2950752989349894
 20
167.9329451216401026
 30
0.0
 40
0.0716532350397269
 50
359.1859089007385819
 51
89.7766282095040964
  0
ARC
  5
344E0
  8
0
 10
2991.0429615366379039
 20
165.6057084679046909
 30
0.0
 40
0.0740611265432911
 50
272.3506929296916041
 51
358.4345101257728174
  0
LINE
  5
344E1
  8
0
 10
2991.1169950199650884
 20
165.6036851510174017
 30
0.0
 11
2991.1170261794650287
 21
167.9319286419220134
 31
0.0
  0
ARC
  5
344E2
  8
0
 10
2991.0453801770850077
 20
167.9329451216401026
 30
0.0
 40
0.0716532350397269
 50
359.1859089007385819
 51
89.7766282095040964
  0
LINE
  5
344E3
  8
0
 10
2991.0456595217588074
 20
168.0045978121563053
 30
0.0
 11
2987.3610595993231982
 21
168.0045978121563053
 31
0.0
  0
LINE
  5
344E4
  8
0
 10
2991.0459992146570585
 20
165.5317096640148975
 30
0.0
 11
2987.3610596051971697
 21
165.5317096640148975
 31
0.0
  0
LINE
  5
344E5
  8
0
 10
3005.5280032530217795
 20
168.0045978121563053
 30
0.0
 11
2998.4710475490342105
 21
168.0045978121563053
 31
0.0
  0
ARC
  5
344E6
  8
0
 10
2998.4732536121050543
 20
167.9315222378565124
 30
0.0
 40
0.0731088659023162
 50
91.7291650084680157
 51
179.6815481915708972
  0
LINE
  5
344E7
  8
0
 10
2998.4001458754291889
 20
167.9319285772220098
 30
0.0
 11
2998.4001762833290741
 21
165.603675626317397
 31
0.0
  0
ARC
  5
344E8
  8
0
 10
2998.4713666429320256
 20
165.6029018039889138
 30
0.0
 40
0.0711945651116953
 50
179.3772329801512058
 51
269.8312354304330825
  0
LINE
  5
344E9
  8
0
 10
2998.4711569398277788
 20
165.5317075477173887
 30
0.0
 11
3005.528342312129098
 21
165.5317095864174064
 31
0.0
  0
ARC
  5
344EA
  8
0
 10
3005.5253052679008761
 20
165.6057084679046909
 30
0.0
 40
0.0740611265432911
 50
272.3506929296916041
 51
358.4345101257728174
  0
LINE
  5
344EB
  8
0
 10
3005.5993387512289701
 20
165.6036851510174017
 30
0.0
 11
3005.5993699107289103
 21
167.9319286419220134
 31
0.0
  0
ARC
  5
344EC
  8
0
 10
3005.5277239083488894
 20
167.9329451216401026
 30
0.0
 40
0.0716532350397269
 50
359.1859089007385819
 51
89.7766282095040964
  0
LINE
  5
344ED
  8
0
 10
3012.7971818577939302
 20
168.0045978121563053
 30
0.0
 11
3005.740226153806816
 21
168.0045978121563053
 31
0.0
  0
ARC
  5
344EE
  8
0
 10
3005.7424322168772051
 20
167.9315222378565124
 30
0.0
 40
0.0731088659023162
 50
91.7291650084680157
 51
179.6815481915708972
  0
LINE
  5
344EF
  8
0
 10
3005.6693244802008849
 20
167.9319285772220098
 30
0.0
 11
3005.6693548881012248
 21
165.603675626317397
 31
0.0
  0
ARC
  5
344F0
  8
0
 10
3005.7405452477041763
 20
165.6029018039889138
 30
0.0
 40
0.0711945651116953
 50
179.3772329801512058
 51
269.8312354304330825
  0
LINE
  5
344F1
  8
0
 10
3005.7403355446008391
 20
165.5317075477173887
 30
0.0
 11
3012.797520916900794
 21
165.5317095864174064
 31
0.0
  0
ARC
  5
344F2
  8
0
 10
3012.7944838726730268
 20
165.6057084679046909
 30
0.0
 40
0.0740611265432911
 50
272.3506929296916041
 51
358.4345101257728174
  0
LINE
  5
344F3
  8
0
 10
3012.8685173560011208
 20
165.6036851510174017
 30
0.0
 11
3012.868548515501061
 21
167.9319286419220134
 31
0.0
  0
ARC
  5
344F4
  8
0
 10
3012.7969025131210401
 20
167.9329451216401026
 30
0.0
 40
0.0716532350397269
 50
359.1859089007385819
 51
89.7766282095040964
  0
ARC
  5
344F5
  8
0
 10
3012.9681527605471274
 20
167.9315222378565124
 30
0.0
 40
0.0731088659023162
 50
91.7291650084680157
 51
179.6815481915708972
  0
LINE
  5
344F6
  8
0
 10
3012.8950450238708072
 20
167.9319285772220098
 30
0.0
 11
3012.8950754317711471
 21
165.603675626317397
 31
0.0
  0
ARC
  5
344F7
  8
0
 10
3012.9662657913740986
 20
165.6029018039889138
 30
0.0
 40
0.0711945651116953
 50
179.3772329801512058
 51
269.8312354304330825
  0
LINE
  5
344F8
  8
0
 10
3012.9659466974771931
 20
168.0045978121563053
 30
0.0
 11
3016.0391062538651568
 21
168.0045978121563053
 31
0.0
  0
LINE
  5
344F9
  8
0
 10
3012.9660560882712161
 20
165.5317075477173887
 30
0.0
 11
3016.0391073301670986
 21
165.5317075477173887
 31
0.0
  0
ARC
  5
344FA
  8
0
 10
2987.641264825745111
 20
168.9315664335368865
 30
0.0
 40
0.2165026420878382
 50
166.8099048369103059
 51
193.7561033305962894
  0
LINE
  5
344FB
  8
0
 10
2987.4310803586968177
 20
168.9817359107211132
 30
0.0
 11
3012.3915298814968082
 21
168.9817358783211034
 31
0.0
  0
LINE
  5
344FC
  8
0
 10
2987.4308413753251443
 20
168.8800844085210997
 30
0.0
 11
3012.4025674999679723
 21
168.8800844085210997
 31
0.0
  0
ARC
  5
344FD
  8
0
 10
3012.3777149583711434
 20
168.9288108293449113
 30
0.0
 40
0.0546983812383365
 50
297.0235103642140757
 51
75.3706236067763626
  0
LINE
  5
344FE
  8
0
 10
2987.5591875371001152
 20
168.8800844085210997
 30
0.0
 11
2987.5591973185978532
 21
168.1111274971347029
 31
0.0
  0
ARC
  5
344FF
  8
0
 10
2987.6303876782008047
 20
168.110353674806106
 30
0.0
 40
0.0711945651116953
 50
179.3772329801512058
 51
269.8312354304330825
  0
ARC
  5
34500
  8
0
 10
2994.6843263031701099
 20
168.1131603387219116
 30
0.0
 40
0.0740611265432911
 50
272.3506929296916041
 51
358.4345101257728174
  0
LINE
  5
34501
  8
0
 10
2994.7583597864982039
 20
168.1111370218347076
 30
0.0
 11
2994.7583698096827902
 21
168.8800844085210997
 31
0.0
  0
ARC
  5
34502
  8
0
 10
3135.9792920565541863
 20
169.3078299789301013
 30
0.0
 40
141.2108537857502029
 50
180.1735564421030062
 51
180.4857547164687048
  0
ARC
  5
34503
  8
0
 10
2994.8456304103560797
 20
168.1112674229453887
 30
0.0
 40
0.072119869033253
 50
180.4857547164669995
 51
269.1164670166377846
  0
LINE
  5
34504
  8
0
 10
3001.9726886814501086
 20
168.8800844085210997
 30
0.0
 11
3001.9726793640970754
 21
168.1106378046123098
 31
0.0
  0
ARC
  5
34505
  8
0
 10
3001.9008983376238575
 20
168.110938851108898
 30
0.0
 40
0.0717816577576463
 50
270.6245046766705968
 51
359.7597054066814053
  0
LINE
  5
34506
  8
0
 10
3001.9878222786392143
 20
168.8800844085210997
 30
0.0
 11
3001.9878320602979329
 21
168.1111274971347029
 31
0.0
  0
ARC
  5
34507
  8
0
 10
3002.059024189018146
 20
168.1103522288379963
 30
0.0
 40
0.0711963498546581
 50
179.3760848785564121
 51
269.8483089367377943
  0
ARC
  5
34508
  8
0
 10
3009.1162789667650941
 20
168.1098875781428035
 30
0.0
 40
0.0707265985204684
 50
269.7729728566188214
 51
1.0122298519224739
  0
LINE
  5
34509
  8
0
 10
3009.1869945281978289
 20
168.1111370218347076
 30
0.0
 11
3009.1870045509008378
 21
168.8800844085210997
 31
0.0
  0
LINE
  5
3450A
  8
0
 10
3009.2021396491281848
 20
168.8800844085210997
 30
0.0
 11
3009.2021494304967746
 21
168.1111274971347029
 31
0.0
  0
ARC
  5
3450B
  8
0
 10
3009.2734898119801983
 20
168.1104984403837932
 30
0.0
 40
0.0713431544399442
 50
179.4947971642727964
 51
269.7110960234135177
  0
LINE
  5
3450C
  8
0
 10
3009.1159987224650649
 20
168.0391615348389962
 30
0.0
 11
3002.0588356962957732
 21
168.0391561285015882
 31
0.0
  0
LINE
  5
3450D
  8
0
 10
3001.9016807179978059
 20
168.0391614572345986
 30
0.0
 11
2994.8445183256922064
 21
168.0391561285659066
 31
0.0
  0
LINE
  5
3450E
  8
0
 10
2994.6873639811888097
 20
168.0391615348322034
 30
0.0
 11
2987.6301779750979222
 21
168.0391594185346094
 31
0.0
  0
LINE
  5
3450F
  8
0
 10
3009.273130078090162
 20
168.0391561928935005
 30
0.0
 11
3016.0391062388239334
 21
168.0391561928935005
 31
0.0
  0
LINE
  5
34510
  8
0
 10
3011.55163197239699
 20
173.1616327604210994
 30
0.0
 11
3012.72244627725604
 21
173.1609019752831102
 31
0.0
  0
ARC
  5
34511
  8
0
 10
3012.7224019052541735
 20
173.0898121684600142
 30
0.0
 40
0.0710898206709644
 50
359.2456843898215197
 51
89.964237797112574
  0
LINE
  5
34512
  8
0
 10
3012.7934855651969883
 20
173.0888762773199971
 30
0.0
 11
3012.7934545335178882
 21
170.6986028104946058
 31
0.0
  0
ARC
  5
34513
  8
0
 10
3012.7227370705381873
 20
170.6971730036634085
 30
0.0
 40
0.0707319158365232
 50
269.7744279493808222
 51
1.158281607535153
  0
LINE
  5
34514
  8
0
 10
3012.7224586014740453
 20
170.6264416359904033
 30
0.0
 11
3011.55163197239699
 21
170.6251267594250862
 31
0.0
  0
ARC
  5
34515
  8
0
 10
3012.8802212774680811
 20
170.6980463904343139
 30
0.0
 40
0.071612878524713
 50
179.7110048413395873
 51
269.4948833328977003
  0
LINE
  5
34516
  8
0
 10
3012.8086093098968377
 20
170.6984075983210971
 30
0.0
 11
3012.8085789019969525
 21
173.088876212621102
 31
0.0
  0
ARC
  5
34517
  8
0
 10
3012.8811294796128095
 20
173.0883676947543961
 30
0.0
 40
0.0725523597329072
 50
91.1879792244930485
 51
179.5984118747539071
  0
LINE
  5
34518
  8
0
 10
3012.8796252759648269
 20
173.1609044597373952
 30
0.0
 11
3016.0390887262969954
 21
173.1609044597373952
 31
0.0
  0
LINE
  5
34519
  8
0
 10
3016.0378085815968916
 20
170.6256863215211013
 30
0.0
 11
3012.8796129459888107
 21
170.6264362296836907
 31
0.0
  0
LINE
  5
3451A
  8
0
 10
3016.0378085815968916
 20
170.6133959792211101
 30
0.0
 11
3011.55163197239699
 21
170.6133959792211101
 31
0.0
  0
ARC
  5
3451B
  8
0
 10
3021.9170242870391121
 20
203.730690940036709
 30
0.0
 40
1.775977760094086
 50
179.7793848234375957
 51
180.8003438638646969
  0
LINE
  5
3451C
  8
0
 10
3020.1412197909858151
 20
203.7058837606803081
 30
0.0
 11
3020.1416276345689766
 21
202.1333015899720067
 31
0.0
  0
ARC
  5
3451D
  8
0
 10
3022.2491860696991353
 20
198.5741069557307128
 30
0.0
 40
2.1080082514653329
 50
179.050490800920187
 51
180.337276664394011
  0
LINE
  5
3451E
  8
0
 10
3020.1412143413967897
 20
198.5616980507211053
 30
0.0
 11
3020.1412200506961199
 21
196.1074438475199031
 31
0.0
  0
ARC
  5
3451F
  8
0
 10
3023.1084238213238677
 20
196.0621685070289004
 30
0.0
 40
2.9675491694126692
 50
179.1258151335335924
 51
180.8741848664662939
  0
LINE
  5
34520
  8
0
 10
3020.1412200506961199
 20
196.0168931665378977
 30
0.0
 11
3020.1412132783971174
 21
193.5601054414210864
 31
0.0
  0
ARC
  5
34521
  8
0
 10
5325.1028251994648599
 20
192.9411381524230933
 30
0.0
 40
2304.9616950288500448
 50
179.9846139682840089
 51
180.0473872438803085
  0
ARC
  5
34522
  8
0
 10
3020.3176082584159303
 20
191.8524746569484023
 30
0.0
 40
0.2471061573162494
 50
224.5383478348379924
 51
253.4956527821412919
  0
ARC
  5
34523
  8
0
 10
3020.1469281797658368
 20
191.2764288687048975
 30
0.0
 40
0.3536936757404855
 50
54.6073162763564284
 51
73.4956527821413772
  0
ARC
  5
34524
  8
0
 10
3020.1776409673989292
 20
191.3196576484922957
 30
0.0
 40
0.3006653557027614
 50
18.6747553962511113
 51
54.6073162763564284
  0
ARC
  5
34525
  8
0
 10
3020.2632921610847916
 20
191.3562625238330952
 30
0.0
 40
0.2079293749785173
 50
359.7834307860408103
 51
16.6758819122838702
  0
LINE
  5
34526
  8
0
 10
3020.4712200506969566
 20
191.355476584720094
 30
0.0
 11
3020.4710823171972152
 21
189.7684923500210914
 31
0.0
  0
ARC
  5
34527
  8
0
 10
3020.1880807653969896
 20
189.7835748491571053
 30
0.0
 40
0.2834031758844022
 50
332.405399659144507
 51
356.9493214408565223
  0
ARC
  5
34528
  8
0
 10
3020.1977993549089661
 20
189.7953194804040891
 30
0.0
 40
0.2806267573322071
 50
302.0430064637193937
 51
329.359693769588489
  0
ARC
  5
34529
  8
0
 10
3020.062028031967202
 20
190.0122365412387921
 30
0.0
 40
0.5365307694438605
 50
290.1218540960309724
 51
302.0430064637193937
  0
ARC
  5
3452A
  8
0
 10
3020.5043144714118171
 20
188.8050589771987973
 30
0.0
 40
0.7491188584248623
 50
110.1218540960310008
 51
115.4990374473344019
  0
ARC
  5
3452B
  8
0
 10
3020.3059016071811129
 20
189.2655896188319105
 30
0.0
 40
0.248771170928662
 50
119.918699989208605
 51
128.8805903756966984
  0
ARC
  5
3452C
  8
0
 10
3020.2580108611850847
 20
189.3260761741647116
 30
0.0
 40
0.1716254405463853
 50
129.1097878147591018
 51
142.556108177792396
  0
ARC
  5
3452D
  8
0
 10
3020.1966726176760858
 20
189.363821046977904
 30
0.0
 40
0.1002457014709741
 50
138.3656430748987987
 51
174.3119089709531124
  0
ARC
  5
3452E
  8
0
 10
3021.3206018788710026
 20
188.3796861324466931
 30
0.0
 40
1.179431546271396
 50
178.1904555018797964
 51
180.4949232036092042
  0
LINE
  5
3452F
  8
0
 10
3020.1412143343968637
 20
188.3694982829211142
 30
0.0
 11
3020.1419185065560669
 21
185.938688846152786
 31
0.0
  0
ARC
  5
34530
  8
0
 10
3017.0025732638428053
 20
175.3862540146743072
 30
0.0
 40
3.107645365779208
 50
336.4396243038663101
 51
359.0869408984200959
  0
ARC
  5
34531
  8
0
 10
3023.5322006364372101
 20
175.2821897976016885
 30
0.0
 40
3.4228112021956618
 50
172.3521433148623032
 51
179.0869408984200959
  0
ARC
  5
34532
  8
0
 10
3022.5153265071821806
 20
175.7670246658393864
 30
0.0
 40
2.375671076541614
 50
177.9240366810329022
 51
180.7069701825880088
  0
LINE
  5
34533
  8
0
 10
3020.141214634456901
 20
175.8530820867792954
 30
0.0
 11
3020.1412199803548901
 21
178.2390084091061055
 31
0.0
  0
ARC
  5
34534
  8
0
 10
3019.9051939998357739
 20
178.257114782617009
 30
0.0
 40
0.2367194631661627
 50
355.6132334131357879
 51
10.8573065037790002
  0
ARC
  5
34535
  8
0
 10
3021.9246963937462169
 20
178.7169679434404941
 30
0.0
 40
1.834635063053522
 50
188.2464639170217993
 51
193.0820885497682013
  0
ARC
  5
34536
  8
0
 10
3021.3053384025101877
 20
178.6292760791804142
 30
0.0
 40
1.2091050432314481
 50
180.2955977188589998
 51
188.3436224127594016
  0
LINE
  5
34537
  8
0
 10
3020.096249450535197
 20
178.6230381483910037
 30
0.0
 11
3020.0977449304641596
 21
180.4371911397502117
 31
0.0
  0
ARC
  5
34538
  8
0
 10
3021.3793492589247762
 20
180.4534545136629902
 30
0.0
 40
1.2817075142410119
 50
166.837752499444008
 51
180.7270361468806072
  0
ARC
  5
34539
  8
0
 10
3019.7397807659740465
 20
180.8368722559197863
 30
0.0
 40
0.4020959208884879
 50
346.8377524994439796
 51
3.2748718886056531
  0
LINE
  5
3453A
  8
0
 10
3020.1412200506961199
 20
180.8598424600288013
 30
0.0
 11
3020.1417584985979374
 21
183.3208293482813076
 31
0.0
  0
LINE
  5
3453B
  8
0
 10
3017.1106730298761249
 20
178.2700369309877999
 30
0.0
 11
3020.1415604998369417
 21
178.2700369309877999
 31
0.0
  0
LINE
  5
3453C
  8
0
 10
3017.1106730298761249
 20
178.2577340087385096
 30
0.0
 11
3020.1419126530940957
 21
178.2577340087385096
 31
0.0
  0
LINE
  5
3453D
  8
0
 10
3017.1106730298761249
 20
192.8234112829211142
 30
0.0
 11
3020.1411331770891593
 21
192.8234112829211142
 31
0.0
  0
LINE
  5
3453E
  8
0
 10
3017.1106730298761249
 20
192.9250627851210993
 30
0.0
 11
3020.1411302266710663
 21
192.9250627851210993
 31
0.0
  0
LINE
  5
3453F
  8
0
 10
3017.1106730298761249
 20
203.7058455392210874
 30
0.0
 11
3020.1412198008988526
 21
203.7058455392210874
 31
0.0
  0
LINE
  5
34540
  8
0
 10
3017.1106730298761249
 20
203.7432976538057972
 30
0.0
 11
3020.1412281206148691
 21
203.7432976538057972
 31
0.0
  0
LINE
  5
34541
  8
0
 10
3017.1106730298761249
 20
201.157705590706513
 30
0.0
 11
3020.1417559285591778
 21
201.157705590706513
 31
0.0
  0
LINE
  5
34542
  8
0
 10
3017.1106730298761249
 20
201.1703806252317861
 30
0.0
 11
3020.1416065883090596
 21
201.1703806252317861
 31
0.0
  0
LINE
  5
34543
  8
0
 10
3017.1106730298761249
 20
168.0045978121563053
 30
0.0
 11
3020.533631083777891
 21
168.0045978121563053
 31
0.0
  0
LINE
  5
34544
  8
0
 10
3017.1106730298761249
 20
168.0391561928935005
 30
0.0
 11
3020.5336309788058315
 21
168.0391561928935005
 31
0.0
  0
LINE
  5
34545
  8
0
 10
3017.1106730298761249
 20
170.6256863215211013
 30
0.0
 11
3020.7669680085009531
 21
170.6256863215211013
 31
0.0
  0
LINE
  5
34546
  8
0
 10
3017.1106730298761249
 20
170.6133959792211101
 30
0.0
 11
3020.7647192080348759
 21
170.6133959792211101
 31
0.0
  0
LINE
  5
34547
  8
0
 10
3019.9551538498908485
 20
142.5844176550313023
 30
0.0
 11
3019.9551538498908485
 21
141.1066927851211119
 31
0.0
  0
LINE
  5
34548
  8
0
 10
3019.9551538498908485
 20
141.0043914830795018
 30
0.0
 11
3019.9551538498908485
 21
138.1820627851211043
 31
0.0
  0
LINE
  5
34549
  8
0
 10
3019.9553394271119942
 20
147.6888062575104925
 30
0.0
 11
3019.9553138578489779
 21
145.2022771529028091
 31
0.0
  0
LINE
  5
3454A
  8
0
 10
3019.9553138578489779
 20
150.2983771529029013
 30
0.0
 11
3019.9551538498908485
 21
152.7766176550312878
 31
0.0
  0
LINE
  5
3454B
  8
0
 10
3019.9553138578489779
 20
155.3944771529029083
 30
0.0
 11
3019.9584050982889494
 21
157.8727135511570054
 31
0.0
  0
LINE
  5
3454C
  8
0
 10
3019.9552750608659153
 20
160.4905771528829064
 30
0.0
 11
3019.9583259017099408
 21
162.936425339972601
 31
0.0
  0
LINE
  5
3454D
  8
0
 10
3019.9552724629002114
 20
165.5542888461529003
 30
0.0
 11
3019.9552724629002114
 21
168.0045978121563053
 31
0.0
  0
ARC
  5
3454E
  8
0
 10
2994.69570565460117
 20
135.1559382901072013
 30
0.0
 40
0.0643582409506977
 50
2.7838443133348041
 51
87.4924647814893746
  0
ARC
  5
3454F
  8
0
 10
2782.4250007804239431
 20
-10852.5487413688097149
 30
0.0
 40
10989.8192489023895178
 50
88.8932362802782592
 51
88.9008238363232977
  0
ARC
  5
34550
  8
0
 10
3122.5022344156068357
 20
6710.8690505572913025
 30
0.0
 40
6576.8911164210494462
 50
268.8649962507851114
 51
268.8738660096094009
  0
ARC
  5
34551
  8
0
 10
2992.3078467083500982
 20
137.1084773882745935
 30
0.0
 40
1.8419812432989231
 50
247.4887896107173049
 51
267.43726692530322
  0
ARC
  5
34552
  8
0
 10
2990.1768964579741805
 20
134.4246864299580864
 30
0.0
 40
1.5079815789477331
 50
76.1809965086839611
 51
88.3766499388315339
  0
ARC
  5
34553
  8
0
 10
2990.1949592221290004
 20
134.4981196824018923
 30
0.0
 40
1.4323594524674439
 50
66.4454495688494404
 51
76.1809965086839611
  0
ARC
  5
34554
  8
0
 10
2989.0095510920359629
 20
131.7789502550245118
 30
0.0
 40
4.3986829024095311
 50
62.8061039860103918
 51
66.4454495688494404
  0
ARC
  5
34555
  8
0
 10
2989.5392472035141509
 20
132.6785697212270065
 30
0.0
 40
3.3569665622974041
 50
58.2516678092253031
 51
63.8305162255544687
  0
ARC
  5
34556
  8
0
 10
3035.8129601709269991
 20
215.7730685510192075
 30
0.0
 40
91.7569257839912353
 50
240.9838113434772993
 51
241.2757286128509975
  0
ARC
  5
34557
  8
0
 10
2985.1057227405799495
 20
119.5748419833608978
 30
0.0
 40
17.0645767206944008
 50
66.1574666633269004
 51
67.2126532871646418
  0
LINE
  5
34558
  8
0
 10
2992.0036410685420378
 20
135.183125085522704
 30
0.0
 11
2993.3079943760189963
 21
134.4552551722107978
 31
0.0
  0
ARC
  5
34559
  8
0
 10
2994.2762965582769539
 20
136.2076480037335102
 30
0.0
 40
2.0021213130420952
 50
241.0767159714503975
 51
263.3234926785314087
  0
ARC
  5
3455A
  8
0
 10
2995.0683770534510586
 20
153.4978717227762957
 30
0.0
 40
19.3059887221419508
 50
266.9570359253769993
 51
269.3699960678738989
  0
LINE
  5
3455B
  8
0
 10
2994.7599879445770057
 20
135.1590640498141056
 30
0.0
 11
2994.856329731193
 21
134.2415342665875073
 31
0.0
  0
ARC
  5
3455C
  8
0
 10
2994.8868289491688301
 20
134.2447367230134034
 30
0.0
 40
0.0306668880762564
 50
185.9941645577173119
 51
267.7548628939063065
  0
ARC
  5
3455D
  8
0
 10
2994.8867495185968437
 20
134.194115785620113
 30
0.0
 40
0.0306684324021223
 50
181.9913961331172061
 51
267.8083523288070751
  0
ARC
  5
3455E
  8
0
 10
2994.8898202566051623
 20
134.1689254026595961
 30
0.0
 40
0.0346688117722876
 50
187.9912777740298964
 51
262.7941614641421211
  0
LINE
  5
3455F
  8
0
 10
2994.8855041240872197
 20
134.1634613025206875
 30
0.0
 11
2994.8554881052118617
 21
134.1641056629997877
 31
0.0
  0
LINE
  5
34560
  8
0
 10
2994.8554881052118617
 20
134.1641056629997877
 30
0.0
 11
2994.0465155033371047
 21
134.180430472048613
 31
0.0
  0
LINE
  5
34561
  8
0
 10
2993.8545557101151644
 20
134.1843041594420072
 30
0.0
 11
2993.8537063220269374
 21
134.1843212998226136
 31
0.0
  0
LINE
  5
34562
  8
0
 10
2994.8856275735970485
 20
134.2140933759210952
 30
0.0
 11
2994.4562006919732084
 21
134.2224795151873877
 31
0.0
  0
LINE
  5
34563
  8
0
 10
2994.8561108159269679
 20
134.2439227498809942
 30
0.0
 11
2994.2254160195971053
 21
134.2557876070210909
 31
0.0
  0
ARC
  5
34564
  8
0
 10
2994.5165716347369198
 20
139.5907171274469931
 30
0.0
 40
5.3685770658908787
 50
266.886632785895813
 51
269.3556815728156835
  0
ARC
  5
34565
  8
0
 10
2994.2103599569591097
 20
135.8561493610461071
 30
0.0
 40
1.626151276705841
 50
258.8203571168504027
 51
270.5156472251067044
  0
ARC
  5
34566
  8
0
 10
2994.2479203869320372
 20
136.1921054335778081
 30
0.0
 40
1.9632185481573501
 50
240.9000396081104043
 51
259.6460017562955045
  0
LINE
  5
34567
  8
0
 10
2993.2931389333070911
 20
134.4766989384166891
 30
0.0
 11
2991.9878585012970689
 21
135.202093695021091
 31
0.0
  0
ARC
  5
34568
  8
0
 10
2989.0944745136871461
 20
130.0230230171218864
 30
0.0
 40
5.9324905383225541
 50
60.8092799759138387
 51
65.0836726407316064
  0
ARC
  5
34569
  8
0
 10
2995.519437859421032
 20
143.8540997880404007
 30
0.0
 40
9.3180451452877282
 50
241.9233599791469942
 51
245.0836726407316064
  0
ARC
  5
3456A
  8
0
 10
2991.1909233399392178
 20
134.2592225177581895
 30
0.0
 40
1.2129648088082881
 50
64.7371353779908105
 51
70.5928607601407379
  0
ARC
  5
3456B
  8
0
 10
2981.0544555098640558
 20
111.2126684091915934
 30
0.0
 40
26.3897613796143489
 50
65.8252749363933418
 51
66.1889347002578745
  0
ARC
  5
3456C
  8
0
 10
2989.5771311044882168
 20
129.8329865218123018
 30
0.0
 40
5.9141162034033661
 50
65.794881923854831
 51
67.2770742586425712
  0
LINE
  5
3456D
  8
0
 10
2992.0019454170887911
 20
135.2271542997708025
 30
0.0
 11
2993.3070844917970135
 21
134.5025662429210911
 31
0.0
  0
ARC
  5
3456E
  8
0
 10
2994.26525746221796
 20
136.236120694340002
 30
0.0
 40
1.9807338229252469
 50
241.0696236716208034
 51
268.8474471209278818
  0
ARC
  5
3456F
  8
0
 10
2994.9901101149698661
 20
135.1521729453380942
 30
0.0
 40
0.06276646206755
 50
90.0605803841621793
 51
120.9425515429326055
  0
LINE
  5
34570
  8
0
 10
2994.9578369581431616
 20
135.2060066904143127
 30
0.0
 11
2994.9579489607681353
 21
134.2415415536854084
 31
0.0
  0
ARC
  5
34571
  8
0
 10
2994.9260225029797766
 20
134.2449519941847882
 30
0.0
 40
0.0321080957282493
 50
272.4938630216719275
 51
353.9026856079308914
  0
LINE
  5
34572
  8
0
 10
2994.9580105000791264
 20
134.2128681224671141
 30
0.0
 11
2994.9581047816968749
 21
134.1909135945211062
 31
0.0
  0
ARC
  5
34573
  8
0
 10
2994.9273333715459557
 20
134.1934551439505867
 30
0.0
 40
0.0308761907648329
 50
270.1543488790387073
 51
355.2784006007159974
  0
ARC
  5
34574
  8
0
 10
2994.9275893013727909
 20
134.163960560402387
 30
0.0
 40
0.030426273869123
 50
269.4818265628748009
 51
356.1022289930493798
  0
LINE
  5
34575
  8
0
 10
2994.9273141349967773
 20
134.1335355308210922
 30
0.0
 11
2994.8854715973920975
 21
134.1345304077802894
 31
0.0
  0
LINE
  5
34576
  8
0
 10
2994.8856275734669907
 20
134.2140933759235963
 30
0.0
 11
2994.9274196025971833
 21
134.2128743084211067
 31
0.0
  0
LINE
  5
34577
  8
0
 10
2994.8855346578529861
 20
134.1634606470456106
 30
0.0
 11
2994.9274226220968558
 21
134.1625796384211071
 31
0.0
  0
LINE
  5
34578
  8
0
 10
2994.8563531694580888
 20
134.1598766133706988
 30
0.0
 11
2994.8559484324969162
 21
134.0404504836211004
 31
0.0
  0
ARC
  5
34579
  8
0
 10
2994.8867329554627759
 20
134.0403461544067909
 30
0.0
 40
0.0307846997518601
 50
179.8058244794740119
 51
258.6567750170049749
  0
ARC
  5
3457A
  8
0
 10
2994.9232752778029862
 20
134.0438082768658887
 30
0.0
 40
0.034617464771008
 50
283.6093862040116846
 51
1.5748255370248441
  0
LINE
  5
3457B
  8
0
 10
2994.9578796670971315
 20
134.0447596489210866
 30
0.0
 11
2994.9578982878329043
 21
134.1613129113646039
 31
0.0
  0
LINE
  5
3457C
  8
0
 10
2994.9274165486967831
 20
134.1625790652211094
 30
0.0
 11
2995.3986455085969283
 21
134.1519782481211109
 31
0.0
  0
LINE
  5
3457D
  8
0
 10
2994.9315903187689401
 20
134.2133303364383039
 30
0.0
 11
2996.946886462897055
 21
134.178074414121113
 31
0.0
  0
LINE
  5
3457E
  8
0
 10
2994.9581039863969636
 20
134.1908761788210995
 30
0.0
 11
2996.1228584440909799
 21
134.1667122347799932
 31
0.0
  0
ARC
  5
3457F
  8
0
 10
3008.1544227130498257
 20
714.1141782381516805
 30
0.0
 40
580.0722557255173797
 50
268.811514799460781
 51
268.9129167430746179
  0
ARC
  5
34580
  8
0
 10
2996.9259190645261697
 20
133.3834832022691899
 30
0.0
 40
0.7948678039439927
 50
73.6808862198455188
 51
88.4884495355451577
  0
ARC
  5
34581
  8
0
 10
2996.9384059354720193
 20
133.4261321504442037
 30
0.0
 40
0.7504284663423439
 50
63.4947149994928424
 51
73.6808862198455188
  0
ARC
  5
34582
  8
0
 10
2996.9600313418441146
 20
133.4694959881225884
 30
0.0
 40
0.7019714687162081
 50
58.3940091922778421
 51
63.4947149994928424
  0
ARC
  5
34583
  8
0
 10
2996.8830222127071465
 20
133.3350295399127106
 30
0.0
 40
0.856865271832715
 50
51.99068188348744
 51
58.7205859603832678
  0
ARC
  5
34584
  8
0
 10
3009.9029319374881197
 20
645.2579894995411678
 30
0.0
 40
511.3725140214555154
 50
268.4533151595211962
 51
268.5957967639184858
  0
ARC
  5
34585
  8
0
 10
2990.407254327595183
 20
-76.7693254453605505
 30
0.0
 40
210.9179573070906031
 50
88.4533151595212814
 51
88.5877396681705562
  0
ARC
  5
34586
  8
0
 10
3022.1509879885211376
 20
1411.6778921285540491
 30
0.0
 40
1277.8059901503820583
 50
268.8003591103563963
 51
268.8588547054284845
  0
ARC
  5
34587
  8
0
 10
3015.9529359725697759
 20
1100.5209641401279441
 30
0.0
 40
966.5873376181358481
 50
268.8588547054284845
 51
268.8904832145738055
  0
ARC
  5
34588
  8
0
 10
3011.4333919014870844
 20
1073.7148586419650655
 30
0.0
 40
939.61727303696955
 50
268.995312502526474
 51
269.1166412236365773
  0
ARC
  5
34589
  8
0
 10
2996.9355011001448474
 20
133.437635640868308
 30
0.0
 40
0.7717129323163551
 50
52.1502351189539581
 51
89.1166412236366341
  0
ARC
  5
3458A
  8
0
 10
2999.953938939658201
 20
401.7661818058069798
 30
0.0
 40
266.5974589119069833
 50
268.9331230634804228
 51
269.5125700445490224
  0
ARC
  5
3458B
  8
0
 10
2997.6854547259440551
 20
135.1197964132663003
 30
0.0
 40
0.0585758286089411
 50
357.4831252816060783
 51
89.5125700445489656
  0
LINE
  5
3458C
  8
0
 10
2997.7439740482968773
 20
135.1172241363211128
 30
0.0
 11
2997.8553838844832171
 21
134.0459550645072966
 31
0.0
  0
ARC
  5
3458D
  8
0
 10
2997.8969711822428508
 20
134.0469503205704029
 30
0.0
 40
0.0415992051549702
 50
181.3709255556478013
 51
242.1695103983593924
  0
ARC
  5
3458E
  8
0
 10
2997.9190219111310398
 20
134.0456541236110013
 30
0.0
 40
0.038725471986918
 50
293.582403214028318
 51
359.7228145781321018
  0
LINE
  5
3458F
  8
0
 10
2997.9577469299479162
 20
134.0454667783210994
 30
0.0
 11
2997.9578381921360233
 21
135.1675511541575929
 31
0.0
  0
ARC
  5
34590
  8
0
 10
2997.9859100737680819
 20
135.1086419536125902
 30
0.0
 40
0.065255838408387
 50
90.1333463036982039
 51
115.4791055751802986
  0
ARC
  5
34591
  8
0
 10
2997.9981062733900217
 20
129.8682304581672895
 30
0.0
 40
5.3056815261632559
 50
85.697479726902742
 51
90.1333463036982039
  0
ARC
  5
34592
  8
0
 10
3016.6163918929009924
 20
1398.4129670403519867
 30
0.0
 40
1263.3853981290369575
 50
269.173665433871804
 51
269.1955650637818849
  0
ARC
  5
34593
  8
0
 10
3007.6391161737078619
 20
775.5606501857190551
 30
0.0
 40
640.4684742191873283
 50
269.216302403928978
 51
269.3790552903600997
  0
ARC
  5
34594
  8
0
 10
3000.6934007880458921
 20
135.0630641554371891
 30
0.0
 40
0.0668928386943413
 50
5.0007189446901847
 51
85.9236069235316222
  0
LINE
  5
34595
  8
0
 10
2994.8059532646971093
 20
135.4533199487210879
 30
0.0
 11
2995.0254989916429622
 21
135.4501812300518111
 31
0.0
  0
ARC
  5
34596
  8
0
 10
2995.8185611284861807
 20
135.0211452977285091
 30
0.0
 40
0.9016758753118008
 50
151.5872090438780901
 51
160.2567741273603872
  0
ARC
  5
34597
  8
0
 10
2995.1890301331791306
 20
135.2514184202356944
 30
0.0
 40
0.2313996732479838
 50
161.2664972206316918
 51
178.6176639790137131
  0
ARC
  5
34598
  8
0
 10
2990.2878807035331192
 20
135.2187602728548939
 30
0.0
 40
4.6699736695013971
 50
359.8435264503302733
 51
0.4691760009170895
  0
ARC
  5
34599
  8
0
 10
2995.53681171386188
 20
135.1968681911494912
 30
0.0
 40
0.7777430948773129
 50
178.4396387280569911
 51
182.7861020001328995
  0
ARC
  5
3459A
  8
0
 10
2994.9112489236449619
 20
134.9985242686774995
 30
0.0
 40
0.2669476142358396
 50
104.6130787619437967
 51
124.6801878669821946
  0
ARC
  5
3459B
  8
0
 10
2994.8173974593269122
 20
135.285048247866996
 30
0.0
 40
0.0387081170678928
 50
313.2114836993040967
 51
3.0868606466979251
  0
ARC
  5
3459C
  8
0
 10
2994.0742080641780376
 20
135.1102796489929858
 30
0.0
 40
0.8081631553838041
 50
16.8999331604279703
 51
25.1170647813980317
  0
ARC
  5
3459D
  8
0
 10
2994.6573778276178928
 20
135.2874594270419948
 30
0.0
 40
0.198671853772268
 50
359.9057660628873805
 51
16.8999331604279703
  0
LINE
  5
3459E
  8
0
 10
3003.7593338231540656
 20
135.0783038131486933
 30
0.0
 11
3003.85567560977006
 21
134.2440810923494041
 31
0.0
  0
ARC
  5
3459F
  8
0
 10
3003.8861748277458901
 20
134.2472835487751865
 30
0.0
 40
0.0306668880762564
 50
185.9941645577173119
 51
267.7548628939063065
  0
ARC
  5
345A0
  8
0
 10
3003.8860953971748131
 20
134.1966626113820098
 30
0.0
 40
0.0306684324021223
 50
181.9913961331172061
 51
267.8083523288070751
  0
ARC
  5
345A1
  8
0
 10
3003.8891661351822222
 20
134.1714722284214076
 30
0.0
 40
0.0346688117722876
 50
187.9912777740298964
 51
262.7941614641421211
  0
LINE
  5
345A2
  8
0
 10
3003.9571828367202215
 20
135.1252464537489004
 30
0.0
 11
3003.9572948393451952
 21
134.2440883794473052
 31
0.0
  0
ARC
  5
345A3
  8
0
 10
3003.9253683815568365
 20
134.2474988199467134
 30
0.0
 40
0.0321080957282493
 50
272.4938630216719275
 51
353.9026856079308914
  0
LINE
  5
345A4
  8
0
 10
3003.9572354604451903
 20
134.2435721044658976
 30
0.0
 11
3003.9574506602739348
 21
134.1934604202828893
 31
0.0
  0
ARC
  5
345A5
  8
0
 10
3003.9266792501239252
 20
134.1960019697123982
 30
0.0
 40
0.0308761907648329
 50
270.1543488790387073
 51
355.2784006007159974
  0
ARC
  5
345A6
  8
0
 10
3003.9269351799489414
 20
134.1665073861643123
 30
0.0
 40
0.030426273869123
 50
269.4818265628748009
 51
356.1022289930493798
  0
LINE
  5
345A7
  8
0
 10
3003.9266600135738372
 20
134.136082356582989
 30
0.0
 11
3003.8848174759691574
 21
134.1370772335421009
 31
0.0
  0
LINE
  5
345A8
  8
0
 10
3003.8849734520449601
 20
134.2166402016854931
 30
0.0
 11
3003.9267654811737884
 21
134.2154211341830035
 31
0.0
  0
LINE
  5
345A9
  8
0
 10
3003.884880536430046
 20
134.1660074728075074
 30
0.0
 11
3003.9267685006739157
 21
134.1651264641830039
 31
0.0
  0
LINE
  5
345AA
  8
0
 10
3003.8556990480351487
 20
134.1624234391325103
 30
0.0
 11
3003.8552943110739761
 21
134.0429973093829972
 31
0.0
  0
ARC
  5
345AB
  8
0
 10
3003.8906864476762166
 20
134.0445263018416995
 30
0.0
 40
0.0354251485692605
 50
182.4737239180292079
 51
251.7914130343017121
  0
ARC
  5
345AC
  8
0
 10
3003.918522404561827
 20
134.0476802697189953
 30
0.0
 40
0.0387049461264953
 50
284.2292097491442746
 51
359.4466544190777881
  0
LINE
  5
345AD
  8
0
 10
3003.9572255456741914
 20
134.0473064746830119
 30
0.0
 11
3003.9572441664099642
 21
134.1638597371265007
 31
0.0
  0
LINE
  5
345AE
  8
0
 10
3003.8052991432741692
 20
135.372559712055704
 30
0.0
 11
3004.0248448702200221
 21
135.3694209933865125
 31
0.0
  0
ARC
  5
345AF
  8
0
 10
3004.8179070070627859
 20
134.9403850610630968
 30
0.0
 40
0.9016758753118008
 50
151.5872090438780901
 51
160.2567741273603872
  0
ARC
  5
345B0
  8
0
 10
3004.1883760117561906
 20
135.1706581835703957
 30
0.0
 40
0.2313996732479838
 50
161.2664972206316918
 51
178.6176639790137131
  0
ARC
  5
345B1
  8
0
 10
2999.2872265821101792
 20
135.13800003618951
 30
0.0
 40
4.6699736695013971
 50
359.8435264503302733
 51
0.4691760009170895
  0
ARC
  5
345B2
  8
0
 10
3004.5361575924398494
 20
135.1161079544841925
 30
0.0
 40
0.7777430948773129
 50
178.4396387280569911
 51
182.7861020001328995
  0
ARC
  5
345B3
  8
0
 10
3003.9105948022220218
 20
134.9177640320120872
 30
0.0
 40
0.2669476142358396
 50
104.6130787619437967
 51
124.6801878669821946
  0
ARC
  5
345B4
  8
0
 10
3003.8167433379039721
 20
135.2042880112016121
 30
0.0
 40
0.0387081170678928
 50
313.2114836993040967
 51
3.0868606466979251
  0
ARC
  5
345B5
  8
0
 10
3003.0735539427550975
 20
135.0295194123276872
 30
0.0
 40
0.8081631553838041
 50
16.8999331604279703
 51
25.1170647813980317
  0
ARC
  5
345B6
  8
0
 10
3003.6567237061949527
 20
135.2066991903766109
 30
0.0
 40
0.198671853772268
 50
359.9057660628873805
 51
16.8999331604279703
  0
LINE
  5
345B7
  8
0
 10
3000.7595865876041898
 20
135.0929142846987077
 30
0.0
 11
3000.8559283742201842
 21
134.2404936643530959
 31
0.0
  0
ARC
  5
345B8
  8
0
 10
3000.8864275921960143
 20
134.2436961207789921
 30
0.0
 40
0.0306668880762564
 50
185.9941645577173119
 51
267.7548628939063065
  0
ARC
  5
345B9
  8
0
 10
3000.8863481616249373
 20
134.1930751833857016
 30
0.0
 40
0.0306684324021223
 50
181.9913961331172061
 51
267.8083523288070751
  0
ARC
  5
345BA
  8
0
 10
3000.8894188996318917
 20
134.1678848004252131
 30
0.0
 40
0.0346688117722876
 50
187.9912777740298964
 51
262.7941614641421211
  0
LINE
  5
345BB
  8
0
 10
3000.9574356011708005
 20
135.1398569252988864
 30
0.0
 11
3000.9575476037948647
 21
134.240500951450997
 31
0.0
  0
ARC
  5
345BC
  8
0
 10
3000.9256211460069608
 20
134.2439113919504052
 30
0.0
 40
0.0321080957282493
 50
272.4938630216719275
 51
353.9026856079308914
  0
LINE
  5
345BD
  8
0
 10
3000.9574882248948597
 20
134.2399846764697031
 30
0.0
 11
3000.957703424724059
 21
134.1898729922866949
 31
0.0
  0
ARC
  5
345BE
  8
0
 10
3000.9269320145740494
 20
134.1924145417162038
 30
0.0
 40
0.0308761907648329
 50
270.1543488790387073
 51
355.2784006007159974
  0
ARC
  5
345BF
  8
0
 10
3000.9271879443999751
 20
134.1629199581680041
 30
0.0
 40
0.030426273869123
 50
269.4818265628748009
 51
356.1022289930493798
  0
LINE
  5
345C0
  8
0
 10
3000.9269127780239614
 20
134.1324949285867092
 30
0.0
 11
3000.8850702404188269
 21
134.1334898055459064
 31
0.0
  0
LINE
  5
345C1
  8
0
 10
3000.8852262164950844
 20
134.2130527736892134
 30
0.0
 11
3000.9270182456239127
 21
134.2118337061866953
 31
0.0
  0
LINE
  5
345C2
  8
0
 10
3000.885133300878806
 20
134.1624200448113129
 30
0.0
 11
3000.9270212651240399
 21
134.1615390361866957
 31
0.0
  0
LINE
  5
345C3
  8
0
 10
3000.8559518124848182
 20
134.1588360111362874
 30
0.0
 11
3000.8555470755241004
 21
134.039409881386689
 31
0.0
  0
ARC
  5
345C4
  8
0
 10
3000.88633159848996
 20
134.0393055521724079
 30
0.0
 40
0.0307846997518601
 50
179.8058244794740119
 51
251.2026210500567913
  0
ARC
  5
345C5
  8
0
 10
3000.9228739208301704
 20
134.0427676746315058
 30
0.0
 40
0.0346174647710149
 50
289.6332830221446102
 51
1.574825537011822
  0
LINE
  5
345C6
  8
0
 10
3000.9574783101238609
 20
134.0437190466867037
 30
0.0
 11
3000.9575013722587755
 21
134.1880724769050914
 31
0.0
  0
LINE
  5
345C7
  8
0
 10
3000.8055519077238387
 20
135.38717018360569
 30
0.0
 11
3001.0250976346701464
 21
135.3840314649364132
 31
0.0
  0
ARC
  5
345C8
  8
0
 10
3001.8181597715129101
 20
134.9549955326131112
 30
0.0
 40
0.9016758753118008
 50
151.5872090438780901
 51
160.2567741273603872
  0
ARC
  5
345C9
  8
0
 10
3001.1886287762049506
 20
135.1852686551204101
 30
0.0
 40
0.2313996732479838
 50
161.2664972206316918
 51
178.6176639790137131
  0
ARC
  5
345CA
  8
0
 10
2996.2874793465598486
 20
135.1526105077394959
 30
0.0
 40
4.6699736695013971
 50
359.8435264503302733
 51
0.4691760009170895
  0
ARC
  5
345CB
  8
0
 10
3001.5364103568899736
 20
135.1307184260342069
 30
0.0
 40
0.7777430948773129
 50
178.4396387280569911
 51
182.7861020001328995
  0
ARC
  5
345CC
  8
0
 10
3000.9108475666721461
 20
134.9323745035621016
 30
0.0
 40
0.2669476142358396
 50
104.6130787619437967
 51
124.6801878669821946
  0
ARC
  5
345CD
  8
0
 10
3000.8169961023540964
 20
135.2188984827515981
 30
0.0
 40
0.0387081170678928
 50
313.2114836993040967
 51
3.0868606466979251
  0
ARC
  5
345CE
  8
0
 10
3000.0738067072052218
 20
135.0441298838777016
 30
0.0
 40
0.8081631553838041
 50
16.8999331604279703
 51
25.1170647813980317
  0
ARC
  5
345CF
  8
0
 10
3000.6569764706450769
 20
135.2213096619265968
 30
0.0
 40
0.198671853772268
 50
359.9057660628873805
 51
16.8999331604279703
  0
LINE
  5
345D0
  8
0
 10
2997.4106709552402208
 20
134.0101627849660986
 30
0.0
 11
3010.8487293107109508
 21
134.0101627849660986
 31
0.0
  0
LINE
  5
345D1
  8
0
 10
3015.4095782012577729
 20
134.0101627849660986
 30
0.0
 11
3016.4091020511859824
 21
134.0101627849660986
 31
0.0
  0
ARC
  5
345D2
  8
0
 10
2998.8441204464020302
 20
133.3952681181710886
 30
0.0
 40
0.7532174039623686
 50
118.6304177726621987
 51
125.2781910622649946
  0
ARC
  5
345D3
  8
0
 10
2998.8441642405477978
 20
133.3951878953888865
 30
0.0
 40
0.7533088021136272
 50
89.2676572330107945
 51
118.6304177726621987
  0
LINE
  5
345D4
  8
0
 10
2998.8537926151971078
 20
134.148435162721114
 30
0.0
 11
3000.855860236738863
 21
134.1318146664912945
 31
0.0
  0
LINE
  5
345D5
  8
0
 10
3000.9574922496281033
 20
134.1309709514893882
 30
0.0
 11
3003.8555109208568865
 21
134.1069125691047077
 31
0.0
  0
LINE
  5
345D6
  8
0
 10
3003.9572349335230683
 20
134.106068090351414
 30
0.0
 11
3004.5515358329971605
 21
134.1011344029211045
 31
0.0
  0
ARC
  5
345D7
  8
0
 10
3004.5427967152168094
 20
133.3155172867855924
 30
0.0
 40
0.785665721121057
 50
62.1469682923172329
 51
89.362674381983922
  0
LINE
  5
345D8
  8
0
 10
3004.9116083321100632
 20
134.0101627849660986
 30
0.0
 11
3004.82628314072781
 21
135.039314990243696
 31
0.0
  0
ARC
  5
345D9
  8
0
 10
3004.751379849424211
 20
135.0331048906753892
 30
0.0
 40
0.0751602846244622
 50
4.7394523924312439
 51
71.4516428366933383
  0
LINE
  5
345DA
  8
0
 10
3004.775288705796811
 20
135.104361013021105
 30
0.0
 11
3003.9891120063971357
 21
135.1062763207119986
 31
0.0
  0
ARC
  5
345DB
  8
0
 10
3003.9901883151937909
 20
135.0477907769071919
 30
0.0
 40
0.0584974296575524
 50
91.0542600877348605
 51
124.3438174710570934
  0
ARC
  5
345DC
  8
0
 10
3003.6805777117519938
 20
135.0073235612292137
 30
0.0
 40
0.1015440532352472
 50
38.3044000353020309
 51
80.1893065610743463
  0
LINE
  5
345DD
  8
0
 10
3003.6978801490968181
 20
135.1073826458211045
 30
0.0
 11
3000.9895254256971384
 21
135.1268508811211007
 31
0.0
  0
ARC
  5
345DE
  8
0
 10
3000.9898780927278494
 20
135.0698739614277883
 30
0.0
 40
0.0569780111250581
 50
90.3546361319288565
 51
124.7039074985354006
  0
ARC
  5
345DF
  8
0
 10
2999.3918752327699622
 20
66.2549975182759709
 30
0.0
 40
67.8148555791203336
 50
88.7632270945553898
 51
89.5656811377388777
  0
ARC
  5
345E0
  8
0
 10
3000.4317295278460733
 20
203.4309906225009001
 30
0.0
 40
69.3650787446916013
 50
268.4505944695914081
 51
269.5656811377389204
  0
ARC
  5
345E1
  8
0
 10
3001.4935411158958232
 20
136.9352013933896899
 30
0.0
 40
3.114683044977467
 50
247.1969980189244893
 51
248.283687250756401
  0
ARC
  5
345E2
  8
0
 10
3000.492714658128989
 20
134.4223183459257029
 30
0.0
 40
0.4098291101410228
 50
248.283687250756401
 51
258.6708914375419113
  0
ARC
  5
345E3
  8
0
 10
3000.5520719811820527
 20
134.7185893065754101
 30
0.0
 40
0.7119876346349351
 50
258.6708914375419113
 51
264.2670854897065738
  0
ARC
  5
345E4
  8
0
 10
3000.5743005302069832
 20
134.3745927981144916
 30
0.0
 40
0.3332636382930594
 50
249.9956128290880031
 51
265.4837942690185741
  0
ARC
  5
345E5
  8
0
 10
3000.5940992218320389
 20
134.6252525898347017
 30
0.0
 40
0.5847041270281109
 50
265.4837942690185741
 51
269.2658526205385101
  0
LINE
  5
345E6
  8
0
 10
3000.5866074438968099
 20
134.0405964606210887
 30
0.0
 11
3000.606878087161931
 21
134.0405964606210887
 31
0.0
  0
LINE
  5
345E7
  8
0
 10
3000.6057435308271124
 20
134.0589882634519938
 30
0.0
 11
3000.6068797512971287
 21
134.0405964606210887
 31
0.0
  0
ARC
  5
345E8
  8
0
 10
3000.5753658320709292
 20
134.0386495737149914
 30
0.0
 40
0.0315739999618627
 50
295.5481747507079717
 51
3.5351621716463728
  0
ARC
  5
345E9
  8
0
 10
3000.2659430101839462
 20
168.2487951506805928
 30
0.0
 40
34.2097789864067678
 50
269.274065106314481
 51
270.1365000958570022
  0
ARC
  5
345EA
  8
0
 10
3000.5497336606340468
 20
190.646308491572313
 30
0.0
 40
56.6090901585991233
 50
268.2680234043472751
 51
269.274065106314481
  0
ARC
  5
345EB
  8
0
 10
2998.2883290425929772
 20
115.859228382724794
 30
0.0
 40
18.2121722074801689
 50
88.2680234043472893
 51
89.304289885588517
  0
ARC
  5
345EC
  8
0
 10
2993.5962133583880131
 20
-102.0543518775703973
 30
0.0
 40
236.1463890804429013
 50
88.7407178428505858
 51
88.8203115704415325
  0
ARC
  5
345ED
  8
0
 10
3012.3712949913087868
 20
752.051069591247483
 30
0.0
 40
618.1653658853598472
 50
268.7407178428505858
 51
268.802967561945195
  0
ARC
  5
345EE
  8
0
 10
2998.6681279141189407
 20
96.2464490033543427
 30
0.0
 40
37.782404270447401
 50
88.1977249523589251
 51
88.802967561945195
  0
ARC
  5
345EF
  8
0
 10
3008.3509271731741137
 20
682.4136757691185267
 30
0.0
 40
548.3809685180081033
 50
269.195698635511576
 51
269.2168612751752903
  0
ARC
  5
345F0
  8
0
 10
3008.350927100591889
 20
682.4136705989368465
 30
0.0
 40
548.3809633473169924
 50
269.0826756866213145
 51
269.195698635511576
  0
ARC
  5
345F1
  8
0
 10
3009.0224178089888483
 20
724.3511791073893846
 30
0.0
 40
590.3238473643702946
 50
269.0060062226615969
 51
269.0826756866213145
  0
ARC
  5
345F2
  8
0
 10
2996.0496344792281889
 20
-23.3508488913851693
 30
0.0
 40
157.4907123901191994
 50
89.0060062226616253
 51
89.059669899578509
  0
LINE
  5
345F3
  8
0
 10
3000.855698251224112
 20
134.1920094730866992
 30
0.0
 11
3000.855698251224112
 21
134.2425297651352878
 31
0.0
  0
LINE
  5
345F4
  8
0
 10
3000.8550867482390458
 20
134.1630650607654047
 30
0.0
 11
3000.855698251224112
 21
134.1920094730866992
 31
0.0
  0
LINE
  5
345F5
  8
0
 10
3003.8554454867739878
 20
134.1955969010830074
 30
0.0
 11
3003.85567560977006
 21
134.2440810923492904
 31
0.0
  0
LINE
  5
345F6
  8
0
 10
3003.8548339837889216
 20
134.1666524887615992
 30
0.0
 11
3003.8554454867739878
 21
134.1955969010830074
 31
0.0
  0
LINE
  5
345F7
  8
0
 10
3003.9572441629948116
 20
134.1638383623152038
 30
0.0
 11
3003.9572441629948116
 21
134.1916287263736081
 31
0.0
  0
ARC
  5
345F8
  8
0
 10
3005.555959359751796
 20
469.1485558245282732
 30
0.0
 40
335.1274203359657804
 50
269.2137863784820979
 51
269.2949196846715836
  0
ARC
  5
345F9
  8
0
 10
3005.9501160638769761
 20
501.1766455585425888
 30
0.0
 40
367.1579353414646221
 50
269.2949196846715836
 51
269.4399649065974813
  0
ARC
  5
345FA
  8
0
 10
3005.8230228341008115
 20
488.1744714970791961
 30
0.0
 40
354.1551401414452016
 50
269.4399649065974813
 51
269.6826163027944858
  0
ARC
  5
345FB
  8
0
 10
3005.8582263656471696
 20
494.4903584453006147
 30
0.0
 40
360.4410994408927991
 50
269.6114886482171755
 51
269.6816183068390842
  0
ARC
  5
345FC
  8
0
 10
3005.8487701757771902
 20
493.0958265649259147
 30
0.0
 40
359.0465355001184093
 50
269.219436296706192
 51
269.6114886482171755
  0
ARC
  5
345FD
  8
0
 10
3006.7376683628108367
 20
811.7638098568131682
 30
0.0
 40
677.7152417730314937
 50
269.7649336890539757
 51
269.8377334722060823
  0
ARC
  5
345FE
  8
0
 10
3020.3243879753499641
 20
136.5062767339163941
 30
0.0
 40
0.135941284689048
 50
92.7383943125541634
 51
173.2489871738364116
  0
ARC
  5
345FF
  8
0
 10
3018.545716583902049
 20
136.8377090227718043
 30
0.0
 40
1.67366951312433
 50
332.5709206956254889
 51
349.1359606990304769
  0
ARC
  5
34600
  8
0
 10
3018.5655401733611143
 20
136.8263957322488125
 30
0.0
 40
1.6508632375566039
 50
293.7588341609809959
 51
332.6024941863461777
  0
ARC
  5
34601
  8
0
 10
3016.8664443399688935
 20
133.3893104783479089
 30
0.0
 40
0.7711157862065848
 50
118.0727270798407034
 51
126.3767051860575066
  0
ARC
  5
34602
  8
0
 10
3016.8480869481641093
 20
133.4237191906597104
 30
0.0
 40
0.7321163850782197
 50
95.9758117476185362
 51
118.0723201262901938
  0
ARC
  5
34603
  8
0
 10
3016.5802097278437941
 20
135.9827926294327085
 30
0.0
 40
1.8409392051101701
 50
275.9758117476184793
 51
285.9879248258608868
  0
ARC
  5
34604
  8
0
 10
3016.4769778723070885
 20
136.3430914614854998
 30
0.0
 40
2.215735235473645
 50
285.9879248258608868
 51
295.3870096145685125
  0
ARC
  5
34605
  8
0
 10
3016.4586173968791627
 20
136.3817811693359943
 30
0.0
 40
2.2585604681231568
 50
295.3870096145685125
 51
301.4249173440304048
  0
LINE
  5
34606
  8
0
 10
3017.63618742221297
 20
134.4544970118743095
 30
0.0
 11
3018.9042545862471343
 21
135.1648291423211106
 31
0.0
  0
ARC
  5
34607
  8
0
 10
3019.6958996809271412
 20
133.8348060455857933
 30
0.0
 40
1.547793072015756
 50
109.8964298516632994
 51
120.7615960365699976
  0
ARC
  5
34608
  8
0
 10
3018.900441114854857
 20
136.0326639624385905
 30
0.0
 40
0.7895844655268228
 50
289.8964298516639246
 51
294.7203213496014769
  0
ARC
  5
34609
  8
0
 10
3016.5602713390671852
 20
135.9496079748884938
 30
0.0
 40
1.8295869162161591
 50
272.0437821566462731
 51
274.3380675651363845
  0
ARC
  5
3460A
  8
0
 10
3016.5468076172442125
 20
136.1270924898709893
 30
0.0
 40
2.0075813679945989
 50
274.3380675651363845
 51
281.9077550093400077
  0
ARC
  5
3460B
  8
0
 10
3016.5398626791779861
 20
136.1600264898326031
 30
0.0
 40
2.041239658477199
 50
281.9077550093400077
 51
286.970245623831488
  0
ARC
  5
3460C
  8
0
 10
3016.5524040262248491
 20
136.1189292717054968
 30
0.0
 40
1.998271452515989
 50
286.970245623831488
 51
299.2726087534765043
  0
LINE
  5
3460D
  8
0
 10
3017.5294898019969878
 20
134.3758308279211064
 30
0.0
 11
3018.8320493069190888
 21
135.1059745377586125
 31
0.0
  0
ARC
  5
3460E
  8
0
 10
3050.05048163768015
 20
79.4130127093885108
 30
0.0
 40
63.8458809509792431
 50
119.0381298988348959
 51
119.2726087534765043
  0
ARC
  5
3460F
  8
0
 10
3019.8924872998850333
 20
133.7341878646668931
 30
0.0
 40
1.7146111045570991
 50
114.3085973228097032
 51
119.0381298988348959
  0
ARC
  5
34610
  8
0
 10
3010.365096824757984
 20
93176.816491849036538
 30
0.0
 40
93042.8063303210074082
 50
270.0002978209897151
 51
270.0007605351701727
  0
ARC
  5
34611
  8
0
 10
3011.5993685414177889
 20
191.5564538737858982
 30
0.0
 40
57.5462841540058605
 50
270.0007605351701727
 51
271.281901472908487
  0
LINE
  5
34612
  8
0
 10
3006.7591275180661796
 20
135.0764909417601132
 30
0.0
 11
3006.855469304682174
 21
134.2422682209607956
 31
0.0
  0
ARC
  5
34613
  8
0
 10
3006.8859685226580041
 20
134.2454706773866064
 30
0.0
 40
0.0306668880762564
 50
185.9941645577173119
 51
267.7548628939063065
  0
ARC
  5
34614
  8
0
 10
3006.8858890920869271
 20
134.1948497399934013
 30
0.0
 40
0.0306684324021223
 50
181.9913961331172061
 51
267.8083523288070751
  0
ARC
  5
34615
  8
0
 10
3006.8889598300938815
 20
134.1696593570327991
 30
0.0
 40
0.0346688117722876
 50
187.9912777740298964
 51
262.7941614641421211
  0
LINE
  5
34616
  8
0
 10
3006.9569765316327903
 20
135.1234335823602919
 30
0.0
 11
3006.9570885342582187
 21
134.2422755080586967
 31
0.0
  0
ARC
  5
34617
  8
0
 10
3006.9251620764689505
 20
134.2456859485581049
 30
0.0
 40
0.0321080957282493
 50
272.4938630216719275
 51
353.9026856079308914
  0
LINE
  5
34618
  8
0
 10
3006.9570291553568495
 20
134.2417592330772891
 30
0.0
 11
3006.9572443551869583
 21
134.1916475488943092
 31
0.0
  0
ARC
  5
34619
  8
0
 10
3006.9264729450360392
 20
134.1941890983237897
 30
0.0
 40
0.0308761907648329
 50
270.1543488790387073
 51
355.2784006007159974
  0
ARC
  5
3461A
  8
0
 10
3006.9267288748619649
 20
134.1646945147757037
 30
0.0
 40
0.030426273869123
 50
269.4818265628748009
 51
356.1022289930493798
  0
LINE
  5
3461B
  8
0
 10
3006.9264537084859512
 20
134.1342694851944088
 30
0.0
 11
3006.8846111708808166
 21
134.1352643621534924
 31
0.0
  0
LINE
  5
3461C
  8
0
 10
3006.8847671469570741
 20
134.214827330296913
 30
0.0
 11
3006.9265591760859024
 21
134.2136082627943949
 31
0.0
  0
LINE
  5
3461D
  8
0
 10
3006.8846742313421601
 20
134.1641946014188989
 30
0.0
 11
3006.9265621955860297
 21
134.1633135927943101
 31
0.0
  0
LINE
  5
3461E
  8
0
 10
3006.8554927429481722
 20
134.1606105677439018
 30
0.0
 11
3006.8550880059860901
 21
134.0411844379943034
 31
0.0
  0
ARC
  5
3461F
  8
0
 10
3006.8904801425869664
 20
134.042713430453091
 30
0.0
 40
0.0354251485692605
 50
182.4737239180292079
 51
251.7914130343017121
  0
ARC
  5
34620
  8
0
 10
3006.918316099473941
 20
134.0458673983303868
 30
0.0
 40
0.0387049461264953
 50
284.2292097491442746
 51
359.4466544190777881
  0
LINE
  5
34621
  8
0
 10
3006.9570192405858506
 20
134.0454936032944033
 30
0.0
 11
3006.9570378613220782
 21
134.1620468657378922
 31
0.0
  0
LINE
  5
34622
  8
0
 10
3006.8050928381858284
 20
135.3707468406670955
 30
0.0
 11
3007.0246385651330456
 21
135.3676081219977902
 31
0.0
  0
ARC
  5
34623
  8
0
 10
3007.8177007019758094
 20
134.9385721896744883
 30
0.0
 40
0.9016758753118008
 50
151.5872090438780901
 51
160.2567741273603872
  0
ARC
  5
34624
  8
0
 10
3007.1881697066678498
 20
135.1688453121817872
 30
0.0
 40
0.2313996732479838
 50
161.2664972206316918
 51
178.6176639790137131
  0
ARC
  5
34625
  8
0
 10
3002.2870202770232027
 20
135.1361871648009014
 30
0.0
 40
4.6699736695013971
 50
359.8435264503302733
 51
0.4691760009170895
  0
ARC
  5
34626
  8
0
 10
3007.5359512873519634
 20
135.1142950830956124
 30
0.0
 40
0.7777430948773129
 50
178.4396387280569911
 51
182.7861020001328995
  0
ARC
  5
34627
  8
0
 10
3006.9103884971350453
 20
134.9159511606235071
 30
0.0
 40
0.2669476142358396
 50
104.6130787619437967
 51
124.6801878669821946
  0
ARC
  5
34628
  8
0
 10
3006.8165370328160861
 20
135.2024751398130036
 30
0.0
 40
0.0387081170678928
 50
313.2114836993040967
 51
3.0868606466979251
  0
ARC
  5
34629
  8
0
 10
3006.0733476376672115
 20
135.0277065409391071
 30
0.0
 40
0.8081631553838041
 50
16.8999331604279703
 51
25.1170647813980317
  0
ARC
  5
3462A
  8
0
 10
3006.6565174011070667
 20
135.2048863189880024
 30
0.0
 40
0.198671853772268
 50
359.9057660628873805
 51
16.8999331604279703
  0
LINE
  5
3462B
  8
0
 10
3006.8552391816861018
 20
134.1937840296943136
 30
0.0
 11
3006.855469304682174
 21
134.2422682209607103
 31
0.0
  0
LINE
  5
3462C
  8
0
 10
3006.8546276787010356
 20
134.1648396173729907
 30
0.0
 11
3006.8552391816861018
 21
134.1937840296943136
 31
0.0
  0
LINE
  5
3462D
  8
0
 10
3006.9570378579069256
 20
134.1620254909265952
 30
0.0
 11
3006.9570378579069256
 21
134.1898158549849995
 31
0.0
  0
LINE
  5
3462E
  8
0
 10
3009.7588797942589736
 20
135.0906416583378871
 30
0.0
 11
3009.8552215808749679
 21
134.2443925189662082
 31
0.0
  0
ARC
  5
3462F
  8
0
 10
3009.8857207988498885
 20
134.2475949753919906
 30
0.0
 40
0.0306668880762564
 50
185.9941645577173119
 51
267.7548628939063065
  0
ARC
  5
34630
  8
0
 10
3009.8856413682788116
 20
134.1969740379988139
 30
0.0
 40
0.0306684324021223
 50
181.9913961331172061
 51
267.8083523288070751
  0
ARC
  5
34631
  8
0
 10
3009.8887121062871302
 20
134.171783655038297
 30
0.0
 40
0.0346688117722876
 50
187.9912777740298964
 51
262.7941614641421211
  0
LINE
  5
34632
  8
0
 10
3009.9567288078251295
 20
135.1375842989380942
 30
0.0
 11
3009.9568408104501032
 21
134.2443998060641093
 31
0.0
  0
ARC
  5
34633
  8
0
 10
3009.9249143526621992
 20
134.247810246563489
 30
0.0
 40
0.0321080957282493
 50
272.4938630216719275
 51
353.9026856079308914
  0
LINE
  5
34634
  8
0
 10
3009.9567814315491887
 20
134.2438835310827869
 30
0.0
 11
3009.9569966313788427
 21
134.1937718468998071
 31
0.0
  0
ARC
  5
34635
  8
0
 10
3009.9262252212279236
 20
134.1963133963292876
 30
0.0
 40
0.0308761907648329
 50
270.1543488790387073
 51
355.2784006007159974
  0
ARC
  5
34636
  8
0
 10
3009.9264811510552136
 20
134.1668188127810879
 30
0.0
 40
0.030426273869123
 50
269.4818265628748009
 51
356.1022289930493798
  0
LINE
  5
34637
  8
0
 10
3009.9262059846791999
 20
134.136393783199793
 30
0.0
 11
3009.8843634470740653
 21
134.1373886601589049
 31
0.0
  0
LINE
  5
34638
  8
0
 10
3009.8845194231498681
 20
134.2169516283022972
 30
0.0
 11
3009.9263114522791511
 21
134.2157325607998075
 31
0.0
  0
LINE
  5
34639
  8
0
 10
3009.884426507534954
 20
134.1663188994243114
 30
0.0
 11
3009.9263144717788236
 21
134.165437890799808
 31
0.0
  0
LINE
  5
3463A
  8
0
 10
3009.8552450191400567
 20
134.162734865749286
 30
0.0
 11
3009.8548402821788841
 21
134.0433087359998012
 31
0.0
  0
ARC
  5
3463B
  8
0
 10
3009.8922604445788238
 20
134.045568907257092
 30
0.0
 40
0.0374883572342213
 50
183.4564559220046931
 51
250.8139635133518937
  0
ARC
  5
3463C
  8
0
 10
3009.9170681783389227
 20
134.048343091770306
 30
0.0
 40
0.0397099607722976
 50
285.4955557428502857
 51
358.9535959643163778
  0
LINE
  5
3463D
  8
0
 10
3009.9567715167790993
 20
134.0476179012997875
 30
0.0
 11
3009.9567901375148722
 21
134.1641711637433048
 31
0.0
  0
LINE
  5
3463E
  8
0
 10
3009.8048451143790771
 20
135.3848975572448978
 30
0.0
 11
3010.0243908413249301
 21
135.3817588385755926
 31
0.0
  0
ARC
  5
3463F
  8
0
 10
3010.8174529781681485
 20
134.9527229062522906
 30
0.0
 40
0.9016758753118008
 50
151.5872090438780901
 51
160.2567741273603872
  0
ARC
  5
34640
  8
0
 10
3010.187921982860189
 20
135.1829960287595895
 30
0.0
 40
0.2313996732479838
 50
161.2664972206316918
 51
178.6176639790137131
  0
ARC
  5
34641
  8
0
 10
3005.2867725532150871
 20
135.1503378813787037
 30
0.0
 40
4.6699736695013971
 50
359.8435264503302733
 51
0.4691760009170895
  0
ARC
  5
34642
  8
0
 10
3010.5357035635452121
 20
135.1284457996733863
 30
0.0
 40
0.7777430948773129
 50
178.4396387280569911
 51
182.7861020001328995
  0
ARC
  5
34643
  8
0
 10
3009.9101407733278393
 20
134.9301018772013094
 30
0.0
 40
0.2669476142358396
 50
104.6130787619437967
 51
124.6801878669821946
  0
ARC
  5
34644
  8
0
 10
3009.8162893090088801
 20
135.2166258563908059
 30
0.0
 40
0.0387081170678928
 50
313.2114836993040967
 51
3.0868606466979251
  0
ARC
  5
34645
  8
0
 10
3009.0730999138600055
 20
135.0418572575167957
 30
0.0
 40
0.8081631553838041
 50
16.8999331604279703
 51
25.1170647813980317
  0
ARC
  5
34646
  8
0
 10
3009.6562696772998606
 20
135.2190370355658047
 30
0.0
 40
0.198671853772268
 50
359.9057660628873805
 51
16.8999331604279703
  0
LINE
  5
34647
  8
0
 10
3009.8549914578788957
 20
134.1959083276998115
 30
0.0
 11
3009.8552215808749679
 21
134.2443925189662082
 31
0.0
  0
LINE
  5
34648
  8
0
 10
3009.8543799548938296
 20
134.1669639153784033
 30
0.0
 11
3009.8549914578788957
 21
134.1959083276998115
 31
0.0
  0
LINE
  5
34649
  8
0
 10
3009.9567901341010838
 20
134.1641497889320931
 30
0.0
 11
3009.9567901341010838
 21
134.1919401529904974
 31
0.0
  0
LINE
  5
3464A
  8
0
 10
3012.7586719987771176
 20
135.1179806254139919
 30
0.0
 11
3012.8550137853931119
 21
134.2568501722356018
 31
0.0
  0
ARC
  5
3464B
  8
0
 10
3012.8855130033680325
 20
134.2600526286614127
 30
0.0
 40
0.0306668880762564
 50
185.9941645577173119
 51
267.7548628939063065
  0
ARC
  5
3464C
  8
0
 10
3012.8854335727978651
 20
134.2094316912680938
 30
0.0
 40
0.0306684324021223
 50
181.9913961331172061
 51
267.8083523288070751
  0
ARC
  5
3464D
  8
0
 10
3012.8885043108048194
 20
134.1842413083076053
 30
0.0
 40
0.0346688117722876
 50
187.9912777740298964
 51
262.7941614641421211
  0
LINE
  5
3464E
  8
0
 10
3012.9565210123428187
 20
135.1649232660143127
 30
0.0
 11
3012.9566330149677924
 21
134.2568574593333892
 31
0.0
  0
ARC
  5
3464F
  8
0
 10
3012.9247065571798885
 20
134.2602678998327974
 30
0.0
 40
0.0321080957282493
 50
272.4938630216719275
 51
353.9026856079308914
  0
LINE
  5
34650
  8
0
 10
3012.956573636066878
 20
134.2563411843520953
 30
0.0
 11
3012.9567888358969867
 21
134.206229500169087
 31
0.0
  0
ARC
  5
34651
  8
0
 10
3012.9260174257469771
 20
134.2087710495985959
 30
0.0
 40
0.0308761907648329
 50
270.1543488790387073
 51
355.2784006007159974
  0
ARC
  5
34652
  8
0
 10
3012.9262733555729028
 20
134.1792764660503963
 30
0.0
 40
0.030426273869123
 50
269.4818265628748009
 51
356.1022289930493798
  0
LINE
  5
34653
  8
0
 10
3012.9259981891968891
 20
134.1488514364691014
 30
0.0
 11
3012.8841556515922093
 21
134.1498463134282986
 31
0.0
  0
LINE
  5
34654
  8
0
 10
3012.8843116276680121
 20
134.2294092815716056
 30
0.0
 11
3012.9261036567968404
 21
134.2281902140690875
 31
0.0
  0
LINE
  5
34655
  8
0
 10
3012.884218712053098
 20
134.1787765526937051
 30
0.0
 11
3012.9261066762969676
 21
134.1778955440690879
 31
0.0
  0
LINE
  5
34656
  8
0
 10
3012.8550372236582007
 20
134.175192519018708
 30
0.0
 11
3012.8546324866970281
 21
134.0557663892691096
 31
0.0
  0
ARC
  5
34657
  8
0
 10
3012.8900246232988138
 20
134.0572953817278119
 30
0.0
 40
0.0354251485692605
 50
182.4737239180292079
 51
248.5578736853051112
  0
ARC
  5
34658
  8
0
 10
3012.923102050469879
 20
134.0586078842503071
 30
0.0
 40
0.033493842279861
 50
279.8545458303515829
 51
2.5114541467406468
  0
LINE
  5
34659
  8
0
 10
3012.9565637212967886
 20
134.0600755545690959
 30
0.0
 11
3012.9565823420330162
 21
134.1766288170126131
 31
0.0
  0
LINE
  5
3465A
  8
0
 10
3012.8046373188972211
 20
135.4122365243210879
 30
0.0
 11
3013.0241830458430741
 21
135.4090978056518111
 31
0.0
  0
ARC
  5
3465B
  8
0
 10
3013.817245182687202
 20
134.9800618733285091
 30
0.0
 40
0.9016758753118008
 50
151.5872090438780901
 51
160.2567741273603872
  0
ARC
  5
3465C
  8
0
 10
3013.1877141873778783
 20
135.2103349958356944
 30
0.0
 40
0.2313996732479838
 50
161.2664972206316918
 51
178.6176639790137131
  0
ARC
  5
3465D
  8
0
 10
3008.2865647577327763
 20
135.1776768484548938
 30
0.0
 40
4.6699736695013971
 50
359.8435264503302733
 51
0.4691760009170895
  0
ARC
  5
3465E
  8
0
 10
3013.5354957680629013
 20
135.1557847667494912
 30
0.0
 40
0.7777430948773129
 50
178.4396387280569911
 51
182.7861020001328995
  0
ARC
  5
3465F
  8
0
 10
3012.9099329778450738
 20
134.9574408442774995
 30
0.0
 40
0.2669476142358396
 50
104.6130787619437967
 51
124.6801878669821946
  0
ARC
  5
34660
  8
0
 10
3012.8160815135270241
 20
135.2439648234669107
 30
0.0
 40
0.0387081170678928
 50
313.2114836993040967
 51
3.0868606466979251
  0
ARC
  5
34661
  8
0
 10
3012.0728921183781495
 20
135.0691962245930995
 30
0.0
 40
0.8081631553838041
 50
16.8999331604279703
 51
25.1170647813980317
  0
ARC
  5
34662
  8
0
 10
3012.6560618818189141
 20
135.2463760026419948
 30
0.0
 40
0.198671853772268
 50
359.9057660628873805
 51
16.8999331604279703
  0
LINE
  5
34663
  8
0
 10
3012.8547836623970397
 20
134.2083659809690914
 30
0.0
 11
3012.8550137853931119
 21
134.2568501722354881
 31
0.0
  0
LINE
  5
34664
  8
0
 10
3012.8541721594110641
 20
134.1794215686477969
 30
0.0
 11
3012.8547836623970397
 21
134.2083659809690914
 31
0.0
  0
LINE
  5
34665
  8
0
 10
3012.9565823386178636
 20
134.1766074422014015
 30
0.0
 11
3012.9565823386178636
 21
134.2043978062598057
 31
0.0
  0
LINE
  5
34666
  8
0
 10
3012.8868100342970138
 20
134.0245715715211077
 30
0.0
 11
3012.9288344389970007
 21
134.0256082298211027
 31
0.0
  0
LINE
  5
34667
  8
0
 10
3012.9288344389970007
 20
134.0256082298211027
 30
0.0
 11
3013.778375966105159
 21
134.0475354054401009
 31
0.0
  0
LINE
  5
34668
  8
0
 10
3013.778375966105159
 20
134.0475354054401009
 30
0.0
 11
3015.2121512758021709
 21
134.0845419933608866
 31
0.0
  0
ARC
  5
34669
  8
0
 10
3015.047245863696844
 20
133.350957685920406
 30
0.0
 40
0.7518907707006895
 50
77.3308466454953987
 51
91.3051940038965171
  0
ARC
  5
3466A
  8
0
 10
3015.0453861640457944
 20
133.3426847829082931
 30
0.0
 40
0.7603701225060709
 50
61.382056800401692
 51
77.3308466454953987
  0
ARC
  5
3466B
  8
0
 10
3030.0477138272608499
 20
-564.5302725779275761
 30
0.0
 40
698.7943140679325325
 50
91.2314224841827865
 51
91.4014964672535655
  0
ARC
  5
3466C
  8
0
 10
3006.3103844615889102
 20
133.2530746724227129
 30
0.0
 40
0.8568605409569986
 50
112.8479159292788978
 51
117.9251090215929025
  0
ARC
  5
3466D
  8
0
 10
3006.2668292583721268
 20
133.3564463281113888
 30
0.0
 40
0.7446876613155458
 50
90.1327670398281384
 51
112.8479159292788978
  0
LINE
  5
3466E
  8
0
 10
3006.2651036532970465
 20
134.1011319901211039
 30
0.0
 11
3006.8552978080101639
 21
134.1024996034385026
 31
0.0
  0
LINE
  5
3466F
  8
0
 10
3006.9570284679921315
 20
134.1032509498068919
 30
0.0
 11
3008.2269396065289584
 21
134.1100013116686114
 31
0.0
  0
LINE
  5
34670
  8
0
 10
3008.2269396065289584
 20
134.1100013116686114
 30
0.0
 11
3009.8551098277680467
 21
134.1228438157689027
 31
0.0
  0
LINE
  5
34671
  8
0
 10
3009.8549731097659787
 20
134.0825023015069064
 30
0.0
 11
3006.9570206672237873
 21
134.0544233954387892
 31
0.0
  0
LINE
  5
34672
  8
0
 10
3006.9514287120800873
 20
134.025826746119094
 30
0.0
 11
3009.854874954717161
 21
134.0535395957354012
 31
0.0
  0
LINE
  5
34673
  8
0
 10
3009.956772684167845
 20
134.0549249664541094
 30
0.0
 11
3012.8562194282972087
 21
134.1011264848210942
 31
0.0
  0
LINE
  5
34674
  8
0
 10
3012.8548869455808017
 20
134.1308498204093098
 30
0.0
 11
3009.9567772852988128
 21
134.083724949371998
 31
0.0
  0
LINE
  5
34675
  8
0
 10
3009.9567837045151464
 20
134.1239049154399083
 30
0.0
 11
3012.8549934602951907
 21
134.1622792209522004
 31
0.0
  0
LINE
  5
34676
  8
0
 10
3012.8544215549809451
 20
134.1912262668496965
 30
0.0
 11
3009.956788475922167
 21
134.1537707075970047
 31
0.0
  0
LINE
  5
34677
  8
0
 10
3010.2054295369421197
 20
134.0588872134495944
 30
0.0
 11
3010.2073284609127768
 21
134.0375229093542089
 31
0.0
  0
ARC
  5
34678
  8
0
 10
3010.2400016577630595
 20
134.0404270019203921
 30
0.0
 40
0.0328020052134921
 50
185.0792745067672911
 51
247.3141158712707863
  0
ARC
  5
34679
  8
0
 10
3010.296002994572973
 20
134.5238547072380015
 30
0.0
 40
0.5150052642540782
 50
274.0927297799680105
 51
284.0284775973282763
  0
ARC
  5
3467A
  8
0
 10
3010.313498530580091
 20
134.4538322284749086
 30
0.0
 40
0.4428301902167343
 50
284.0284775973282763
 51
298.3068314496701987
  0
ARC
  5
3467B
  8
0
 10
3011.2054459753640003
 20
200.9172237047538943
 30
0.0
 40
66.8849277188608227
 50
269.3626863037392241
 51
271.4131245887214732
  0
ARC
  5
3467C
  8
0
 10
2913.2134258513619898
 20
6116.3396660345179043
 30
0.0
 40
5982.9788224136782446
 50
270.9552309684167994
 51
270.9777598925394955
  0
ARC
  5
3467D
  8
0
 10
3005.3349882213469755
 20
124.6554207566195061
 30
0.0
 40
10.4639239754240592
 50
86.913251922011014
 51
93.0665447480756001
  0
ARC
  5
3467E
  8
0
 10
3006.2595334152911164
 20
38.9630790405733194
 30
0.0
 40
96.1417621999576397
 50
89.7389647425068944
 51
90.2151896386904752
  0
ARC
  5
3467F
  8
0
 10
3006.7008599590039921
 20
135.0414714437438874
 30
0.0
 40
0.0624599663951587
 50
14.2626841125709891
 51
93.0409024592006233
  0
ARC
  5
34680
  8
0
 10
3006.9938443233500038
 20
135.030613226789086
 30
0.0
 40
0.0764209064479931
 50
93.901578250277538
 51
118.8414603597601058
  0
ARC
  5
34681
  8
0
 10
3005.1618426776572051
 20
596.1109452973255429
 30
0.0
 40
461.0077077583204073
 50
270.2270424176284109
 51
270.5636838580637118
  0
ARC
  5
34682
  8
0
 10
3009.6932573383178351
 20
135.0524960600886004
 30
0.0
 40
0.0731593397226685
 50
24.6527512994768294
 51
86.8891480254031023
  0
ARC
  5
34683
  8
0
 10
3009.989230760612827
 20
135.0778797743467976
 30
0.0
 40
0.0506442880275026
 50
91.126955445883894
 51
129.9200244548667058
  0
ARC
  5
34684
  8
0
 10
3003.3141638342840452
 20
769.9560279101808646
 30
0.0
 40
634.8625956073035468
 50
270.6023400009599982
 51
270.8468252609558249
  0
ARC
  5
34685
  8
0
 10
3012.6973747723232009
 20
135.0998483413760027
 30
0.0
 40
0.0629250117482117
 50
5.2420051232467708
 51
90.3222098160350555
  0
ARC
  5
34686
  8
0
 10
3012.993618586813227
 20
135.0851201724466932
 30
0.0
 40
0.0821271701423047
 50
93.971181053855787
 51
116.8527488064936932
  0
ARC
  5
34687
  8
0
 10
3068.4707581253787794
 20
-3250.268421061412937
 30
0.0
 40
3385.8900859147061055
 50
90.9162477553243917
 51
90.9389182869143156
  0
ARC
  5
34688
  8
0
 10
3014.002887247866056
 20
133.5185625285656954
 30
0.0
 40
1.488065897664417
 50
28.6487941547837899
 51
50.0000035393574933
  0
ARC
  5
34689
  8
0
 10
3013.8530791307221079
 20
133.4367189107339016
 30
0.0
 40
1.6587728094815031
 50
20.2247572784716887
 51
28.6487941547837899
  0
LINE
  5
3468A
  8
0
 10
3014.2552464538812274
 20
135.2493400717906127
 30
0.0
 11
3015.8540432255908854
 21
135.2752519183081006
 31
0.0
  0
LINE
  5
3468B
  8
0
 10
3015.9579350178501045
 20
135.276935702152997
 30
0.0
 11
3017.6174823861570076
 21
135.3038321391842089
 31
0.0
  0
LINE
  5
3468C
  8
0
 10
3017.6174823861570076
 20
135.3038321391842089
 30
0.0
 11
3016.8512647309689783
 21
134.6521158802489992
 31
0.0
  0
LINE
  5
3468D
  8
0
 10
3016.8512647309689783
 20
134.6521158802489992
 30
0.0
 11
3016.4091020515379569
 21
134.0101627852210981
 31
0.0
  0
LINE
  5
3468E
  8
0
 10
3014.9595965195408098
 20
134.6583201717878921
 30
0.0
 11
3014.2552464538780441
 21
135.2493400717931138
 31
0.0
  0
LINE
  5
3468F
  8
0
 10
3015.758532339276826
 20
135.1560944187141047
 30
0.0
 11
3015.8548741258928203
 21
134.2435970141089001
 31
0.0
  0
ARC
  5
34690
  8
0
 10
3015.8853733438691052
 20
134.246799470534711
 30
0.0
 40
0.0306668880762564
 50
185.9941645577173119
 51
267.7548628939063065
  0
ARC
  5
34691
  8
0
 10
3015.8852939132971187
 20
134.1961785331413921
 30
0.0
 40
0.0306684324021223
 50
181.9913961331172061
 51
267.8083523288070751
  0
ARC
  5
34692
  8
0
 10
3015.8883646513049825
 20
134.1709881501809036
 30
0.0
 40
0.0346688117722876
 50
187.9912777740298964
 51
262.7941614641421211
  0
LINE
  5
34693
  8
0
 10
3015.9563813528429819
 20
135.2030370593143118
 30
0.0
 11
3015.9564933554679556
 21
134.2436043012066875
 31
0.0
  0
ARC
  5
34694
  8
0
 10
3015.9245668976800516
 20
134.2470147417060957
 30
0.0
 40
0.0321080957282493
 50
272.4938630216719275
 51
353.9026856079308914
  0
LINE
  5
34695
  8
0
 10
3015.9564339765679506
 20
134.2430880262253936
 30
0.0
 11
3015.9566491763971499
 21
134.1929763420424138
 31
0.0
  0
ARC
  5
34696
  8
0
 10
3015.925877766245776
 20
134.1955178914718942
 30
0.0
 40
0.0308761907648329
 50
270.1543488790387073
 51
355.2784006007159974
  0
ARC
  5
34697
  8
0
 10
3015.9261336960730659
 20
134.1660233079236946
 30
0.0
 40
0.030426273869123
 50
269.4818265628748009
 51
356.1022289930493798
  0
LINE
  5
34698
  8
0
 10
3015.9258585296970523
 20
134.1355982783423997
 30
0.0
 11
3015.8840159920910082
 21
134.1365931553015116
 31
0.0
  0
LINE
  5
34699
  8
0
 10
3015.8841719681681752
 20
134.2161561234449039
 30
0.0
 11
3015.9259639972970035
 21
134.2149370559424142
 31
0.0
  0
LINE
  5
3469A
  8
0
 10
3015.8840790525528064
 20
134.1655233945670034
 30
0.0
 11
3015.9259670167971308
 21
134.1646423859423862
 31
0.0
  0
LINE
  5
3469B
  8
0
 10
3015.8548975641579091
 20
134.1619393608920063
 30
0.0
 11
3015.8544928271971912
 21
134.0425132311424079
 31
0.0
  0
ARC
  5
3469C
  8
0
 10
3015.8905057678648518
 20
134.0442658919911878
 30
0.0
 40
0.036055564281085
 50
182.7862456543894041
 51
251.0581757027356957
  0
ARC
  5
3469D
  8
0
 10
3015.9188272551191403
 20
134.0468075073079035
 30
0.0
 40
0.0375968096267105
 50
282.9217487807945872
 51
0.0226903451658477
  0
LINE
  5
3469E
  8
0
 10
3015.9564240617969517
 20
134.0468223964423942
 30
0.0
 11
3015.9564426825331793
 21
134.1633756588859114
 31
0.0
  0
LINE
  5
3469F
  8
0
 10
3015.8044976593969295
 20
135.450350317621087
 30
0.0
 11
3016.0240433863427825
 21
135.4472115989518102
 31
0.0
  0
ARC
  5
346A0
  8
0
 10
3016.8171055231860009
 20
135.0181756666285082
 30
0.0
 40
0.9016758753118008
 50
151.5872090438780901
 51
160.2567741273603872
  0
ARC
  5
346A1
  8
0
 10
3016.1875745278780414
 20
135.2484487891356935
 30
0.0
 40
0.2313996732479838
 50
161.2664972206316918
 51
178.6176639790137131
  0
ARC
  5
346A2
  8
0
 10
3011.286425098233849
 20
135.2157906417548929
 30
0.0
 40
4.6699736695013971
 50
359.8435264503302733
 51
0.4691760009170895
  0
ARC
  5
346A3
  8
0
 10
3016.5353561085630645
 20
135.1938985600494902
 30
0.0
 40
0.7777430948773129
 50
178.4396387280569911
 51
182.7861020001328995
  0
ARC
  5
346A4
  8
0
 10
3015.9097933183447822
 20
134.9955546375774986
 30
0.0
 40
0.2669476142358396
 50
104.6130787619437967
 51
124.6801878669821946
  0
ARC
  5
346A5
  8
0
 10
3015.8159418540271872
 20
135.2820786167669098
 30
0.0
 40
0.0387081170678928
 50
313.2114836993040967
 51
3.0868606466979251
  0
ARC
  5
346A6
  8
0
 10
3015.0727524588778579
 20
135.1073100178930133
 30
0.0
 40
0.8081631553838041
 50
16.8999331604279703
 51
25.1170647813980317
  0
ARC
  5
346A7
  8
0
 10
3015.6559222223181678
 20
135.2844897959419939
 30
0.0
 40
0.198671853772268
 50
359.9057660628873805
 51
16.8999331604279703
  0
LINE
  5
346A8
  8
0
 10
3015.8546440028972029
 20
134.1951128228423897
 30
0.0
 11
3015.8548741258928203
 21
134.2435970141087864
 31
0.0
  0
LINE
  5
346A9
  8
0
 10
3015.8540324999112272
 20
134.1661684105210952
 30
0.0
 11
3015.8546440028972029
 21
134.1951128228423897
 31
0.0
  0
LINE
  5
346AA
  8
0
 10
3015.9564426791180267
 20
134.1633542840746998
 30
0.0
 11
3015.9564426791180267
 21
134.1911446481331041
 31
0.0
  0
ARC
  5
346AB
  8
0
 10
3000.6930553578690706
 20
933.8731011153771533
 30
0.0
 40
799.8041884145253562
 50
270.8785597258323037
 51
270.912472832179219
  0
ARC
  5
346AC
  8
0
 10
3006.1740809564189476
 20
589.7389273746041454
 30
0.0
 40
455.6263692892127892
 50
270.912472832179219
 51
271.068310386964697
  0
ARC
  5
346AD
  8
0
 10
3017.4372214314357734
 20
-14.2574720899284504
 30
0.0
 40
148.4750368500870081
 50
90.8153191758489839
 51
91.0683103869647113
  0
ARC
  5
346AE
  8
0
 10
3018.819758621688834
 20
-44.4484052523409119
 30
0.0
 40
178.6622105999585131
 50
91.1172623569811861
 51
91.2570192270838163
  0
ARC
  5
346AF
  8
0
 10
3009.4082569829729437
 20
384.4653232754042165
 30
0.0
 40
250.354762121014204
 50
270.9744272657828219
 51
271.2570192270837879
  0
ARC
  5
346B0
  8
0
 10
3015.5924447729657913
 20
20.8735906625256789
 30
0.0
 40
113.2895588893060932
 50
90.9744272657828219
 51
91.3332016420744566
  0
ARC
  5
346B1
  8
0
 10
3015.2994931331832049
 20
41.6011701054594312
 30
0.0
 40
92.5315032877251156
 50
90.9248296366661037
 51
91.4508996098052762
  0
ARC
  5
346B2
  8
0
 10
3010.8362374855250891
 20
318.0883109320209883
 30
0.0
 40
183.9916597446386106
 50
270.9248296366661179
 51
271.3426806426180065
  0
ARC
  5
346B3
  8
0
 10
3015.4887273382801141
 20
119.5904505827707993
 30
0.0
 40
14.5607167837232101
 50
90.5442425909067055
 51
91.3426806426179354
  0
ARC
  5
346B4
  8
0
 10
3016.1926527365940274
 20
234.3198708793576088
 30
0.0
 40
99.0803426804053657
 50
270.7865988812674232
 51
271.3464767958861898
  0
ARC
  5
346B5
  8
0
 10
3018.4621435805797773
 20
137.7654342737631055
 30
0.0
 40
2.4992378155576591
 50
271.3464767958861898
 51
291.8718622270312721
  0
ARC
  5
346B6
  8
0
 10
3018.8093620688341616
 20
136.6901672271791881
 30
0.0
 40
1.3742542656005921
 50
295.1400570118530027
 51
322.0810242013947118
  0
ARC
  5
346B7
  8
0
 10
3016.5588918319081131
 20
136.2357395083629967
 30
0.0
 40
1.9803172886285929
 50
270.5556154868024237
 51
286.178618270935317
  0
ARC
  5
346B8
  8
0
 10
3016.557065444032105
 20
136.2420347444669915
 30
0.0
 40
1.986872110539091
 50
286.178618270935317
 51
299.3409867461347744
  0
LINE
  5
346B9
  8
0
 10
3017.5306450261377904
 20
134.5100406391233889
 30
0.0
 11
3019.0861290764569276
 21
135.3447134757450954
 31
0.0
  0
ARC
  5
346BA
  8
0
 10
4734.665706985894758
 20
-2855.7452996637339311
 30
0.0
 40
3448.1259802252347981
 50
119.8343493698489937
 51
119.8412454257939999
  0
ARC
  5
346BB
  8
0
 10
3003.6595557632940654
 20
161.7228860890969031
 30
0.0
 40
30.5945529019901308
 50
298.4286522596576106
 51
299.8412454257939999
  0
ARC
  5
346BC
  8
0
 10
3031.4225799967989587
 20
110.4375628946491048
 30
0.0
 40
27.7232821894220614
 50
118.4286522596575963
 51
120.1070358941172032
  0
ARC
  5
346BD
  8
0
 10
3016.6094480610440769
 20
135.9843255550389927
 30
0.0
 40
1.807480756569708
 50
279.8875552938316105
 51
300.1070358941171889
  0
ARC
  5
346BE
  8
0
 10
3016.6258516312959728
 20
135.8902166534273874
 30
0.0
 40
1.711952946589842
 50
270.3085214324866001
 51
279.8875552938316105
  0
ARC
  5
346BF
  8
0
 10
3016.6573053823872215
 20
130.0489700509764077
 30
0.0
 40
4.1293783408054141
 50
90.3085214324866286
 51
91.8575931522520506
  0
ARC
  5
346C0
  8
0
 10
3016.4306923704280052
 20
136.8928645961194093
 30
0.0
 40
2.6775359715855189
 50
272.6035537706334821
 51
284.0708157086061192
  0
ARC
  5
346C1
  8
0
 10
3016.5631365844260472
 20
136.3644430540834946
 30
0.0
 40
2.1327692362673512
 50
284.0708157086061192
 51
301.1689931406507981
  0
LINE
  5
346C2
  8
0
 10
3017.6669812350792199
 20
134.5395508374328983
 30
0.0
 11
3018.8281225132950567
 21
135.1855226164672104
 31
0.0
  0
ARC
  5
346C3
  8
0
 10
3017.9420583398241433
 20
137.1092527374044892
 30
0.0
 40
2.117981892677733
 50
294.7306519092991834
 51
304.2226316357144924
  0
LINE
  5
346C4
  8
0
 10
3005.4557278816969301
 20
136.6398015128210943
 30
0.0
 11
3005.4578580685970337
 21
135.7363134149211135
 31
0.0
  0
ARC
  5
346C5
  8
0
 10
3005.1191005992050123
 20
135.7355147140580129
 30
0.0
 40
0.3387584109541224
 50
335.6495058287164852
 51
0.1350881025137382
  0
LINE
  5
346C6
  8
0
 10
3005.4277231498108449
 20
135.5958387238198952
 30
0.0
 11
3005.3853012861968637
 21
135.5958059026210947
 31
0.0
  0
ARC
  5
346C7
  8
0
 10
3005.9393678403798731
 20
135.7883477768650096
 30
0.0
 40
0.5864880375302053
 50
185.4104840570198007
 51
199.1653958655774943
  0
LINE
  5
346C8
  8
0
 10
3005.3554927666559706
 20
135.7330475377181074
 30
0.0
 11
3005.3523971639519914
 21
136.6420594986811921
 31
0.0
  0
ARC
  5
346C9
  8
0
 10
2993.1386695171790961
 20
138.1694337305582962
 30
0.0
 40
1.365212817157119
 50
170.5453898624789133
 51
179.4699713941463131
  0
LINE
  5
346CA
  8
0
 10
2991.7920016919961199
 20
138.393692074321109
 30
0.0
 11
2991.8240641249171858
 21
138.5862264794454859
 31
0.0
  0
ARC
  5
346CB
  8
0
 10
2987.1361097313970276
 20
137.7036009227356033
 30
0.0
 40
4.7703190951002137
 50
8.3565847840311118
 51
10.6625565421996704
  0
ARC
  5
346CC
  8
0
 10
2989.8911944292508451
 20
138.1086226908500123
 30
0.0
 40
1.985622686975441
 50
2.1196209222368001
 51
8.3474727260987773
  0
LINE
  5
346CD
  8
0
 10
3019.4111755634398833
 20
141.0549255560210895
 30
0.0
 11
3019.4789707124059532
 21
141.0874785407453089
 31
0.0
  0
ARC
  5
346CE
  8
0
 10
3019.5633948852751018
 20
140.9116559725709976
 30
0.0
 40
0.1950410634815872
 50
90.3782799250185747
 51
115.6487760865797014
  0
LINE
  5
346CF
  8
0
 10
3019.5621071886330355
 20
141.1066927852023127
 30
0.0
 11
3020.4847200519971011
 21
141.1066927851211119
 31
0.0
  0
ARC
  5
346D0
  8
0
 10
3020.483684820228973
 20
141.049958906459409
 30
0.0
 40
0.0567433228681563
 50
28.1572968576417786
 51
88.9546324648217137
  0
ARC
  5
346D1
  8
0
 10
3020.4622754521092247
 20
141.0973638194228954
 30
0.0
 40
0.096528192477769
 50
284.7297192163701993
 51
317.737326329881796
  0
LINE
  5
346D2
  8
0
 10
3020.486818674656206
 20
141.0040079295710029
 30
0.0
 11
3019.548661842608908
 21
141.0048433756838051
 31
0.0
  0
ARC
  5
346D3
  8
0
 10
3019.6021136377112271
 20
141.365335654082088
 30
0.0
 40
0.364433501731821
 50
238.4036814098737977
 51
261.5659498378628882
  0
ARC
  5
346D4
  8
0
 10
3020.1334475178127832
 20
156.0715397241172013
 30
0.0
 40
0.2354619530191482
 50
221.0827394535859867
 51
253.5222876831051906
  0
ARC
  5
346D5
  8
0
 10
3019.9747881355669961
 20
155.5351485090783967
 30
0.0
 40
0.3239022710295689
 50
25.5228679681083293
 51
73.5222876831052332
  0
ARC
  5
346D6
  8
0
 10
3020.0256376514321346
 20
155.5832536309621901
 30
0.0
 40
0.2581847130683483
 50
1.613072273777832
 51
20.7458570522716208
  0
LINE
  5
346D7
  8
0
 10
3020.2837200506969566
 20
155.5905214540210864
 30
0.0
 11
3020.2837200506969566
 21
154.0089590265127981
 31
0.0
  0
ARC
  5
346D8
  8
0
 10
3020.042698021879005
 20
154.003197240225802
 30
0.0
 40
0.2410908885811784
 50
339.1832429146398908
 51
1.369431554031326
  0
ARC
  5
346D9
  8
0
 10
3019.9923065542948279
 20
154.0402489449135999
 30
0.0
 40
0.3018240811290017
 50
295.11901417176
 51
336.0067000142122993
  0
ARC
  5
346DA
  8
0
 10
3025.3231083865989604
 20
140.8525721579684955
 30
0.0
 40
13.92298454920304
 50
111.9424712713232992
 51
112.4099192741330029
  0
ARC
  5
346DB
  8
0
 10
3020.084836024400829
 20
153.5553311146476858
 30
0.0
 40
0.1825485134701959
 50
112.4099192741330029
 51
162.9442536632618044
  0
ARC
  5
346DC
  8
0
 10
3000.8633876971061909
 20
145.2669532242701962
 30
0.0
 40
1.3744408263747561
 50
58.2843414478697781
 51
64.7155512589548607
  0
ARC
  5
346DD
  8
0
 10
3001.4357209437198435
 20
146.1930735003415975
 30
0.0
 40
0.2857424701115925
 50
46.2652218148416168
 51
58.2843414478697781
  0
LINE
  5
346DE
  8
0
 10
3001.6332607482968342
 20
146.3995360510211015
 30
0.0
 11
3002.6584317035221829
 21
145.3744645246825087
 31
0.0
  0
LINE
  5
346DF
  8
0
 10
3002.7312956972600659
 20
145.3016075978491131
 30
0.0
 11
3003.7377484086750883
 21
144.2952524998833894
 31
0.0
  0
ARC
  5
346E0
  8
0
 10
3003.3369994765062074
 20
143.9157930595739003
 30
0.0
 40
0.5520007267278285
 50
19.9474253058430691
 51
43.4200992208462324
  0
ARC
  5
346E1
  8
0
 10
3004.3552480040120827
 20
145.1749402608334947
 30
0.0
 40
1.181540134538547
 50
236.2793547700775889
 51
244.998710852933101
  0
ARC
  5
346E2
  8
0
 10
3004.0555109254551098
 20
144.640535049501409
 30
0.0
 40
0.5726113642396073
 50
225.7636638685146124
 51
231.5346301948941914
  0
LINE
  5
346E3
  8
0
 10
3003.6560460050309302
 20
144.2302771406120883
 30
0.0
 11
3002.6584317035221829
 21
145.2286856002012883
 31
0.0
  0
LINE
  5
346E4
  8
0
 10
3002.5855677097829357
 20
145.3016075978491131
 30
0.0
 11
3001.5599553879110317
 21
146.3280363658282965
 31
0.0
  0
ARC
  5
346E5
  8
0
 10
3001.9733862383468477
 20
146.7011256960045102
 30
0.0
 40
0.5568848322434772
 50
200.1028762797380978
 51
222.0638069157099892
  0
ARC
  5
346E6
  8
0
 10
3004.453475709938175
 20
145.2669532242701962
 30
0.0
 40
1.3744408263747561
 50
115.2844487410450967
 51
121.7156585521301935
  0
ARC
  5
346E7
  8
0
 10
3003.8811424633240676
 20
146.1930735003415975
 30
0.0
 40
0.2857424701115925
 50
121.7156585521301935
 51
133.7347781851584045
  0
LINE
  5
346E8
  8
0
 10
3003.6836026587470769
 20
146.3995360510211015
 30
0.0
 11
3002.6584317035221829
 21
145.3744645246825087
 31
0.0
  0
LINE
  5
346E9
  8
0
 10
3002.5855677097829357
 20
145.3016075978491131
 30
0.0
 11
3001.5791149983688229
 21
144.2952524998833894
 31
0.0
  0
ARC
  5
346EA
  8
0
 10
3001.9798639305381585
 20
143.9157930595739003
 30
0.0
 40
0.5520007267278285
 50
136.5799007791538031
 51
160.0525746941553962
  0
ARC
  5
346EB
  8
0
 10
3000.9616154030318285
 20
145.1749402608334947
 30
0.0
 40
1.181540134538547
 50
295.0012891470669274
 51
303.7206452299224111
  0
ARC
  5
346EC
  8
0
 10
3001.2613524815878918
 20
144.640535049501409
 30
0.0
 40
0.5726113642396073
 50
308.4653698051059223
 51
314.236336131485416
  0
LINE
  5
346ED
  8
0
 10
3001.6608174020129809
 20
144.2302771406120883
 30
0.0
 11
3002.6584317035221829
 21
145.2286856002012883
 31
0.0
  0
LINE
  5
346EE
  8
0
 10
3002.7312956972600659
 20
145.3016075978491131
 30
0.0
 11
3003.7569080191319699
 21
146.3280363658282965
 31
0.0
  0
ARC
  5
346EF
  8
0
 10
3003.3434771686970635
 20
146.7011256960045102
 30
0.0
 40
0.5568848322434772
 50
317.9361930842899824
 51
339.8971237202619022
  0
LINE
  5
346F1
  8
0
 10
3001.9009819116968174
 20
193.5588915584210952
 30
0.0
 11
2999.6062452677970214
 21
193.5588915584210952
 31
0.0
  0
LINE
  5
346F2
  8
0
 10
2998.4509782046839064
 20
191.0108362297318081
 30
0.0
 11
2999.4852901778472187
 21
191.0108362297318081
 31
0.0
  0
ARC
  5
346F3
  8
0
 10
2997.6185470285031442
 20
138.1694337305582962
 30
0.0
 40
1.365212817157119
 50
170.5453898624789133
 51
179.4699713941463131
  0
LINE
  5
346F4
  8
0
 10
2996.2718792033210775
 20
138.393692074321109
 30
0.0
 11
2996.3039416362407792
 21
138.5862264794454859
 31
0.0
  0
ARC
  5
346F5
  8
0
 10
2991.6159872427219852
 20
137.7036009227356033
 30
0.0
 40
4.7703190951002137
 50
8.3565847840311118
 51
10.6625565421996704
  0
ARC
  5
346F6
  8
0
 10
2994.3710719405748932
 20
138.1086226908500123
 30
0.0
 40
1.985622686975441
 50
2.1196209222368001
 51
8.3474727260987773
  0
ARC
  5
346F7
  8
0
 10
3002.6011175682901921
 20
138.1694337305582962
 30
0.0
 40
1.365212817157119
 50
170.5453898624789133
 51
179.4699713941463131
  0
LINE
  5
346F8
  8
0
 10
3001.2544497431072159
 20
138.393692074321109
 30
0.0
 11
3001.2865121760278271
 21
138.5862264794454859
 31
0.0
  0
ARC
  5
346F9
  8
0
 10
2996.5985577825081236
 20
137.7036009227356033
 30
0.0
 40
4.7703190951002137
 50
8.3565847840311118
 51
10.6625565421996704
  0
ARC
  5
346FA
  8
0
 10
2999.3536424803610316
 20
138.1086226908500123
 30
0.0
 40
1.985622686975441
 50
2.1196209222368001
 51
8.3474727260987773
  0
ARC
  5
346FB
  8
0
 10
3007.600352004954857
 20
138.1694337305582962
 30
0.0
 40
1.365212817157119
 50
170.5453898624789133
 51
179.4699713941463131
  0
LINE
  5
346FC
  8
0
 10
3006.2536841797718807
 20
138.393692074321109
 30
0.0
 11
3006.2857466126920372
 21
138.5862264794454859
 31
0.0
  0
ARC
  5
346FD
  8
0
 10
3001.597792219171879
 20
137.7036009227356033
 30
0.0
 40
4.7703190951002137
 50
8.3565847840311118
 51
10.6625565421996704
  0
ARC
  5
346FE
  8
0
 10
3004.352876917024787
 20
138.1086226908500123
 30
0.0
 40
1.985622686975441
 50
2.1196209222368001
 51
8.3474727260987773
  0
ARC
  5
346FF
  8
0
 10
3012.7159874508688517
 20
138.1694337305582962
 30
0.0
 40
1.365212817157119
 50
170.5453898624789133
 51
179.4699713941463131
  0
LINE
  5
34700
  8
0
 10
3011.3693196256858755
 20
138.393692074321109
 30
0.0
 11
3011.4013820586069414
 21
138.5862264794454859
 31
0.0
  0
ARC
  5
34701
  8
0
 10
3006.7134276650867832
 20
137.7036009227356033
 30
0.0
 40
4.7703190951002137
 50
8.3565847840311118
 51
10.6625565421996704
  0
ARC
  5
34702
  8
0
 10
3009.468512362940146
 20
138.1086226908500123
 30
0.0
 40
1.985622686975441
 50
2.1196209222368001
 51
8.3474727260987773
  0
ARC
  5
34703
  8
0
 10
3012.3668278573240968
 20
172.8658786549322031
 30
0.0
 40
42.8621130066690128
 50
240.9810078133012041
 51
241.6636410819290859
  0
ARC
  5
34704
  8
0
 10
2822.1266418452291873
 20
-170.1996699139909879
 30
0.0
 40
349.4233773110864831
 50
60.6659253514333301
 51
60.9077185579448468
  0
ARC
  5
34705
  8
0
 10
2994.379995412099106
 20
136.460068369834687
 30
0.0
 40
2.3039005609119938
 50
242.312847931164896
 51
261.6774412179858018
  0
ENDSEC
  0
EOF
