  0
SECTION
  2
HEADER
  9
$ACADVER
  1
AC1009
  9
$INSBASE
 10
2959.9450148599580643
 20
257.1612242028052151
 30
0.0
  9
$EXTMIN
 10
2941.7882478128631192
 20
221.8651620823445967
 30
-0.0000000349181948
  9
$EXTMAX
 10
2978.1414000304562251
 20
257.1827615097225248
 30
0.0000000814935746
  9
$LIMMIN
 10
0.0
 20
0.0
  9
$LIMMAX
 10
11.6929133858000007
 20
8.2677165353999982
  9
$ORTHOMODE
 70
     1
  9
$REGENMODE
 70
     1
  9
$FILLMODE
 70
     1
  9
$QTEXTMODE
 70
     0
  9
$MIRRTEXT
 70
     0
  9
$DRAGMODE
 70
     2
  9
$LTSCALE
 40
0.6431102362
  9
$OSMODE
 70
  4095
  9
$ATTMODE
 70
     1
  9
$TEXTSIZE
 40
0.2
  9
$TRACEWID
 40
0.05
  9
$TEXTSTYLE
  7
STANDARD
  9
$CLAYER
  8
0
  9
$CELTYPE
  6
BYLAYER
  9
$CECOLOR
 62
   256
  9
$DIMSCALE
 40
1.0
  9
$DIMASZ
 40
0.1875
  9
$DIMEXO
 40
0.0625
  9
$DIMDLI
 40
0.4443307087
  9
$DIMRND
 40
0.0
  9
$DIMDLE
 40
0.0
  9
$DIMEXE
 40
0.125
  9
$DIMTP
 40
0.01
  9
$DIMTM
 40
0.01
  9
$DIMTXT
 40
2.0
  9
$DIMCEN
 40
0.1052362205
  9
$DIMTSZ
 40
0.0
  9
$DIMTOL
 70
     1
  9
$DIMLIM
 70
     0
  9
$DIMTIH
 70
     1
  9
$DIMTOH
 70
     1
  9
$DIMSE1
 70
     0
  9
$DIMSE2
 70
     0
  9
$DIMTAD
 70
     0
  9
$DIMZIN
 70
     0
  9
$DIMBLK
  1

  9
$DIMASO
 70
     1
  9
$DIMSHO
 70
     1
  9
$DIMPOST
  1
\X
  9
$DIMAPOST
  1

  9
$DIMALT
 70
     1
  9
$DIMALTD
 70
     2
  9
$DIMALTF
 40
25.3999999999999986
  9
$DIMLFAC
 40
1.0
  9
$DIMTOFL
 70
     0
  9
$DIMTVP
 40
0.0
  9
$DIMTIX
 70
     0
  9
$DIMSOXD
 70
     0
  9
$DIMSAH
 70
     0
  9
$DIMBLK1
  1

  9
$DIMBLK2
  1

  9
$DIMSTYLE
  2
STANDARD
  9
$DIMCLRD
 70
     0
  9
$DIMCLRE
 70
     0
  9
$DIMCLRT
 70
     0
  9
$DIMTFAC
 40
1.0
  9
$DIMGAP
 40
0.09
  9
$LUNITS
 70
     2
  9
$LUPREC
 70
     4
  9
$SKETCHINC
 40
0.1
  9
$FILLETRAD
 40
0.0
  9
$AUNITS
 70
     0
  9
$AUPREC
 70
     0
  9
$MENU
  1
.
  9
$ELEVATION
 40
0.0
  9
$PELEVATION
 40
0.0
  9
$THICKNESS
 40
0.0
  9
$LIMCHECK
 70
     0
  9
$BLIPMODE
 70
     0
  9
$CHAMFERA
 40
0.0
  9
$CHAMFERB
 40
0.0
  9
$SKPOLY
 70
     0
  9
$TDCREATE
 40
2458060.468368056230247
  9
$TDUPDATE
 40
2459600.8006018521264195
  9
$TDINDWG
 40
0.442171412
  9
$TDUSRTIMER
 40
0.442171412
  9
$USRTIMER
 70
     1
  9
$ANGBASE
 50
0.0
  9
$ANGDIR
 70
     0
  9
$PDMODE
 70
     0
  9
$PDSIZE
 40
0.3125
  9
$PLINEWID
 40
0.0
  9
$COORDS
 70
     1
  9
$SPLFRAME
 70
     0
  9
$SPLINETYPE
 70
     6
  9
$SPLINESEGS
 70
     8
  9
$ATTDIA
 70
     1
  9
$ATTREQ
 70
     1
  9
$HANDLING
 70
     1
  9
$HANDSEED
  5
33E6B
  9
$SURFTAB1
 70
     6
  9
$SURFTAB2
 70
     6
  9
$SURFTYPE
 70
     6
  9
$SURFU
 70
     6
  9
$SURFV
 70
     6
  9
$UCSNAME
  2

  9
$UCSORG
 10
0.0
 20
0.0
 30
0.0
  9
$UCSXDIR
 10
1.0
 20
0.0
 30
0.0
  9
$UCSYDIR
 10
0.0
 20
1.0
 30
0.0
  9
$PUCSNAME
  2

  9
$PUCSORG
 10
0.0
 20
0.0
 30
0.0
  9
$PUCSXDIR
 10
1.0
 20
0.0
 30
0.0
  9
$PUCSYDIR
 10
0.0
 20
1.0
 30
0.0
  9
$USERI1
 70
     0
  9
$USERI2
 70
     0
  9
$USERI3
 70
     0
  9
$USERI4
 70
     0
  9
$USERI5
 70
     0
  9
$USERR1
 40
0.0
  9
$USERR2
 40
0.0
  9
$USERR3
 40
0.0
  9
$USERR4
 40
0.0
  9
$USERR5
 40
0.0
  9
$WORLDVIEW
 70
     1
  9
$SHADEDGE
 70
     3
  9
$SHADEDIF
 70
    70
  9
$TILEMODE
 70
     1
  9
$MAXACTVP
 70
    64
  9
$PLIMCHECK
 70
     0
  9
$PEXTMIN
 10
1.0000000000000000E+20
 20
1.0000000000000000E+20
 30
1.0000000000000000E+20
  9
$PEXTMAX
 10
-1.0000000000000000E+20
 20
-1.0000000000000000E+20
 30
-1.0000000000000000E+20
  9
$PLIMMIN
 10
0.0
 20
0.0
  9
$PLIMMAX
 10
12.0
 20
9.0
  9
$UNITMODE
 70
     0
  9
$VISRETAIN
 70
     1
  9
$PLINEGEN
 70
     0
  9
$PSLTSCALE
 70
     1
  0
ENDSEC
  0
SECTION
  2
TABLES
  0
TABLE
  2
VPORT
 70
     1
  0
VPORT
  2
*ACTIVE
 70
     0
 10
0.0
 20
0.0
 11
1.0
 21
1.0
 12
-843.5792434611530553
 22
113.5286995992835983
 13
0.0
 23
0.0
 14
1.0
 24
1.0
 15
0.0
 25
0.0
 16
0.0
 26
0.0
 36
17.1152628219792007
 17
3803.5440673828129547
 27
125.9952621967499056
 37
0.0
 40
35.5772876584615432
 41
2.344785276073619
 42
50.0
 43
0.0
 44
0.0
 50
0.0
 51
0.0
 71
     0
 72
   100
 73
     1
 74
     1
 75
     0
 76
     0
 77
     0
 78
     0
  0
ENDTAB
  0
TABLE
  2
LTYPE
 70
     2
  0
LTYPE
  2
CONTINUOUS
 70
     0
  3
Solid line
 72
    65
 73
     0
 40
0.0
  0
LTYPE
  2
PHANTOM2
 70
     0
  3
___ _ _ ___ _ _ ___ _ _ ___ _ _
 72
    65
 73
     6
 40
1.25
 49
0.625
 49
-0.125
 49
0.125
 49
-0.125
 49
0.125
 49
-0.125
  0
ENDTAB
  0
TABLE
  2
LAYER
 70
     2
  0
LAYER
  2
0
 70
     0
 62
   255
  6
CONTINUOUS
  0
LAYER
  2
DEFPOINTS
 70
     0
 62
     7
  6
CONTINUOUS
  0
ENDTAB
  0
TABLE
  2
STYLE
 70
     1
  0
STYLE
  2
STANDARD
 70
     0
 40
0.0
 41
0.8
 50
0.0
 71
     0
 42
0.2
  3
txt
  4

  0
ENDTAB
  0
TABLE
  2
VIEW
 70
     0
  0
ENDTAB
  0
TABLE
  2
UCS
 70
     0
  0
ENDTAB
  0
TABLE
  2
APPID
 70
     9
  0
APPID
  2
ACAD
 70
     0
  0
APPID
  2
ACAD_MLEADERVER
 70
     0
  0
APPID
  2
ACAD_EXEMPT_FROM_CAD_STANDARDS
 70
     0
  0
APPID
  2
ACAD_NAV_VCDISPLAY
 70
     0
  0
APPID
  2
ACAECLAYERSTANDARD
 70
     0
  0
APPID
  2
ACCMTRANSPARENCY
 70
     0
  0
APPID
  2
ACAD_DSTYLE_DIMJAG
 70
     0
  0
APPID
  2
ACAD_DSTYLE_DIMTALN
 70
     0
  0
APPID
  2
ACDBATTR
 70
     0
  0
ENDTAB
  0
TABLE
  2
DIMSTYLE
 70
     1
  0
DIMSTYLE
  2
STANDARD
 70
     0
  3

  4

  5

  6

  7

 40
1.0
 41
0.1875
 42
0.0625
 43
0.38
 44
0.125
 45
0.0
 46
0.0
 47
0.01
 48
0.01
140
0.15625
141
0.09
142
0.0
143
25.3999999999999986
144
1.0
145
0.0
146
1.0
147
0.09
 71
     1
 72
     0
 73
     1
 74
     1
 75
     0
 76
     0
 77
     0
 78
     4
170
     0
171
     2
172
     0
173
     0
174
     0
175
     0
176
     0
177
     0
178
     0
  0
ENDTAB
  0
ENDSEC
  0
SECTION
  2
BLOCKS
  0
BLOCK
  8
0
  2
$MODEL_SPACE
 70
     0
 10
0.0
 20
0.0
 30
0.0
  3
$MODEL_SPACE
  1

  0
ENDBLK
  5
21
  8
0
  0
BLOCK
 67
     1
  8
0
  2
$PAPER_SPACE
 70
     0
 10
0.0
 20
0.0
 30
0.0
  3
$PAPER_SPACE
  1

  0
ENDBLK
  5
1D
 67
     1
  8
0
  0
BLOCK
  8
0
  2
_FILLED
 70
     0
 10
0.0
 20
0.0
 30
0.0
  3
_FILLED
  1

  0
SOLID
  5
2EBF2
  8
0
  6
BYBLOCK
 62
     0
 10
0.0
 20
0.0
 30
0.0
 11
-1.0
 21
0.1666666667
 31
0.0
 12
-1.0
 22
-0.1666666667
 32
0.0
 13
-1.0
 23
-0.1666666667
 33
0.0
  0
ENDBLK
  5
2EBF3
  8
0
  6
BYBLOCK
 62
     0
  0
ENDSEC
  0
SECTION
  2
ENTITIES
  0
ATTDEF
  5
338DC
  8
DEFPOINTS
 10
2959.9459453980462058
 20
257.1660638407108763
 30
0.0
 40
0.001
  1
72500106
  3

  2
MODELNUMBER
 70
     0
1001
ACDBATTR
1070
     0
1070
     1
  0
ATTDEF
  5
338DD
  8
DEFPOINTS
 10
2959.9459453980462058
 20
257.1643971740442112
 30
0.0
 40
0.001
  1
TRAVERSE
  3

  2
TRADENAME
 70
     0
1001
ACDBATTR
1070
     0
1070
     1
  0
ATTDEF
  5
338DE
  8
DEFPOINTS
 10
2959.9459453980462058
 20
257.1627305073774892
 30
0.0
 40
0.001
  1
SHOWER STALL
  3

  2
PRODUCT
 70
     0
1001
ACDBATTR
1070
     0
1070
     1
  0
LINE
  5
33C2A
  8
0
 10
2942.1951406369839788
 20
257.1612242028052151
 30
0.0
 11
2977.6948890829257834
 21
257.1612242028052151
 31
0.0
  0
ARC
  5
33C2B
  8
0
 10
2942.1945523848621633
 20
256.9125209082449146
 30
0.0
 40
0.2487039902488764
 50
89.8644798758929966
 51
180.298732985776212
  0
LINE
  5
33C2C
  8
0
 10
2941.945851775050869
 20
256.9112242028656965
 30
0.0
 11
2941.945851775050869
 21
221.8697766845702972
 31
0.0
  0
ARC
  5
33C2D
  8
0
 10
2942.2765075890051776
 20
256.9912241785543188
 30
0.0
 40
0.1700000242539238
 50
90.0249641300135153
 51
178.0245860297243041
  0
ARC
  5
33C2E
  8
0
 10
1585.487316921215097
 20
303.7884375062242839
 30
0.0
 40
1357.4259955090969925
 50
357.9740439136775194
 51
358.0245860297242757
  0
ARC
  5
33C2F
  8
0
 10
2508.5082773313879443
 20
271.1371725604271887
 30
0.0
 40
433.8277070421484041
 50
357.7857902740875033
 51
357.9740439136775194
  0
ARC
  5
33C30
  8
0
 10
3166.5293861493878467
 20
245.6951154874303995
 30
0.0
 40
224.6850702964360096
 50
177.7857902740908003
 51
178.2774305634875134
  0
ARC
  5
33C31
  8
0
 10
2942.561495950499193
 20
252.7941931624934
 30
0.0
 40
0.0631968780868075
 50
88.1129691808858837
 51
176.9269495310487059
  0
LINE
  5
33C32
  8
0
 10
2942.4983899497578932
 20
252.7975810926052134
 30
0.0
 11
2942.4878168480317981
 21
252.4822083099423082
 31
0.0
  0
ARC
  5
33C33
  8
0
 10
2942.4278514786460619
 20
252.4842479347805124
 30
0.0
 40
0.0600000466268537
 50
268.0000206790588777
 51
358.0519279503653252
  0
LINE
  5
33C34
  8
0
 10
2942.4257575288579574
 20
252.4242844378051984
 30
0.0
 11
2942.0699934842350558
 21
252.4367079920288006
 31
0.0
  0
ARC
  5
33C35
  8
0
 10
2942.0668761811029981
 20
252.6364499357295017
 30
0.0
 40
0.1997662675531819
 50
250.2381232125289046
 51
270.8941227399944864
  0
ARC
  5
33C36
  8
0
 10
2941.7260984042641212
 20
252.6297749459994009
 30
0.0
 40
0.3279272088358113
 50
326.4306036761794871
 51
356.4618686668480905
  0
ARC
  5
33C37
  8
0
 10
2901.1660016019682189
 20
255.1376322723565977
 30
0.0
 40
40.9654812811593416
 50
356.4618686668480905
 51
359.5367612793344279
  0
ARC
  5
33C38
  8
0
 10
2983.0942853883038879
 20
254.4752243137450023
 30
0.0
 40
40.9654803174833191
 50
176.4618686640428962
 51
179.5367612793311025
  0
ARC
  5
33C39
  8
0
 10
2942.2685072452090935
 20
256.9995088932657268
 30
0.0
 40
0.0617375348522239
 50
91.5374463075458209
 51
176.4618686640428962
  0
LINE
  5
33C3A
  8
0
 10
2942.2668508098581697
 20
257.0612242028051924
 30
0.0
 11
2977.623178910057959
 21
257.0612242028051924
 31
0.0
  0
LINE
  5
33C3B
  8
0
 10
2942.5635769571531455
 20
252.8573557686083007
 30
0.0
 11
2942.7245000257880747
 21
252.8516924412406865
 31
0.0
  0
ARC
  5
33C3C
  8
0
 10
2942.7223018389581739
 20
252.789231109403886
 30
0.0
 40
0.0625000000012094
 50
2.0001406082527571
 51
87.9844350660919901
  0
LINE
  5
33C3D
  8
0
 10
2942.7847637602949362
 20
252.7914124812342891
 30
0.0
 11
2942.7960862879790511
 21
252.4672005226441911
 31
0.0
  0
ARC
  5
33C3E
  8
0
 10
2942.8560494791017845
 20
252.4692946307530974
 30
0.0
 40
0.0599997464867052
 50
182.0001406082527069
 51
268.0011135668668203
  0
ARC
  5
33C3F
  8
0
 10
1795.8354964842710615
 20
-32612.2151536741184827
 30
0.0
 40
32884.6346169843309326
 50
87.9992134138712743
 51
88.0011135668668061
  0
ARC
  5
33C40
  8
0
 10
2943.9412472504600373
 20
252.4315738029235945
 30
0.0
 40
0.0603573914459455
 50
272.4962292746847083
 51
349.8801434010247249
  0
ARC
  5
33C41
  8
0
 10
3313.1348597489918575
 20
187.5837592397012088
 30
0.0
 40
374.7851611020097948
 50
169.887136616726707
 51
170.0378053603103865
  0
LINE
  5
33C42
  8
0
 10
2946.7139276495381637
 20
255.8295396238052035
 30
0.0
 11
2977.7388317540699063
 21
255.8295396238052035
 31
0.0
  0
ARC
  5
33C43
  8
0
 10
2948.0183977749061341
 20
252.7656539422038122
 30
0.0
 40
3.8965353972568608
 50
154.8988024248286024
 51
170.7581981686008135
  0
ARC
  5
33C44
  8
0
 10
2946.6261344394652042
 20
253.4178732316661069
 30
0.0
 40
2.3590741142451912
 50
120.2214861991305952
 51
154.8988024248286024
  0
ARC
  5
33C45
  8
0
 10
2946.7888157839388441
 20
253.1385996447729951
 30
0.0
 40
2.6822752221887072
 50
102.5226254409753039
 51
120.2214861991305952
  0
ARC
  5
33C46
  8
0
 10
2946.9324463714151534
 20
252.4919325113081072
 30
0.0
 40
3.3447011630775512
 50
93.8429852362848465
 51
102.5226254409753039
  0
LINE
  5
33C47
  8
0
 10
2941.9702210364580424
 20
252.4032570653052119
 30
0.0
 11
2942.5847790364550747
 21
252.3817962270219084
 31
0.0
  0
LINE
  5
33C48
  8
0
 10
2942.5847790364550747
 20
252.3817962270219084
 30
0.0
 11
2942.596734452335113
 21
252.7241545445060069
 31
0.0
  0
LINE
  5
33C49
  8
0
 10
2942.596734452335113
 20
252.7241545445060069
 30
0.0
 11
2942.7223387981271117
 21
252.7197683441027038
 31
0.0
  0
ARC
  5
33C4A
  8
0
 10
2942.7201575795861572
 20
252.6573064174430101
 30
0.0
 40
0.0624999999710522
 50
1.999999966267358
 51
88.0000000015345307
  0
LINE
  5
33C4B
  8
0
 10
2942.782619506246192
 20
252.6594876359490058
 30
0.0
 11
2942.7925701021408713
 21
252.374539846801099
 31
0.0
  0
LINE
  5
33C4C
  8
0
 10
2942.7925701021408713
 20
252.374539846801099
 30
0.0
 11
2944.2119255108577818
 21
252.3249776336051866
 31
0.0
  0
ARC
  5
33C4D
  8
0
 10
2944.2097154489988498
 20
252.2616862054939872
 30
0.0
 40
0.0633300027299747
 50
0.0837593549291021
 51
88.0001116759982835
  0
ARC
  5
33C4E
  8
0
 10
1959.3113378429650311
 20
250.8218853641920134
 30
0.0
 40
984.9627600144750659
 50
358.6140184698114126
 51
0.0837593549291021
  0
ARC
  5
33C4F
  8
0
 10
2943.3617992004101325
 20
227.0131185835710141
 30
0.0
 40
0.6243182814427902
 50
305.3483945086633184
 51
358.6140184698114126
  0
LINE
  5
33C50
  8
0
 10
2941.9702210364580424
 20
252.4032570653052119
 30
0.0
 11
2941.9450148599580643
 21
251.9133989194386061
 31
0.0
  0
ARC
  5
33C51
  8
0
 10
2941.5570307656321347
 20
252.175282481660588
 30
0.0
 40
0.5213712268423683
 50
15.1948981346462197
 51
25.6876598317603602
  0
ARC
  5
33C52
  8
0
 10
2941.7818437261539657
 20
252.2363413156643048
 30
0.0
 40
0.2884140453072087
 50
0.914479720651227
 51
15.1948981346462197
  0
LINE
  5
33C53
  8
0
 10
2942.0702210364579514
 20
252.2409444051052105
 30
0.0
 11
2942.0702210364579514
 21
221.9527761643051065
 31
0.0
  0
ARC
  5
33C54
  8
0
 10
2941.9982915613168188
 20
221.9436380507551974
 30
0.0
 40
0.0725076169328915
 50
279.2804884331509925
 51
7.2402238058170303
  0
LINE
  5
33C55
  8
0
 10
2942.0099847013279941
 20
221.8720795083582118
 30
0.0
 11
2941.945851775050869
 21
221.8697766845702972
 31
0.0
  0
ARC
  5
33C56
  8
0
 10
2942.1339797521009132
 20
223.0442619528865862
 30
0.0
 40
0.0644543501608526
 50
93.0588826319002749
 51
171.5745433175021049
  0
LINE
  5
33C57
  8
0
 10
2942.1305403251581083
 20
223.1086244699052088
 30
0.0
 11
2943.3934662663727977
 21
223.1528639450268088
 31
0.0
  0
ARC
  5
33C58
  8
0
 10
2943.3929425460219136
 20
223.4028550493908085
 30
0.0
 40
0.2499916529488884
 50
270.1200319585990997
 51
359.3553594229560986
  0
ARC
  5
33C59
  8
0
 10
2890.1330263381109944
 20
226.3336869840316012
 30
0.0
 40
53.5902492653111509
 50
356.8619381751873902
 51
0.1819765839436533
  0
ARC
  5
33C5A
  8
0
 10
2907.0872444638989691
 20
227.9826680877492038
 30
0.0
 40
36.6655934736766511
 50
357.6885553361722145
 51
1.0170229899767611
  0
ARC
  5
33C5B
  8
0
 10
27167770.1306719183921814
 20
-306747.9554953236947767
 30
0.0
 40
27166560.82535744830966
 50
179.3525448826210891
 51
179.352555614621906
  0
ARC
  5
33C5C
  8
0
 10
2152.5501329499170424
 20
251.9392237597315898
 30
0.0
 40
791.4641181054751087
 50
358.6810759961771282
 51
0.024055987160607
  0
ARC
  5
33C5D
  8
0
 10
2943.9495141361121568
 20
252.2703768277469862
 30
0.0
 40
0.0646773494725292
 50
1.0170544760682589
 51
78.1559242569327211
  0
CIRCLE
  5
33C5E
  8
0
 10
2959.9450148599580643
 20
241.2657242028051883
 30
0.0
 40
2.2689054088999989
  0
CIRCLE
  5
33C5F
  8
0
 10
2959.9450148599580643
 20
241.2657242028051883
 30
0.0
 40
1.5937500000000011
  0
ARC
  5
33C60
  8
0
 10
2944.9098744113630346
 20
205.5091246783707959
 30
0.0
 40
46.8721277069633189
 50
90.3536202500250027
 51
91.1814873463762439
  0
LINE
  5
33C61
  8
0
 10
2947.0493250343579348
 20
252.3783834237461861
 30
0.0
 11
2972.8407046852180429
 21
252.3783528325051861
 31
0.0
  0
ARC
  5
33C62
  8
0
 10
2946.9736952900361757
 20
856.2116575466541235
 30
0.0
 40
603.8333094504380369
 50
269.8412425191643251
 51
270.0071762605572872
  0
ARC
  5
33C63
  8
0
 10
2945.0081372922600167
 20
146.8410574963189958
 30
0.0
 40
105.5400137257404936
 50
89.8412425191642541
 51
90.2103934400751939
  0
LINE
  5
33C64
  8
0
 10
2943.8792664575821618
 20
226.6638322335670068
 30
0.0
 11
2976.0107632623348763
 21
226.6638322335670068
 31
0.0
  0
LINE
  5
33C65
  8
0
 10
2944.0116132876419215
 20
228.0841160252815882
 30
0.0
 11
2975.8784164322751167
 21
228.0841160252815882
 31
0.0
  0
LINE
  5
33C66
  8
0
 10
2943.4570426410391519
 20
223.1612242028051014
 30
0.0
 11
2976.4329750804758987
 21
223.1612242028051014
 31
0.0
  0
LINE
  5
33C67
  8
0
 10
2943.647416225462166
 20
223.4832674881052128
 30
0.0
 11
2976.2426134944539626
 21
223.4832674881052128
 31
0.0
  0
ARC
  5
33C68
  8
0
 10
2977.6954773350539654
 20
256.9125209082449146
 30
0.0
 40
0.2487039902488764
 50
359.7012670142204911
 51
90.135520124106975
  0
LINE
  5
33C69
  8
0
 10
2977.9441779448661691
 20
256.9112242028656965
 30
0.0
 11
2977.9441779448661691
 21
221.8697766845702972
 31
0.0
  0
ARC
  5
33C6A
  8
0
 10
2977.6135221309109511
 20
256.9912241785543188
 30
0.0
 40
0.1700000242539238
 50
1.9754139702756961
 51
89.9750358699865131
  0
ARC
  5
33C6B
  8
0
 10
4334.4027127987010317
 20
303.7884375062242839
 30
0.0
 40
1357.4259955090969925
 50
181.9754139702756959
 51
182.025956086322509
  0
ARC
  5
33C6C
  8
0
 10
3411.3817523885290939
 20
271.1371725604271887
 30
0.0
 40
433.8277070421484041
 50
182.025956086322509
 51
182.2142097259091997
  0
ARC
  5
33C6D
  8
0
 10
2753.3606435705291915
 20
245.6951154874303995
 30
0.0
 40
224.6850702964360096
 50
1.722569436512446
 51
2.214209725909233
  0
ARC
  5
33C6E
  8
0
 10
2977.3285337694178452
 20
252.7941931624934
 30
0.0
 40
0.0631968780868075
 50
3.0730504689512759
 51
91.8870308191141163
  0
LINE
  5
33C6F
  8
0
 10
2977.391639770159145
 20
252.7975810926052134
 30
0.0
 11
2977.4022128718829663
 21
252.4822083099423082
 31
0.0
  0
ARC
  5
33C70
  8
0
 10
2977.4621782412709763
 20
252.4842479347805124
 30
0.0
 40
0.0600000466268537
 50
181.9480720496347033
 51
271.9999793209411223
  0
LINE
  5
33C71
  8
0
 10
2977.4642721910581713
 20
252.4242844378051984
 30
0.0
 11
2977.8200362356819824
 21
252.4367079920288006
 31
0.0
  0
ARC
  5
33C72
  8
0
 10
2977.8231535388140401
 20
252.6364499357295017
 30
0.0
 40
0.1997662675531819
 50
269.1058772600055136
 51
289.7618767874711239
  0
ARC
  5
33C73
  8
0
 10
2978.1639313156520075
 20
252.6297749459994009
 30
0.0
 40
0.3279272088358113
 50
183.5381313331517958
 51
213.5693963238205129
  0
ARC
  5
33C74
  8
0
 10
3018.7240281179488193
 20
255.1376322723565977
 30
0.0
 40
40.9654812811593416
 50
180.4632387206654869
 51
183.5381313331517958
  0
ARC
  5
33C75
  8
0
 10
2936.795744331611786
 20
254.4752243137450023
 30
0.0
 40
40.9654803174833191
 50
0.4632387206688142
 51
3.5381313359603519
  0
ARC
  5
33C76
  8
0
 10
2977.6215224747070351
 20
256.9995088932657268
 30
0.0
 40
0.0617375348522239
 50
3.5381313359571021
 51
88.4625536924541933
  0
LINE
  5
33C77
  8
0
 10
2977.3264527627638927
 20
252.8573557686083007
 30
0.0
 11
2977.1655296941289635
 21
252.8516924412406865
 31
0.0
  0
ARC
  5
33C78
  8
0
 10
2977.1677278809579548
 20
252.789231109403886
 30
0.0
 40
0.0625000000012094
 50
92.0155649339080242
 51
177.9998593917472078
  0
LINE
  5
33C79
  8
0
 10
2977.1052659596211925
 20
252.7914124812342891
 30
0.0
 11
2977.093943431937987
 21
252.4672005226441911
 31
0.0
  0
ARC
  5
33C7A
  8
0
 10
2977.0339802408138894
 20
252.4692946307530974
 30
0.0
 40
0.0599997464867052
 50
271.9988864331331797
 51
357.9998593917471794
  0
ARC
  5
33C7B
  8
0
 10
4124.0545332356450672
 20
-32612.2151536741184827
 30
0.0
 40
32884.6346169843309326
 50
91.9988864331331939
 51
92.0007865861287257
  0
ARC
  5
33C7C
  8
0
 10
2975.9487824694560913
 20
252.4315738029235945
 30
0.0
 40
0.0603573914459455
 50
190.1198565989751899
 51
267.5037707253152917
  0
ARC
  5
33C7D
  8
0
 10
2606.7551699709251807
 20
187.5837592397012088
 30
0.0
 40
374.7851611020097948
 50
9.9621946396896011
 51
10.1128633832733001
  0
ARC
  5
33C7E
  8
0
 10
2971.8716319450099945
 20
252.7656539422038122
 30
0.0
 40
3.8965353972568608
 50
9.2418018313991421
 51
25.1011975751713514
  0
ARC
  5
33C7F
  8
0
 10
2973.2638952804509245
 20
253.4178732316661069
 30
0.0
 40
2.3590741142451912
 50
25.1011975751713514
 51
59.7785138008694616
  0
ARC
  5
33C80
  8
0
 10
2973.1012139359781941
 20
253.1385996447729951
 30
0.0
 40
2.6822752221887072
 50
59.7785138008694616
 51
77.477374559024625
  0
ARC
  5
33C81
  8
0
 10
2972.9575833485009753
 20
252.4919325113081072
 30
0.0
 40
3.3447011630775512
 50
77.477374559024625
 51
86.1570147637151678
  0
LINE
  5
33C82
  8
0
 10
2977.9198086834580863
 20
252.4032570653052119
 30
0.0
 11
2977.305250683461054
 21
252.3817962270219084
 31
0.0
  0
LINE
  5
33C83
  8
0
 10
2977.305250683461054
 20
252.3817962270219084
 30
0.0
 11
2977.2932952675819251
 21
252.7241545445060069
 31
0.0
  0
LINE
  5
33C84
  8
0
 10
2977.2932952675819251
 20
252.7241545445060069
 30
0.0
 11
2977.167690921789017
 21
252.7197683441027038
 31
0.0
  0
ARC
  5
33C85
  8
0
 10
2977.1698721403308809
 20
252.6573064174430101
 30
0.0
 40
0.0624999999710522
 50
91.9999999984654551
 51
178.0000000337325901
  0
LINE
  5
33C86
  8
0
 10
2977.1074102136690271
 20
252.6594876359490058
 30
0.0
 11
2977.0974596177748026
 21
252.374539846801099
 31
0.0
  0
LINE
  5
33C87
  8
0
 10
2977.0974596177748026
 20
252.374539846801099
 30
0.0
 11
2975.6781042090578921
 21
252.3249776336051866
 31
0.0
  0
ARC
  5
33C88
  8
0
 10
2975.6803142709168242
 20
252.2616862054939872
 30
0.0
 40
0.0633300027299747
 50
91.9998883240017165
 51
179.9162406450709
  0
ARC
  5
33C89
  8
0
 10
3960.5786918769508702
 20
250.8218853641920134
 30
0.0
 40
984.9627600144750659
 50
179.9162406450709
 51
181.3859815301885021
  0
ARC
  5
33C8A
  8
0
 10
2976.5282305195069057
 20
227.0131185835710141
 30
0.0
 40
0.6243182814427902
 50
181.3859815301885021
 51
234.65160549133671
  0
LINE
  5
33C8B
  8
0
 10
2977.9198086834580863
 20
252.4032570653052119
 30
0.0
 11
2977.9450148599580643
 21
251.9133989194386061
 31
0.0
  0
ARC
  5
33C8C
  8
0
 10
2978.332998954283994
 20
252.175282481660588
 30
0.0
 40
0.5213712268423683
 50
154.3123401682395865
 51
164.8051018653536914
  0
ARC
  5
33C8D
  8
0
 10
2978.108185993762163
 20
252.2363413156643048
 30
0.0
 40
0.2884140453072087
 50
164.8051018653536914
 51
179.0855202793487138
  0
LINE
  5
33C8E
  8
0
 10
2977.8198086834581773
 20
252.2409444051052105
 30
0.0
 11
2977.8198086834581773
 21
221.9527761643051065
 31
0.0
  0
ARC
  5
33C8F
  8
0
 10
2977.8917381585988551
 20
221.9436380507551974
 30
0.0
 40
0.0725076169328915
 50
172.7597761941829901
 51
260.7195115668490075
  0
LINE
  5
33C90
  8
0
 10
2977.880045018589044
 20
221.8720795083582118
 30
0.0
 11
2977.9441779448661691
 21
221.8697766845702972
 31
0.0
  0
ARC
  5
33C91
  8
0
 10
2977.7560499678152155
 20
223.0442619528865862
 30
0.0
 40
0.0644543501608526
 50
8.425456682501073
 51
86.9411173680997251
  0
LINE
  5
33C92
  8
0
 10
2977.7594893947580204
 20
223.1086244699052088
 30
0.0
 11
2976.4965634535428762
 21
223.1528639450268088
 31
0.0
  0
ARC
  5
33C93
  8
0
 10
2976.4970871738942151
 20
223.4028550493908085
 30
0.0
 40
0.2499916529488884
 50
180.6446405770406045
 51
269.879968041401014
  0
ARC
  5
33C94
  8
0
 10
3029.7570033818051343
 20
226.3336869840316012
 30
0.0
 40
53.5902492653111509
 50
179.8180234160562918
 51
183.1380618248124961
  0
ARC
  5
33C95
  8
0
 10
3012.8027852560171596
 20
227.9826680877492038
 30
0.0
 40
36.6655934736766511
 50
178.9829770100199937
 51
182.3114446638278139
  0
ARC
  5
33C96
  8
0
 10
-27161850.2406422011554241
 20
-306747.9554953236947767
 30
0.0
 40
27166560.82535744830966
 50
0.6474443853781368
 51
0.6474551173788813
  0
ARC
  5
33C97
  8
0
 10
3767.3398967699990862
 20
251.9392237597315898
 30
0.0
 40
791.4641181054751087
 50
179.9759440128393919
 51
181.3189240038229002
  0
ARC
  5
33C98
  8
0
 10
2975.9405155838039718
 20
252.2703768277469862
 30
0.0
 40
0.0646773494725292
 50
101.8440757430672932
 51
178.9829455239317042
  0
ARC
  5
33C99
  8
0
 10
2974.9801553085540036
 20
205.5091246783707959
 30
0.0
 40
46.8721277069633189
 50
88.8185126536237561
 51
89.6463797499750115
  0
ARC
  5
33C9A
  8
0
 10
2972.9163344298808624
 20
856.2116575466541235
 30
0.0
 40
603.8333094504380369
 50
269.9928237394427128
 51
270.1587574808356749
  0
ARC
  5
33C9B
  8
0
 10
2974.881892427656112
 20
146.8410574963189958
 30
0.0
 40
105.5400137257404936
 50
89.7896065599248061
 51
90.1587574808357459
  0
ENDSEC
  0
EOF
