  0
SECTION
  2
HEADER
  9
$ACADVER
  1
AC1009
  9
$INSBASE
 10
1080.1255537591530356
 20
82.813725375970435
 30
0.0
  9
$EXTMIN
 10
1048.832467713584947
 20
82.8091080980913148
 30
-0.0000000000000058
  9
$EXTMAX
 10
1080.149262519074
 20
159.5843127646409982
 30
0.0000000000000104
  9
$LIMMIN
 10
0.0
 20
0.0
  9
$LIMMAX
 10
11.6929133858000007
 20
8.2677165353999982
  9
$ORTHOMODE
 70
     1
  9
$REGENMODE
 70
     1
  9
$FILLMODE
 70
     1
  9
$QTEXTMODE
 70
     0
  9
$MIRRTEXT
 70
     0
  9
$DRAGMODE
 70
     2
  9
$LTSCALE
 40
0.6431102362
  9
$OSMODE
 70
    23
  9
$ATTMODE
 70
     1
  9
$TEXTSIZE
 40
0.2
  9
$TRACEWID
 40
0.05
  9
$TEXTSTYLE
  7
STANDARD
  9
$CLAYER
  8
0
  9
$CELTYPE
  6
BYLAYER
  9
$CECOLOR
 62
   256
  9
$DIMSCALE
 40
1.0
  9
$DIMASZ
 40
0.1875
  9
$DIMEXO
 40
0.0625
  9
$DIMDLI
 40
0.4443307087
  9
$DIMRND
 40
0.0
  9
$DIMDLE
 40
0.0
  9
$DIMEXE
 40
0.125
  9
$DIMTP
 40
0.01
  9
$DIMTM
 40
0.01
  9
$DIMTXT
 40
2.0
  9
$DIMCEN
 40
0.1052362205
  9
$DIMTSZ
 40
0.0
  9
$DIMTOL
 70
     1
  9
$DIMLIM
 70
     0
  9
$DIMTIH
 70
     1
  9
$DIMTOH
 70
     1
  9
$DIMSE1
 70
     0
  9
$DIMSE2
 70
     0
  9
$DIMTAD
 70
     0
  9
$DIMZIN
 70
     0
  9
$DIMBLK
  1

  9
$DIMASO
 70
     1
  9
$DIMSHO
 70
     1
  9
$DIMPOST
  1
\X
  9
$DIMAPOST
  1

  9
$DIMALT
 70
     1
  9
$DIMALTD
 70
     2
  9
$DIMALTF
 40
25.3999999999999986
  9
$DIMLFAC
 40
1.0
  9
$DIMTOFL
 70
     0
  9
$DIMTVP
 40
0.0
  9
$DIMTIX
 70
     0
  9
$DIMSOXD
 70
     0
  9
$DIMSAH
 70
     0
  9
$DIMBLK1
  1

  9
$DIMBLK2
  1

  9
$DIMSTYLE
  2
STANDARD
  9
$DIMCLRD
 70
     0
  9
$DIMCLRE
 70
     0
  9
$DIMCLRT
 70
     0
  9
$DIMTFAC
 40
1.0
  9
$DIMGAP
 40
0.09
  9
$LUNITS
 70
     2
  9
$LUPREC
 70
     4
  9
$SKETCHINC
 40
0.1
  9
$FILLETRAD
 40
0.0
  9
$AUNITS
 70
     0
  9
$AUPREC
 70
     0
  9
$MENU
  1
.
  9
$ELEVATION
 40
0.0
  9
$PELEVATION
 40
0.0
  9
$THICKNESS
 40
0.0
  9
$LIMCHECK
 70
     0
  9
$BLIPMODE
 70
     0
  9
$CHAMFERA
 40
0.0
  9
$CHAMFERB
 40
0.0
  9
$SKPOLY
 70
     0
  9
$TDCREATE
 40
2458106.4931018520146608
  9
$TDUPDATE
 40
2459712.5570254628546536
  9
$TDINDWG
 40
0.27205875
  9
$TDUSRTIMER
 40
0.27205875
  9
$USRTIMER
 70
     1
  9
$ANGBASE
 50
0.0
  9
$ANGDIR
 70
     0
  9
$PDMODE
 70
     0
  9
$PDSIZE
 40
0.3125
  9
$PLINEWID
 40
0.0
  9
$COORDS
 70
     1
  9
$SPLFRAME
 70
     0
  9
$SPLINETYPE
 70
     6
  9
$SPLINESEGS
 70
     8
  9
$ATTDIA
 70
     1
  9
$ATTREQ
 70
     1
  9
$HANDLING
 70
     1
  9
$HANDSEED
  5
64C6
  9
$SURFTAB1
 70
     6
  9
$SURFTAB2
 70
     6
  9
$SURFTYPE
 70
     6
  9
$SURFU
 70
     6
  9
$SURFV
 70
     6
  9
$UCSNAME
  2

  9
$UCSORG
 10
0.0
 20
0.0
 30
0.0
  9
$UCSXDIR
 10
1.0
 20
0.0
 30
0.0
  9
$UCSYDIR
 10
0.0
 20
1.0
 30
0.0
  9
$PUCSNAME
  2

  9
$PUCSORG
 10
0.0
 20
0.0
 30
0.0
  9
$PUCSXDIR
 10
1.0
 20
0.0
 30
0.0
  9
$PUCSYDIR
 10
0.0
 20
1.0
 30
0.0
  9
$USERI1
 70
     0
  9
$USERI2
 70
     0
  9
$USERI3
 70
     0
  9
$USERI4
 70
     0
  9
$USERI5
 70
     0
  9
$USERR1
 40
0.0
  9
$USERR2
 40
0.0
  9
$USERR3
 40
0.0
  9
$USERR4
 40
0.0
  9
$USERR5
 40
0.0
  9
$WORLDVIEW
 70
     1
  9
$SHADEDGE
 70
     3
  9
$SHADEDIF
 70
    70
  9
$TILEMODE
 70
     1
  9
$MAXACTVP
 70
    64
  9
$PLIMCHECK
 70
     0
  9
$PEXTMIN
 10
1.0000000000000000E+20
 20
1.0000000000000000E+20
 30
1.0000000000000000E+20
  9
$PEXTMAX
 10
-1.0000000000000000E+20
 20
-1.0000000000000000E+20
 30
-1.0000000000000000E+20
  9
$PLIMMIN
 10
0.0
 20
0.0
  9
$PLIMMAX
 10
12.0
 20
9.0
  9
$UNITMODE
 70
     0
  9
$VISRETAIN
 70
     1
  9
$PLINEGEN
 70
     0
  9
$PSLTSCALE
 70
     1
  0
ENDSEC
  0
SECTION
  2
TABLES
  0
TABLE
  2
VPORT
 70
     1
  0
VPORT
  2
*ACTIVE
 70
     0
 10
0.0
 20
0.0
 11
1.0
 21
1.0
 12
790.916663559816584
 22
138.8026711653876077
 13
0.0
 23
0.0
 14
1.0
 24
1.0
 15
0.0
 25
0.0
 16
-0.0000000000000568
 26
0.0
 36
193.9250709296327955
 17
273.5742015565131169
 27
-17.6059607340214797
 37
0.0
 40
77.2560514598683454
 41
2.005224660397074
 42
50.0
 43
0.0
 44
0.0
 50
0.0
 51
0.0
 71
     0
 72
   100
 73
     1
 74
     1
 75
     0
 76
     0
 77
     0
 78
     0
  0
ENDTAB
  0
TABLE
  2
LTYPE
 70
     2
  0
LTYPE
  2
CONTINUOUS
 70
     0
  3
Solid line
 72
    65
 73
     0
 40
0.0
  0
LTYPE
  2
PHANTOM2
 70
     0
  3
___ _ _ ___ _ _ ___ _ _ ___ _ _
 72
    65
 73
     6
 40
1.25
 49
0.625
 49
-0.125
 49
0.125
 49
-0.125
 49
0.125
 49
-0.125
  0
ENDTAB
  0
TABLE
  2
LAYER
 70
     2
  0
LAYER
  2
0
 70
     0
 62
   255
  6
CONTINUOUS
  0
LAYER
  2
DEFPOINTS
 70
     0
 62
     7
  6
CONTINUOUS
  0
ENDTAB
  0
TABLE
  2
STYLE
 70
     1
  0
STYLE
  2
STANDARD
 70
     0
 40
0.0
 41
0.8
 50
0.0
 71
     0
 42
0.2
  3
txt
  4

  0
ENDTAB
  0
TABLE
  2
VIEW
 70
     0
  0
ENDTAB
  0
TABLE
  2
UCS
 70
     0
  0
ENDTAB
  0
TABLE
  2
APPID
 70
    10
  0
APPID
  2
ACAD
 70
     0
  0
APPID
  2
ACAD_MLEADERVER
 70
     0
  0
APPID
  2
ACAD_EXEMPT_FROM_CAD_STANDARDS
 70
     0
  0
APPID
  2
ACAD_NAV_VCDISPLAY
 70
     0
  0
APPID
  2
ACAD_DSTYLE_DIMJAG
 70
     0
  0
APPID
  2
ACAD_DSTYLE_DIMTALN
 70
     0
  0
APPID
  2
ACAECLAYERSTANDARD
 70
     0
  0
APPID
  2
ACCMTRANSPARENCY
 70
     0
  0
APPID
  2
ACDBATTR
 70
     0
  0
APPID
  2
DCO15
 70
     0
  0
ENDTAB
  0
TABLE
  2
DIMSTYLE
 70
     1
  0
DIMSTYLE
  2
STANDARD
 70
     0
  3

  4

  5

  6

  7

 40
1.0
 41
0.1875
 42
0.0625
 43
0.38
 44
0.125
 45
0.0
 46
0.0
 47
0.01
 48
0.01
140
0.15625
141
0.09
142
0.0
143
25.3999999999999986
144
1.0
145
0.0
146
1.0
147
0.09
 71
     1
 72
     0
 73
     1
 74
     1
 75
     0
 76
     0
 77
     0
 78
     4
170
     0
171
     2
172
     0
173
     0
174
     0
175
     0
176
     0
177
     0
178
     0
  0
ENDTAB
  0
ENDSEC
  0
SECTION
  2
BLOCKS
  0
BLOCK
  8
0
  2
$MODEL_SPACE
 70
     0
 10
0.0
 20
0.0
 30
0.0
  3
$MODEL_SPACE
  1

  0
ENDBLK
  5
21
  8
0
  0
BLOCK
 67
     1
  8
0
  2
$PAPER_SPACE
 70
     0
 10
0.0
 20
0.0
 30
0.0
  3
$PAPER_SPACE
  1

  0
ENDBLK
  5
1D
 67
     1
  8
0
  0
ENDSEC
  0
SECTION
  2
ENTITIES
  0
ATTDEF
  5
FAA
  8
DEFPOINTS
 10
1080.1256921533340574
 20
82.8171861276338888
 30
0.0
 40
0.001
  1
72440126
  3

  2
MODELNUMBER
 70
     0
1001
ACDBATTR
1070
     0
1070
     1
  0
ATTDEF
  5
FAB
  8
DEFPOINTS
 10
1080.1256921533340574
 20
82.8155194609672236
 30
0.0
 40
0.001
  1
ENSEMBLE
  3

  2
TRADENAME
 70
     0
1001
ACDBATTR
1070
     0
1070
     1
  0
ATTDEF
  5
FAC
  8
DEFPOINTS
 10
1080.1256921533340574
 20
82.8138527943005585
 30
0.0
 40
0.001
  1
SHOWER STALL
  3

  2
PRODUCT
 70
     0
1001
ACDBATTR
1070
     0
1070
     1
  0
LINE
  5
6049
  8
0
 10
1080.1255537591530356
 20
159.5753360520704121
 30
0.0
 11
1080.1255537591530356
 21
158.3616945004264096
 31
0.0
  0
LINE
  5
604A
  8
0
 10
1048.8716133032530706
 20
157.9160808658324129
 30
0.0
 11
1048.8716133032530706
 21
88.1653050453606824
 31
0.0
  0
LINE
  5
604B
  8
0
 10
1048.9080856372529524
 20
158.0041014099703887
 30
0.0
 11
1050.1350653942520239
 21
159.2310811669692043
 31
0.0
  0
ARC
  5
604C
  8
0
 10
1048.9960987108408972
 20
157.9160655319712134
 30
0.0
 40
0.1244854085328574
 50
134.9925782205702944
 51
179.9929423549037892
  0
LINE
  5
604D
  8
0
 10
1050.4977597226720718
 20
157.8517942393073952
 30
0.0
 11
1053.2845745987490318
 21
157.8517942393073952
 31
0.0
  0
ARC
  5
604E
  8
0
 10
1050.5110139519629229
 20
158.7709763340766926
 30
0.0
 40
0.9192776500810598
 50
263.2863466276774034
 51
269.1738755829892966
  0
ARC
  5
604F
  8
0
 10
1050.4038009802820852
 20
157.7178192201689058
 30
0.0
 40
0.1401833532362681
 50
90.1052008703058931
 51
179.2742199925056923
  0
LINE
  5
6050
  8
0
 10
1050.2636288737530776
 20
157.7195949103704038
 30
0.0
 11
1050.2636288737530776
 21
87.8326276759704712
 31
0.0
  0
LINE
  5
6051
  8
0
 10
1050.2636288737530776
 20
87.7316513467704482
 30
0.0
 11
1050.2636288737530776
 21
87.3876090167970716
 31
0.0
  0
ARC
  5
6052
  8
0
 10
1050.2233581745219908
 20
159.1427082368473123
 30
0.0
 40
0.1249215346777922
 50
90.1911986410025861
 51
134.9740060025199
  0
LINE
  5
6053
  8
0
 10
1080.1255537591530356
 20
159.5753360520704121
 30
0.0
 11
1073.6392730382528953
 21
159.2354044836704077
 31
0.0
  0
ARC
  5
6054
  8
0
 10
1073.6517101599808939
 20
158.9857384662745972
 30
0.0
 40
0.2499756032878986
 50
92.8518339193819884
 51
136.5033570417730004
  0
LINE
  5
6055
  8
0
 10
1073.4703741823529981
 20
159.1577996921704141
 30
0.0
 11
1072.4198201192530178
 21
158.0499237286703931
 31
0.0
  0
LINE
  5
6056
  8
0
 10
1050.2229413064119399
 20
159.2676290759704045
 30
0.0
 11
1071.033614347152934
 21
159.2676290759704045
 31
0.0
  0
LINE
  5
6057
  8
0
 10
1071.1218374862719429
 20
159.2310804908703972
 30
0.0
 11
1072.2925969261721093
 21
158.0603210510703889
 31
0.0
  0
ARC
  5
6058
  8
0
 10
1071.0335447061620471
 20
159.1427075609873043
 30
0.0
 40
0.1249215343947455
 50
45.0259939716430679
 51
89.968058869309516
  0
ARC
  5
6059
  8
0
 10
1072.5105070956440159
 20
157.9638804478751979
 30
0.0
 40
0.125010295003969
 50
136.5051353268976015
 51
180.0006595371779099
  0
LINE
  5
605A
  8
0
 10
1072.3854968006530726
 20
157.963879008870407
 30
0.0
 11
1072.3850341020579435
 21
157.7183875942916131
 31
0.0
  0
ARC
  5
605B
  8
0
 10
1072.2592973035380055
 20
157.7186245811537901
 30
0.0
 40
0.1257370218537775
 50
315.0677095625493962
 51
359.8920098882186949
  0
LINE
  5
605C
  8
0
 10
1072.3483118115530033
 20
157.6298202116703919
 30
0.0
 11
1071.9091362003368886
 21
157.1912381568845944
 31
0.0
  0
ARC
  5
605D
  8
0
 10
1072.085476951416922
 20
157.0146587544836905
 30
0.0
 40
0.2495522908003727
 50
134.9612555099351994
 51
180.0445499313804021
  0
LINE
  5
605E
  8
0
 10
1071.8359247360529025
 20
157.0144647168704068
 30
0.0
 11
1071.8359247360529025
 21
87.813725375970435
 31
0.0
  0
ARC
  5
605F
  8
0
 10
1053.2842016674189836
 20
157.821118900926308
 30
0.0
 40
0.0306776052286878
 50
4.738798493889365
 51
89.303468527588592
  0
ARC
  5
6060
  8
0
 10
1046.2588255346770438
 20
157.6023908396425099
 30
0.0
 40
7.059417224577845
 50
0.668770486979876
 51
1.7961086950027501
  0
LINE
  5
6061
  8
0
 10
1053.3177618724530475
 20
157.6847882297074079
 30
0.0
 11
1053.3214220085530997
 21
157.364089379737095
 31
0.0
  0
ARC
  5
6062
  8
0
 10
1055.8655988931600405
 20
157.3955965493040878
 30
0.0
 40
2.5443719700353249
 50
180.7095165333016098
 51
185.1354085012858945
  0
LINE
  5
6063
  8
0
 10
1053.2845745987490318
 20
157.8517942393073952
 30
0.0
 11
1053.2912209409530533
 21
157.8734673875073895
 31
0.0
  0
ARC
  5
6064
  8
0
 10
1053.3697675084199545
 20
157.6779091320019006
 30
0.0
 40
0.2107429584994842
 50
102.6044753017912967
 51
111.8830112890942985
  0
ARC
  5
6065
  8
0
 10
1053.4587434099639722
 20
157.8212554823973051
 30
0.0
 40
0.0303859647891173
 50
90.0709225513631679
 51
175.4740042968165881
  0
ARC
  5
6066
  8
0
 10
1060.4844010716290086
 20
157.6023908396425099
 30
0.0
 40
7.059417224577845
 50
178.2038913049971995
 51
179.3312295130201051
  0
LINE
  5
6067
  8
0
 10
1053.4254647338530049
 20
157.6847882297074079
 30
0.0
 11
1053.4218045977529528
 21
157.364089379737095
 31
0.0
  0
ARC
  5
6068
  8
0
 10
1050.877627713146012
 20
157.3955965493040878
 30
0.0
 40
2.5443719700353249
 50
354.8645914987141055
 51
359.2904834666983902
  0
LINE
  5
6069
  8
0
 10
1053.4587057972530602
 20
157.8516414239072958
 30
0.0
 11
1053.4520056653529991
 21
157.8734673875073895
 31
0.0
  0
ARC
  5
606A
  8
0
 10
1053.3734590978860979
 20
157.6779091320019006
 30
0.0
 40
0.2107429584994842
 50
68.1169887109057299
 51
77.3955246982086891
  0
LINE
  5
606B
  8
0
 10
1053.4194473125530749
 20
157.8835731268073914
 30
0.0
 11
1053.3237792920529046
 21
157.8835731262074091
 31
0.0
  0
LINE
  5
606C
  8
0
 10
1053.3314401874529267
 20
157.1678502514371019
 30
0.0
 11
1053.4117864188528984
 21
157.1678502514371019
 31
0.0
  0
ARC
  5
606D
  8
0
 10
1031.334605317282012
 20
-1099.3276312919228985
 30
0.0
 40
1257.373929890529098
 50
88.9046134378811814
 51
88.991801109217036
  0
LINE
  5
606E
  8
0
 10
1055.3717441434530429
 20
157.8165193628074121
 30
0.0
 11
1057.1163113246529974
 21
157.8164638155074044
 31
0.0
  0
ARC
  5
606F
  8
0
 10
1057.1162872543709454
 20
157.7854430496209091
 30
0.0
 40
0.0310207752250099
 50
1.706733300839167
 51
89.9555418682171535
  0
LINE
  5
6070
  8
0
 10
1057.1472942677530682
 20
157.7863669634074029
 30
0.0
 11
1057.1649679264530732
 21
157.8437028951074126
 31
0.0
  0
ARC
  5
6071
  8
0
 10
1056.7310803579468939
 20
157.8915198913958022
 30
0.0
 40
0.4365144754048897
 50
353.7110421783414722
 51
358.9568701935352806
  0
ARC
  5
6072
  8
0
 10
1059.7646923960930962
 20
157.7026624229550862
 30
0.0
 40
2.6187362242751151
 50
178.1683019949661002
 51
180.726629722800709
  0
ARC
  5
6073
  8
0
 10
3639.7190756220461481
 20
189.766543118340195
 30
0.0
 40
2582.7723579170578887
 50
180.7120546932366949
 51
180.7452028188787949
  0
ARC
  5
6074
  8
0
 10
1060.7565602732840944
 20
156.2570787921868032
 30
0.0
 40
3.5923220995526681
 50
181.3040319331938974
 51
184.4779017041134068
  0
ARC
  5
6075
  8
0
 10
1057.3144375938220492
 20
157.7854378601576002
 30
0.0
 40
0.031032708322962
 50
91.855274386144643
 51
178.2843375940524027
  0
LINE
  5
6076
  8
0
 10
1057.2834187970529456
 20
157.7863669634074029
 30
0.0
 11
1057.2657451383529406
 21
157.8437028951074126
 31
0.0
  0
ARC
  5
6077
  8
0
 10
1057.6996327068588926
 20
157.8915198913958022
 30
0.0
 40
0.4365144754048897
 50
181.043129806464691
 51
186.2889578216584994
  0
ARC
  5
6078
  8
0
 10
1054.6660206687129175
 20
157.7026624229550862
 30
0.0
 40
2.6187362242751151
 50
359.2733702771992057
 51
1.831698005033858
  0
ARC
  5
6079
  8
0
 10
-1525.2883625573060726
 20
189.7665431183606017
 30
0.0
 40
2582.7723579171238271
 50
359.2547971811194998
 51
359.2879453067633904
  0
ARC
  5
607A
  8
0
 10
1053.6741527915219194
 20
156.2570787921868032
 30
0.0
 40
3.5923220995526681
 50
355.5220982958865079
 51
358.6959680668060173
  0
LINE
  5
607B
  8
0
 10
1057.1752036639529706
 20
155.9766097141456953
 30
0.0
 11
1057.2555094008530432
 21
155.9766097141456953
 31
0.0
  0
LINE
  5
607C
  8
0
 10
1057.1675224917530613
 20
157.8835731262074091
 30
0.0
 11
1057.2631905730529525
 21
157.8835731262074091
 31
0.0
  0
LINE
  5
607D
  8
0
 10
1057.3134329102529136
 20
157.8164543009073952
 30
0.0
 11
1061.0641655719919072
 21
157.8162263754072967
 31
0.0
  0
ARC
  5
607E
  8
0
 10
1061.0641415017100826
 20
157.7852056095210003
 30
0.0
 40
0.0310207752250099
 50
1.706733300839167
 51
89.9555418682171535
  0
LINE
  5
607F
  8
0
 10
1061.095148515091978
 20
157.7861295233074088
 30
0.0
 11
1061.112822173791983
 21
157.8434654550073901
 31
0.0
  0
ARC
  5
6080
  8
0
 10
1060.678934605286031
 20
157.8912824512958082
 30
0.0
 40
0.4365144754048897
 50
353.7110421783414722
 51
358.9568701935352806
  0
ARC
  5
6081
  8
0
 10
1063.712546643432006
 20
157.7024249828550921
 30
0.0
 40
2.6187362242751151
 50
178.1683019949661002
 51
180.726629722800709
  0
ARC
  5
6082
  8
0
 10
3719.94851004972179
 20
190.2368449514956126
 30
0.0
 40
2659.0539378552798553
 50
180.7017662871874961
 51
180.7344354847813008
  0
ARC
  5
6083
  8
0
 10
1064.7044145206230041
 20
156.2349340503893984
 30
0.0
 40
3.5923220995526681
 50
181.3040319331938974
 51
184.4779017041134068
  0
ARC
  5
6084
  8
0
 10
1061.2623362258239013
 20
157.7851812839421939
 30
0.0
 40
0.0310776511114371
 50
93.4442910398760489
 51
178.2515233548691072
  0
LINE
  5
6085
  8
0
 10
1061.2312730443920827
 20
157.7861295233074088
 30
0.0
 11
1061.2135993856920777
 21
157.8434654550073901
 31
0.0
  0
ARC
  5
6086
  8
0
 10
1061.6474869541980297
 20
157.8912824512958082
 30
0.0
 40
0.4365144754048897
 50
181.043129806464691
 51
186.2889578216584994
  0
ARC
  5
6087
  8
0
 10
1058.6138749160520547
 20
157.7024249828550921
 30
0.0
 40
2.6187362242751151
 50
359.2733702771992057
 51
1.831698005033858
  0
ARC
  5
6088
  8
0
 10
-1597.6220884903639217
 20
190.2368449515167015
 30
0.0
 40
2659.0539378554049108
 50
359.2655645152187276
 51
359.2982337128124186
  0
ARC
  5
6089
  8
0
 10
1057.6220070388610566
 20
156.2349340503893984
 30
0.0
 40
3.5923220995526681
 50
355.5220982958865079
 51
358.6959680668060173
  0
LINE
  5
608A
  8
0
 10
1061.1230579112921077
 20
155.9544649723482905
 30
0.0
 11
1061.203363648191953
 21
155.9544649723482905
 31
0.0
  0
LINE
  5
608B
  8
0
 10
1061.1153767390919711
 20
157.8833356861073867
 30
0.0
 11
1061.2110448203920896
 21
157.8833356861073867
 31
0.0
  0
ARC
  5
608C
  8
0
 10
1065.0124121246269624
 20
157.784584459620902
 30
0.0
 40
0.0310207752250099
 50
1.706733300839167
 51
89.9555418682171535
  0
LINE
  5
608D
  8
0
 10
1065.0434191380079483
 20
157.7855083734073958
 30
0.0
 11
1065.0610927967090902
 21
157.8428443051074055
 31
0.0
  0
ARC
  5
608E
  8
0
 10
1064.6272052282029108
 20
157.8906613013957951
 30
0.0
 40
0.4365144754048897
 50
353.7110421783414722
 51
358.9568701935352806
  0
ARC
  5
608F
  8
0
 10
1067.6608172663479763
 20
157.7018038329551075
 30
0.0
 40
2.6187362242751151
 50
178.1683019949661002
 51
180.726629722800709
  0
ARC
  5
6090
  8
0
 10
3945.0189279337450898
 20
192.2120399118468868
 30
0.0
 40
2880.1837919344529837
 50
180.6871926491635918
 51
180.7185826942863116
  0
ARC
  5
6091
  8
0
 10
1068.653040528738984
 20
156.1725289367012124
 30
0.0
 40
3.5923220995526681
 50
181.3040319331938974
 51
184.4779017041134068
  0
ARC
  5
6092
  8
0
 10
1065.2104594369629922
 20
157.7846236895269953
 30
0.0
 40
0.0309284250959244
 50
90.6431674932258744
 51
178.3608745935100046
  0
LINE
  5
6093
  8
0
 10
1065.1795436673089625
 20
157.7855083734073958
 30
0.0
 11
1065.161870008608048
 21
157.8428443051074055
 31
0.0
  0
ARC
  5
6094
  8
0
 10
1065.595757577114
 20
157.8906613013957951
 30
0.0
 40
0.4365144754048897
 50
181.043129806464691
 51
186.2889578216584994
  0
ARC
  5
6095
  8
0
 10
1062.5621455389689345
 20
157.7018038329551075
 30
0.0
 40
2.6187362242751151
 50
359.2733702771992057
 51
1.831698005033858
  0
ARC
  5
6096
  8
0
 10
-1814.7799878641849318
 20
190.9144967557828068
 30
0.0
 40
2880.1525459036929533
 50
359.3072239014297224
 51
359.3386141168238055
  0
ARC
  5
6097
  8
0
 10
1061.5706330469779459
 20
156.1725289367012124
 30
0.0
 40
3.5923220995526681
 50
355.5220982958865079
 51
358.6959680668060173
  0
LINE
  5
6098
  8
0
 10
1065.0716839194080876
 20
155.8920598586601045
 30
0.0
 11
1065.1519896563079328
 21
155.8920598586601045
 31
0.0
  0
LINE
  5
6099
  8
0
 10
1065.0636473620090783
 20
157.882714536207402
 30
0.0
 11
1065.1593154433080599
 21
157.882714536207402
 31
0.0
  0
ARC
  5
609A
  8
0
 10
1068.8556572199991024
 20
157.7835268347209023
 30
0.0
 40
0.0310207752250099
 50
1.706733300839167
 51
89.9555418682171535
  0
LINE
  5
609B
  8
0
 10
1068.8866642333819073
 20
157.7844507485073962
 30
0.0
 11
1068.9043378920819123
 21
157.8417866802074059
 31
0.0
  0
ARC
  5
609C
  8
0
 10
1068.4704503235759603
 20
157.8896036764957955
 30
0.0
 40
0.4365144754048897
 50
353.7110421783414722
 51
358.9568701935352806
  0
ARC
  5
609D
  8
0
 10
1071.5040623617219353
 20
157.7007462080551079
 30
0.0
 40
2.6187362242751151
 50
178.1683019949661002
 51
180.726629722800709
  0
ARC
  5
609E
  8
0
 10
4554.1723693860640196
 20
194.4737870249462901
 30
0.0
 40
3485.4811728103218229
 50
180.6050476045762991
 51
180.6335821310698861
  0
ARC
  5
609F
  8
0
 10
1072.4956909733120938
 20
156.0135460877538947
 30
0.0
 40
3.5923220995526681
 50
181.3040319331938974
 51
184.4779017041134068
  0
ARC
  5
60A0
  8
0
 10
1069.0536205698949743
 20
157.78360226440509
 30
0.0
 40
0.0308434800456836
 50
91.1233685231579642
 51
178.4236314550749967
  0
LINE
  5
60A1
  8
0
 10
1069.022788762682012
 20
157.7844507485073962
 30
0.0
 11
1069.005115103982007
 21
157.8417866802074059
 31
0.0
  0
ARC
  5
60A2
  8
0
 10
1069.439002672487959
 20
157.8896036764957955
 30
0.0
 40
0.4365144754048897
 50
181.043129806464691
 51
186.2889578216584994
  0
ARC
  5
60A3
  8
0
 10
1066.4053906343410745
 20
157.7007462080551079
 30
0.0
 40
2.6187362242751151
 50
359.2733702771992057
 51
1.831698005033858
  0
ARC
  5
60A4
  8
0
 10
-2416.2736733073252253
 20
195.4347682559219948
 30
0.0
 40
3485.5022094001251389
 50
359.3506237917329145
 51
359.3791582321179021
  0
ARC
  5
60A5
  8
0
 10
1065.4132834915510557
 20
156.0135460877538947
 30
0.0
 40
3.5923220995526681
 50
355.5220982958865079
 51
358.6959680668060173
  0
LINE
  5
60A6
  8
0
 10
1068.91433436398097
 20
155.7330770097127868
 30
0.0
 11
1068.9946401008819521
 21
155.7330770097127868
 31
0.0
  0
LINE
  5
60A7
  8
0
 10
1068.9068924573809909
 20
157.8816569113074024
 30
0.0
 11
1069.0025605386820189
 21
157.8816569113074024
 31
0.0
  0
LINE
  5
60A8
  8
0
 10
1061.2604691420920062
 20
157.8162027990074137
 30
0.0
 11
1065.0124361949081049
 21
157.8156052255073973
 31
0.0
  0
LINE
  5
60A9
  8
0
 10
1065.2101122606090939
 20
157.8155501660073128
 30
0.0
 11
1068.855681290280927
 21
157.8145476006073977
 31
0.0
  0
LINE
  5
60AA
  8
0
 10
1069.0530158765820943
 20
157.8144398163074129
 30
0.0
 11
1072.0282570104780007
 21
157.8033266706028996
 31
0.0
  0
LINE
  5
60AB
  8
0
 10
1072.4977233831530157
 20
157.8828117655297945
 30
0.0
 11
1072.4977233831530157
 21
94.2076879090578387
 31
0.0
  0
LINE
  5
60AC
  8
0
 10
1072.4977233831530157
 20
92.6677555440370355
 30
0.0
 11
1072.4977233831530157
 21
87.813725375970435
 31
0.0
  0
ARC
  5
60AD
  8
0
 10
1072.9242634784689017
 20
150.4648163710851065
 30
0.0
 40
7.4302484564728219
 50
89.8593173405930798
 51
93.290924950733384
  0
ARC
  5
60AE
  8
0
 10
1072.9444996844090383
 20
157.8650254230047096
 30
0.0
 40
0.030083042370172
 50
93.797046929094293
 51
179.8112038939314061
  0
LINE
  5
60AF
  8
0
 10
1072.9144168053560406
 20
157.8651245498693072
 30
0.0
 11
1072.9201870467350091
 21
87.813725375970435
 31
0.0
  0
LINE
  5
60B0
  8
0
 10
1072.9425075109529644
 20
157.8950424295703954
 30
0.0
 11
1073.7736027263529195
 21
157.937856526470398
 31
0.0
  0
ARC
  5
60B1
  8
0
 10
1074.4001501541858943
 20
145.7754939590734864
 30
0.0
 40
12.1784902553699794
 50
92.0639349736551225
 51
92.9490008571246165
  0
LINE
  5
60B2
  8
0
 10
1073.9615458370531087
 20
157.946083556670402
 30
0.0
 11
1073.9575305057530841
 21
157.9408506538703989
 31
0.0
  0
ARC
  5
60B3
  8
0
 10
1073.9835165358740596
 20
157.4406603492489012
 30
0.0
 40
0.5008648666045661
 50
92.9739730640755653
 51
141.8605903360366085
  0
LINE
  5
60B4
  8
0
 10
1073.5895810987528876
 20
157.7499829736703987
 30
0.0
 11
1073.0191966222530482
 21
157.0066424027704102
 31
0.0
  0
ARC
  5
60B5
  8
0
 10
1073.467821417676987
 20
156.6731811826643082
 30
0.0
 40
0.5589817460203655
 50
143.376708633399403
 51
171.8332146855204883
  0
LINE
  5
60B6
  8
0
 10
1072.515995696662003
 20
157.9020667556536068
 30
0.0
 11
1079.9711265966529936
 21
158.2859472596703938
 31
0.0
  0
ARC
  5
60B7
  8
0
 10
1079.9624366186239968
 20
158.4490756295309097
 30
0.0
 40
0.1633596669055417
 50
273.0493095115691062
 51
356.8775287801859122
  0
LINE
  5
60B8
  8
0
 10
1073.7705609830700269
 20
157.8939985752224118
 30
0.0
 11
1079.9710845200529548
 21
158.2070701471704126
 31
0.0
  0
ARC
  5
60B9
  8
0
 10
1079.9623700953659409
 20
158.3702451467306958
 30
0.0
 40
0.1634075325042381
 50
273.056999400797622
 51
357.0005067135491004
  0
ARC
  5
60BA
  8
0
 10
1079.3860114819340197
 20
157.4238684571645877
 30
0.0
 40
0.7534588945878899
 50
95.4591476824237617
 51
179.8989500615612087
  0
LINE
  5
60BB
  8
0
 10
1078.6325537591530974
 20
157.4251972973704028
 30
0.0
 11
1078.6325537591530974
 21
154.0147539520704072
 31
0.0
  0
ARC
  5
60BC
  8
0
 10
1077.2475545467980282
 20
154.0147539520704072
 30
0.0
 40
1.384999212354511
 50
326.834102914029188
 51
0.0
  0
ARC
  5
60BD
  8
0
 10
1078.8254543025479961
 20
152.9835461123514051
 30
0.0
 40
0.4999828161783243
 50
146.8341029140291027
 51
203.4687043052553008
  0
ARC
  5
60BE
  8
0
 10
1070.4283864010649268
 20
149.3383141498443933
 30
0.0
 40
8.654167358091712
 50
0.000053964020405
 51
23.4658826188357317
  0
LINE
  5
60BF
  8
0
 10
1079.0825537591529155
 20
149.3383223007703862
 30
0.0
 11
1079.0825537591529155
 21
120.3837253759703998
 31
0.0
  0
LINE
  5
60C0
  8
0
 10
1079.0825537591529155
 20
111.3837253759703998
 30
0.0
 11
1079.0825537591529155
 21
87.813725375970435
 31
0.0
  0
LINE
  5
60C1
  8
0
 10
1078.0366600219529118
 20
155.6564252113342093
 30
0.0
 11
1078.0366600219529118
 21
154.0359554261704034
 31
0.0
  0
ARC
  5
60C2
  8
0
 10
1077.2469459235339855
 20
154.0359554261704034
 30
0.0
 40
0.7897140984186706
 50
302.3087083789802136
 51
0.0
  0
ARC
  5
60C3
  8
0
 10
1077.7946442141690113
 20
153.1698738730624996
 30
0.0
 40
0.2350154630746979
 50
122.3087083789801994
 51
207.3658478067760029
  0
ARC
  5
60C4
  8
0
 10
1070.0180594168639345
 20
149.3265109221808871
 30
0.0
 40
8.439512507281826
 50
0.0744693991611211
 51
26.2699275508636916
  0
LINE
  5
60C5
  8
0
 10
1078.4575647956530702
 20
149.3374800590704012
 30
0.0
 11
1078.4575647956530702
 21
149.1368625825224967
 31
0.0
  0
LINE
  5
60C6
  8
0
 10
1078.4575647956530702
 20
147.6975072211691895
 30
0.0
 11
1078.4575647956530702
 21
120.5441349831097995
 31
0.0
  0
LINE
  5
60C7
  8
0
 10
1078.4575647956530702
 20
120.4819037719457953
 30
0.0
 11
1078.4575647956530702
 21
111.6375067466474036
 31
0.0
  0
LINE
  5
60C8
  8
0
 10
1078.4575647956530702
 20
110.3097627891588957
 30
0.0
 11
1078.4575647956530702
 21
105.3635678450332023
 31
0.0
  0
LINE
  5
60C9
  8
0
 10
1078.4575647956530702
 20
104.0358238875447938
 30
0.0
 11
1078.4575647956530702
 21
88.3782111780399902
 31
0.0
  0
LINE
  5
60CA
  8
0
 10
1078.4575647956530702
 20
88.1990271522270746
 30
0.0
 11
1078.4575647956530702
 21
87.813725375970435
 31
0.0
  0
LINE
  5
60CB
  8
0
 10
1060.7456250963530238
 20
95.3872477616704515
 30
0.0
 11
1059.7939468706529169
 21
96.3351019932704418
 31
0.0
  0
LINE
  5
60CC
  8
0
 10
1059.7939468706529169
 20
96.3351019932704418
 30
0.0
 11
1059.4922300557000199
 21
96.6177386875499735
 31
0.0
  0
LINE
  5
60CD
  8
0
 10
1060.6663783282529039
 20
95.3079808904704464
 30
0.0
 11
1059.7223026404549273
 21
96.2625676008444344
 31
0.0
  0
LINE
  5
60CE
  8
0
 10
1059.7223026404549273
 20
96.2625676008444344
 30
0.0
 11
1059.4359620212649133
 21
96.5607715363995709
 31
0.0
  0
LINE
  5
60CF
  8
0
 10
1059.4922300557000199
 20
96.6177386875499735
 30
0.0
 11
1059.4359620212649133
 21
96.5607715363995709
 31
0.0
  0
LINE
  5
60D0
  8
0
 10
1060.7880622284531
 20
95.3872477616704515
 30
0.0
 11
1061.7397404541529795
 21
96.3351019932704418
 31
0.0
  0
LINE
  5
60D1
  8
0
 10
1061.7397404541529795
 20
96.3351019932704418
 30
0.0
 11
1062.0414572691061039
 21
96.6177386875499735
 31
0.0
  0
LINE
  5
60D2
  8
0
 10
1060.8673089965529925
 20
95.3079808904704464
 30
0.0
 11
1061.8113846843509691
 21
96.2625676008444344
 31
0.0
  0
LINE
  5
60D3
  8
0
 10
1061.8113846843509691
 20
96.2625676008444344
 30
0.0
 11
1062.0977253035409831
 21
96.5607715363995709
 31
0.0
  0
LINE
  5
60D4
  8
0
 10
1062.0414572691061039
 20
96.6177386875499735
 30
0.0
 11
1062.0977253035409831
 21
96.5607715363995709
 31
0.0
  0
ARC
  5
60D5
  8
0
 10
1060.7668436624030619
 20
95.4084860501678236
 30
0.0
 40
0.0300215329974018
 50
225.0266155590047958
 51
314.9733844409882977
  0
LINE
  5
60D6
  8
0
 10
1060.7456250963530238
 20
95.1980283579514008
 30
0.0
 11
1059.7939468706529169
 21
94.2501741263513964
 31
0.0
  0
LINE
  5
60D7
  8
0
 10
1059.7939468706529169
 20
94.2501741263513964
 30
0.0
 11
1059.4922300557000199
 21
93.9675374320718646
 31
0.0
  0
LINE
  5
60D8
  8
0
 10
1060.6663902180530386
 20
95.265568184470439
 30
0.0
 11
1059.7223026404549273
 21
94.3227085187773753
 31
0.0
  0
LINE
  5
60D9
  8
0
 10
1059.7223026404549273
 20
94.3227085187773753
 30
0.0
 11
1059.4359620212649133
 21
94.0245045832222814
 31
0.0
  0
LINE
  5
60DA
  8
0
 10
1059.4922300557000199
 20
93.9675374320718646
 30
0.0
 11
1059.4359620212649133
 21
94.0245045832222814
 31
0.0
  0
LINE
  5
60DB
  8
0
 10
1060.7880622284531
 20
95.1980283579514008
 30
0.0
 11
1061.7397404541529795
 21
94.2501741263513964
 31
0.0
  0
LINE
  5
60DC
  8
0
 10
1061.7397404541529795
 20
94.2501741263513964
 30
0.0
 11
1062.0414572691061039
 21
93.9675374320718646
 31
0.0
  0
LINE
  5
60DD
  8
0
 10
1060.8672865194530459
 20
95.2655682572704308
 30
0.0
 11
1061.8113846843509691
 21
94.3227085187773753
 31
0.0
  0
LINE
  5
60DE
  8
0
 10
1061.8113846843509691
 20
94.3227085187773753
 30
0.0
 11
1062.0977253035409831
 21
94.0245045832222814
 31
0.0
  0
LINE
  5
60DF
  8
0
 10
1062.0414572691061039
 20
93.9675374320718646
 30
0.0
 11
1062.0977253035409831
 21
94.0245045832222814
 31
0.0
  0
ARC
  5
60E0
  8
0
 10
1060.7668436624030619
 20
95.176790069454043
 30
0.0
 40
0.0300215329974018
 50
45.0266155590117023
 51
134.9733844409952042
  0
ARC
  5
60E1
  8
0
 10
1060.645173693507104
 20
95.2867685913855382
 30
0.0
 40
0.0299933020384013
 50
315.0217713100424248
 51
45.010352805846388
  0
ARC
  5
60E2
  8
0
 10
1060.888482482127074
 20
95.2867633467636921
 30
0.0
 40
0.0299750004556466
 50
134.9404509828405878
 51
224.9988198078316088
  0
LINE
  5
60E3
  8
0
 10
1060.7108178075970955
 20
149.3739845496668011
 30
0.0
 11
1060.7108206374969086
 21
147.1101483495667992
 31
0.0
  0
ARC
  5
60E4
  8
0
 10
1076.8024286290060445
 20
147.1101684648212995
 30
0.0
 40
16.0916079915216486
 50
180.0000716223769075
 51
182.5438129522042061
  0
ARC
  5
60E5
  8
0
 10
1075.3639320999589017
 20
149.3897369644145101
 30
0.0
 40
14.6531227594531597
 50
177.3345970896905897
 51
180.061594178310088
  0
LINE
  5
60E6
  8
0
 10
1060.8228815912759728
 20
149.3739845496668011
 30
0.0
 11
1060.8228787613759323
 21
147.1101483495667992
 31
0.0
  0
ARC
  5
60E7
  8
0
 10
1044.7312707698670238
 20
147.1101684648212995
 30
0.0
 40
16.0916079915216486
 50
357.4561870477957086
 51
359.9999283776231209
  0
ARC
  5
60E8
  8
0
 10
1046.1697672989139392
 20
149.3897369644145101
 30
0.0
 40
14.6531227594531597
 50
359.9384058216897984
 51
2.6654029103093348
  0
LINE
  5
60E9
  8
0
 10
1060.7266777165580152
 20
146.3959693653328031
 30
0.0
 11
1060.8070216823159626
 21
146.3959693653328031
 31
0.0
  0
LINE
  5
60EA
  8
0
 10
1060.7266620075929495
 20
150.0711552256231869
 30
0.0
 11
1060.8070373912810282
 21
150.0711552256231869
 31
0.0
  0
ARC
  5
60EB
  8
0
 10
1050.293664585012948
 20
114.6432176752518046
 30
0.0
 40
0.0300363936453368
 50
91.1928970280594768
 51
179.6137848173956115
  0
ARC
  5
60EC
  8
0
 10
1050.5333079119739068
 20
294.7318527061596001
 30
0.0
 40
180.0587654531103112
 50
269.9235450548031849
 51
270.1599038673983841
  0
LINE
  5
60ED
  8
0
 10
1051.0358240802529508
 20
114.6737884768703992
 30
0.0
 11
1053.5615264321529594
 21
114.6737885300703965
 31
0.0
  0
LINE
  5
60EE
  8
0
 10
1053.5615264321529594
 20
114.6737885300703965
 30
0.0
 11
1055.3717928070520884
 21
114.6626135825516997
 31
0.0
  0
LINE
  5
60EF
  8
0
 10
1055.3717928070520884
 20
114.6626135825516997
 30
0.0
 11
1061.1212324293530855
 21
114.6625901535517045
 31
0.0
  0
ARC
  5
60F0
  8
0
 10
1061.1212323071199535
 20
114.6325943727491961
 30
0.0
 40
0.0299957808027291
 50
0.0352281148453742
 51
89.9997665193601932
  0
LINE
  5
60F1
  8
0
 10
1061.1512280822530556
 20
114.6326128155517949
 30
0.0
 11
1061.1613517607529502
 21
113.4259240065516963
 31
0.0
  0
ARC
  5
60F2
  8
0
 10
1066.1808402166250289
 20
113.468035681892303
 30
0.0
 40
5.0196651035537361
 50
180.4806793917861967
 51
183.6675951047342892
  0
ARC
  5
60F3
  8
0
 10
1050.2936327408328907
 20
114.8288603536859966
 30
0.0
 40
0.0300038671593786
 50
180.0041798122186094
 51
268.8665828220912886
  0
ARC
  5
60F4
  8
0
 10
1050.9904438986229707
 20
171.8521492639347912
 30
0.0
 40
57.0575491950161435
 50
269.2996660614339817
 51
270.0455696606625793
  0
LINE
  5
60F5
  8
0
 10
1051.0358240802529508
 20
114.7946181152703957
 30
0.0
 11
1053.5615264322530038
 21
114.7946181152703957
 31
0.0
  0
LINE
  5
60F6
  8
0
 10
1053.5615264322530038
 20
114.7946181152703957
 30
0.0
 11
1061.1221996444301112
 21
114.7834421921521937
 31
0.0
  0
ARC
  5
60F7
  8
0
 10
1061.1212349786530922
 20
114.8134206433517051
 30
0.0
 40
0.0299939679999937
 50
271.8430642684886038
 51
0.0023560787072838
  0
LINE
  5
60F8
  8
0
 10
1061.1512312781530909
 20
114.8134271201518004
 30
0.0
 11
1061.151227473452991
 21
126.7346028122517936
 31
0.0
  0
ARC
  5
60F9
  8
0
 10
1061.1212454050019005
 20
126.7346028026828009
 30
0.0
 40
0.0299820684508161
 50
0.0000182862210367
 51
90.0246818264726869
  0
LINE
  5
60FA
  8
0
 10
1061.1212324893529058
 20
126.7645848683518039
 30
0.0
 11
1051.0358240802529508
 21
126.775631646170396
 31
0.0
  0
ARC
  5
60FB
  8
0
 10
1050.8412742133889424
 20
-116.3488817246040981
 30
0.0
 40
243.1245912108165044
 50
89.9541515425885194
 51
90.1291995000850932
  0
ARC
  5
60FC
  8
0
 10
1050.2954139500329802
 20
126.7410146991501989
 30
0.0
 40
0.034159305720309
 50
93.9863093055692786
 51
158.5121683323033892
  0
ARC
  5
60FD
  8
0
 10
1050.2946619781680511
 20
126.9322679124459938
 30
0.0
 40
0.0316040737866854
 50
190.9075828730136095
 51
267.0568181233809923
  0
LINE
  5
60FE
  8
0
 10
1050.293039247203069
 20
126.9007055262223957
 30
0.0
 11
1051.0358240802529508
 21
126.8964612846704938
 31
0.0
  0
LINE
  5
60FF
  8
0
 10
1051.0358240802529508
 20
126.8964612846704938
 30
0.0
 11
1061.1220075932899363
 21
126.8854254667562031
 31
0.0
  0
ARC
  5
6100
  8
0
 10
1061.1212330056519022
 20
126.9154047591516985
 30
0.0
 40
0.0299892974000001
 50
271.4800459629637999
 51
0.0016072025996796
  0
LINE
  5
6101
  8
0
 10
1061.151227235252918
 20
126.9154153082517951
 30
0.0
 11
1061.1512274315530249
 21
138.939338308551811
 31
0.0
  0
LINE
  5
6102
  8
0
 10
1061.1512274315530249
 20
138.939338308551811
 30
0.0
 11
1061.1614472100529838
 21
140.1229322615517958
 31
0.0
  0
ARC
  5
6103
  8
0
 10
1066.2904647578839104
 20
140.0786456013094039
 30
0.0
 40
5.1292087415348124
 50
176.3883044275472116
 51
179.505290118410187
  0
ARC
  5
6104
  8
0
 10
1061.3020241434348918
 20
114.6325945606945993
 30
0.0
 40
0.0299953275374379
 50
90.0237655655247835
 51
179.9651303580054957
  0
LINE
  5
6105
  8
0
 10
1061.2720288214520679
 20
114.6326128155517949
 30
0.0
 11
1061.2619051429530828
 21
113.4259240065516963
 31
0.0
  0
ARC
  5
6106
  8
0
 10
1056.2424166870800946
 20
113.468035681892303
 30
0.0
 40
5.0196651035537361
 50
356.3324048952657108
 51
359.5193206082137181
  0
ARC
  5
6107
  8
0
 10
1061.3020503171369455
 20
114.8134321361011985
 30
0.0
 40
0.0300223618123969
 50
180.0195793356764113
 51
268.1033214487882219
  0
LINE
  5
6108
  8
0
 10
1061.2720256255529421
 20
114.8134271201518004
 30
0.0
 11
1061.2720294302530419
 21
126.7346028122517936
 31
0.0
  0
ARC
  5
6109
  8
0
 10
1061.3020164763011053
 20
126.7346007402647956
 30
0.0
 40
0.0299870461204316
 50
90.0027058134334936
 51
179.9960410868908127
  0
ARC
  5
610A
  8
0
 10
1061.3020238980529939
 20
126.9154047591516985
 30
0.0
 40
0.0299892974000001
 50
179.9983927974002995
 51
269.1819812308445989
  0
LINE
  5
610B
  8
0
 10
1061.2720296684528876
 20
126.9154153082517951
 30
0.0
 11
1061.2720294721530081
 21
138.939338308551811
 31
0.0
  0
LINE
  5
610C
  8
0
 10
1061.2720294721530081
 20
138.939338308551811
 30
0.0
 11
1061.2618096936530492
 21
140.1229322615517958
 31
0.0
  0
ARC
  5
610D
  8
0
 10
1056.1327921458209858
 20
140.0786456013094039
 30
0.0
 40
5.1292087415348124
 50
0.4947098815898042
 51
3.611695572452815
  0
LINE
  5
610E
  8
0
 10
1061.1714556063529926
 20
113.146938222851702
 30
0.0
 11
1061.2518012973530404
 21
113.146938222851702
 31
0.0
  0
LINE
  5
610F
  8
0
 10
1061.1714431868529118
 20
140.4017562163517994
 30
0.0
 11
1061.2518137168519843
 21
140.4017562163517994
 31
0.0
  0
LINE
  5
6110
  8
0
 10
1061.1512801253450107
 20
138.9454409901406962
 30
0.0
 11
1055.4616244491530779
 21
138.9454377701518126
 31
0.0
  0
ARC
  5
6111
  8
0
 10
1055.4616245170609545
 20
138.8254446289161876
 30
0.0
 40
0.119993141235598
 50
90.0000324258243865
 51
180.0136935499365052
  0
LINE
  5
6112
  8
0
 10
1055.3416313792520214
 20
138.8254159508518057
 30
0.0
 11
1055.3416291578910204
 21
126.8916332007576955
 31
0.0
  0
LINE
  5
6113
  8
0
 10
1055.3416291353989891
 20
126.7707984028479018
 30
0.0
 11
1055.3416269056160672
 21
114.7917774752330047
 31
0.0
  0
LINE
  5
6114
  8
0
 10
1061.1512274306719519
 20
138.8853946686396057
 30
0.0
 11
1055.4616245518529922
 21
138.8853911009516935
 31
0.0
  0
ARC
  5
6115
  8
0
 10
1055.4616245894810618
 20
138.8253835247606105
 30
0.0
 40
0.0600075761911392
 50
90.000035927539173
 51
179.9690354525359055
  0
LINE
  5
6116
  8
0
 10
1055.4016170220529602
 20
138.8254159548517919
 30
0.0
 11
1055.4016170220529602
 21
126.8915687778641939
 31
0.0
  0
LINE
  5
6117
  8
0
 10
1055.4016170220529602
 20
126.7707339110860971
 30
0.0
 11
1055.4016170220529602
 21
114.791690972627606
 31
0.0
  0
LINE
  5
6118
  8
0
 10
1061.3015957517739025
 20
126.8854185181516954
 30
0.0
 11
1071.8359247360529025
 21
126.8854185180928056
 31
0.0
  0
LINE
  5
6119
  8
0
 10
1061.3020150601530531
 20
126.7645877863517967
 30
0.0
 11
1071.8359247360529025
 21
126.7645877862929069
 31
0.0
  0
LINE
  5
611A
  8
0
 10
1064.9141201491111133
 20
138.8484778672473965
 30
0.0
 11
1064.9141201491111133
 21
126.8854161862207945
 31
0.0
  0
LINE
  5
611B
  8
0
 10
1064.9141201491111133
 20
126.7645854544207964
 30
0.0
 11
1064.9141201491111133
 21
120.5917188186770943
 31
0.0
  0
LINE
  5
611C
  8
0
 10
1064.9141201491111133
 20
120.5317204637616015
 30
0.0
 11
1064.9141201491111133
 21
120.341075375970405
 31
0.0
  0
LINE
  5
611D
  8
0
 10
1064.9141201491111133
 20
114.841075375970405
 30
0.0
 11
1064.9141201491111133
 21
114.783423890520794
 31
0.0
  0
LINE
  5
611E
  8
0
 10
1064.9141201491111133
 20
114.6625875537207975
 30
0.0
 11
1064.9141201491111133
 21
87.813725375970435
 31
0.0
  0
LINE
  5
611F
  8
0
 10
1064.9741198310109667
 20
138.8484777885475125
 30
0.0
 11
1064.9741198310109667
 21
126.8854161862207945
 31
0.0
  0
LINE
  5
6120
  8
0
 10
1064.9741198310109667
 20
126.7645854544207964
 30
0.0
 11
1064.9741198310109667
 21
120.591718719626499
 31
0.0
  0
LINE
  5
6121
  8
0
 10
1064.9741198310109667
 20
120.5317203632156975
 30
0.0
 11
1064.9741198310109667
 21
120.341075375970405
 31
0.0
  0
LINE
  5
6122
  8
0
 10
1064.9741198310109667
 20
114.841075375970405
 30
0.0
 11
1064.9741198310109667
 21
114.783423890520794
 31
0.0
  0
LINE
  5
6123
  8
0
 10
1064.9741198310109667
 20
114.6625875537207975
 30
0.0
 11
1064.9741198310109667
 21
87.813725375970435
 31
0.0
  0
LINE
  5
6124
  8
0
 10
1065.0491204342110905
 20
138.8484777830475139
 30
0.0
 11
1065.0491204342110905
 21
126.8854161862207945
 31
0.0
  0
LINE
  5
6125
  8
0
 10
1065.0491204342110905
 20
126.7645854544207964
 30
0.0
 11
1065.0491204342110905
 21
120.5917185958114999
 31
0.0
  0
LINE
  5
6126
  8
0
 10
1065.0491204342110905
 20
120.5317202375317009
 30
0.0
 11
1065.0491204342110905
 21
120.341075375970405
 31
0.0
  0
LINE
  5
6127
  8
0
 10
1065.0491204342110905
 20
114.841075375970405
 30
0.0
 11
1065.0491204342110905
 21
114.783423890520794
 31
0.0
  0
LINE
  5
6128
  8
0
 10
1065.0491204342110905
 20
114.6625875537207975
 30
0.0
 11
1065.0491204342110905
 21
87.813725375970435
 31
0.0
  0
LINE
  5
6129
  8
0
 10
1065.1091200379109978
 20
138.8484778541474043
 30
0.0
 11
1065.1091200379109978
 21
126.8854161862207945
 31
0.0
  0
LINE
  5
612A
  8
0
 10
1065.1091200379109978
 20
126.7645854544207964
 30
0.0
 11
1065.1091200379109978
 21
120.5917184967610041
 31
0.0
  0
LINE
  5
612B
  8
0
 10
1065.1091200379109978
 20
120.5317201369858964
 30
0.0
 11
1065.1091200379109978
 21
120.341075375970405
 31
0.0
  0
LINE
  5
612C
  8
0
 10
1065.1091200379109978
 20
114.841075375970405
 30
0.0
 11
1065.1091200379109978
 21
114.783423890520794
 31
0.0
  0
LINE
  5
612D
  8
0
 10
1065.1091200379109978
 20
114.6625875537207975
 30
0.0
 11
1065.1091200379109978
 21
87.813725375970435
 31
0.0
  0
ARC
  5
612E
  8
0
 10
1065.0116200933430264
 20
138.8459779053179091
 30
0.0
 40
0.0975319892901957
 50
1.4687714985333951
 51
178.5312208032626984
  0
ARC
  5
612F
  8
0
 10
1065.0116201325349721
 20
138.8474407755149116
 30
0.0
 40
0.0375146372822293
 50
1.584014366323778
 51
178.41597723036449
  0
LINE
  5
6130
  8
0
 10
1061.2720274697260265
 20
120.5917324761856975
 30
0.0
 11
1064.9141201491111133
 21
120.5917188186770943
 31
0.0
  0
LINE
  5
6131
  8
0
 10
1064.9741198310109667
 20
120.591718719626499
 30
0.0
 11
1065.0491204342110905
 21
120.5917185958114999
 31
0.0
  0
LINE
  5
6132
  8
0
 10
1065.1091200379109978
 20
120.5917184967610041
 30
0.0
 11
1070.4620113140479134
 21
120.5917288175240998
 31
0.0
  0
ARC
  5
6133
  8
0
 10
1070.462011115921996
 20
120.471714121021904
 30
0.0
 40
0.1200146965023193
 50
359.9930786113346244
 51
89.9999054130810805
  0
LINE
  5
6134
  8
0
 10
1070.5820258115491015
 20
120.4716996231240955
 30
0.0
 11
1070.5820258115491015
 21
114.7834422750241004
 31
0.0
  0
LINE
  5
6135
  8
0
 10
1061.2720274505779798
 20
120.531734292236905
 30
0.0
 11
1064.9141201491111133
 21
120.5317204637616015
 31
0.0
  0
LINE
  5
6136
  8
0
 10
1064.9741198310109667
 20
120.5317203632156975
 30
0.0
 11
1065.0491204342110905
 21
120.5317202375317009
 31
0.0
  0
LINE
  5
6137
  8
0
 10
1065.1091200379109978
 20
120.5317201369858964
 30
0.0
 11
1070.4618906573480217
 21
120.5317303362241006
 31
0.0
  0
ARC
  5
6138
  8
0
 10
1070.4618905567260754
 20
120.4716848728952954
 30
0.0
 40
0.0600454633289286
 50
0.1287102061600018
 51
89.9999039852353349
  0
LINE
  5
6139
  8
0
 10
1070.5219358685480984
 20
120.4718197599242018
 30
0.0
 11
1070.5219358685480984
 21
114.7834422750241004
 31
0.0
  0
LINE
  5
613A
  8
0
 10
1061.3020117017520079
 20
114.6625898856516983
 30
0.0
 11
1071.8359247360529025
 21
114.6625898855927943
 31
0.0
  0
LINE
  5
613B
  8
0
 10
1061.3010566598229616
 20
114.7834262224517943
 30
0.0
 11
1071.8359247360529025
 21
114.783426222392805
 31
0.0
  0
ARC
  5
613C
  8
0
 10
1075.0572124247460124
 20
140.7046629891779048
 30
0.0
 40
2.1443754703084581
 50
183.0324661622352096
 51
217.8783777314588974
  0
ARC
  5
613D
  8
0
 10
1071.8125256913399426
 20
138.1262683779742986
 30
0.0
 40
2.0002705382235471
 50
0.0006013236987601
 51
39.1093357519556406
  0
LINE
  5
613E
  8
0
 10
1073.8127962294529425
 20
138.1262893709703974
 30
0.0
 11
1073.8127962294529425
 21
134.8372432070704008
 31
0.0
  0
ARC
  5
613F
  8
0
 10
1071.8124612715180319
 20
134.8372432070704008
 30
0.0
 40
2.0003349579352072
 50
320.6593373180799063
 51
0.0
  0
ARC
  5
6140
  8
0
 10
1074.9179069337999408
 20
132.3127991790341866
 30
0.0
 40
2.0017737879112918
 50
141.1245678033203887
 51
178.8759506586370094
  0
ARC
  5
6141
  8
0
 10
1077.8294503295410323
 20
137.8450256033320898
 30
0.0
 40
0.6752099664656991
 50
275.600210961432083
 51
338.4739102921706149
  0
ARC
  5
6142
  8
0
 10
1076.6387445856651084
 20
157.2650166477845062
 30
0.0
 40
20.13123510575425
 50
269.361887159763512
 51
273.5787446654774726
  0
ARC
  5
6143
  8
0
 10
1074.4308259089470994
 20
215.4341405200896986
 30
0.0
 40
78.3242353384207917
 50
269.5478939620238066
 51
271.4512856952687798
  0
ARC
  5
6144
  8
0
 10
1077.8282063488670701
 20
135.2607642458721955
 30
0.0
 40
0.6738748062327659
 50
20.9424812732794585
 51
86.0594514652805174
  0
ARC
  5
6145
  8
0
 10
1077.7326589800788952
 20
120.9056787778630024
 30
0.0
 40
15.0280367061931006
 50
89.4591492345437729
 51
94.8870255148546846
  0
ARC
  5
6146
  8
0
 10
1075.394494637932894
 20
157.209473109053306
 30
0.0
 40
21.3566083083510208
 50
268.7902893296572984
 51
272.8393265209822971
  0
ARC
  5
6147
  8
0
 10
1074.7802040059900719
 20
-88.4146101119992096
 30
0.0
 40
224.2722944135686873
 50
89.9582522489972121
 51
90.2471484705639426
  0
ARC
  5
6148
  8
0
 10
1084.5063581964709556
 20
135.843087221941289
 30
0.0
 40
6.6324523696975417
 50
179.2228496067621109
 51
190.9595331104879961
  0
ARC
  5
6149
  8
0
 10
1077.8004560794229292
 20
134.5252914645419082
 30
0.0
 40
0.2025594492394806
 50
266.516991536313185
 51
16.3032746526870902
  0
ARC
  5
614A
  8
0
 10
1078.0704351473939369
 20
137.3624926402108883
 30
0.0
 40
3.0524670297040251
 50
242.9514502096108117
 51
264.6938377069677131
  0
ARC
  5
614B
  8
0
 10
1084.7065930921589825
 20
150.4268678178123082
 30
0.0
 40
17.7056690347532886
 50
239.2864684010527014
 51
243.0506619699507098
  0
ARC
  5
614C
  8
0
 10
1072.9206657139900472
 20
130.2916529742956868
 30
0.0
 40
5.626860902381039
 50
60.8267123130913276
 51
80.8773423427435318
  0
ARC
  5
614D
  8
0
 10
1077.0576033455799916
 20
139.3187921266975025
 30
0.0
 40
2.0256376667716198
 50
325.6944002793625828
 51
358.5074550730936949
  0
ARC
  5
614E
  8
0
 10
1078.767243691404019
 20
138.1547067145239964
 30
0.0
 40
0.0427314754449347
 50
148.3502547594520138
 51
180.6538693272410967
  0
LINE
  5
614F
  8
0
 10
1078.7245149985531043
 20
138.1542190661344023
 30
0.0
 11
1078.7245149985531043
 21
134.978719096532302
 31
0.0
  0
ARC
  5
6150
  8
0
 10
1078.767947330529978
 20
134.978719096532302
 30
0.0
 40
0.0434323319772361
 50
180.0000000000032117
 51
211.5333189228215929
  0
ARC
  5
6151
  8
0
 10
1077.1295738277849523
 20
133.8391348415468087
 30
0.0
 40
1.952366167278335
 50
10.98207465967198
 51
34.8939582727807718
  0
ARC
  5
6152
  8
0
 10
1077.0488794105369834
 20
133.8279053586024077
 30
0.0
 40
2.0337267008189932
 50
0.4111116167076451
 51
10.8595622496317805
  0
ARC
  5
6153
  8
0
 10
1078.7467783105848866
 20
125.8635393207184023
 30
0.0
 40
0.2893247396033334
 50
138.3677750329916876
 51
178.4112362395844968
  0
ARC
  5
6154
  8
0
 10
1078.8780369435339708
 20
125.7468703704192023
 30
0.0
 40
0.4649392967668453
 50
113.3838762479985007
 51
138.3677750329916876
  0
ARC
  5
6155
  8
0
 10
1078.2543544047439354
 20
126.9675451153188988
 30
0.0
 40
0.9072863023662577
 50
298.9488806386539181
 51
318.9123502594260913
  0
ARC
  5
6156
  8
0
 10
1078.5039423362459274
 20
126.7559922692358043
 30
0.0
 40
0.5801534837907698
 50
318.4596381003053125
 51
355.8215695053103218
  0
ARC
  5
6157
  8
0
 10
1078.7296389347879995
 20
125.8090841430306028
 30
0.0
 40
0.2725305238062106
 50
147.3107038096131873
 51
176.6836817232565977
  0
ARC
  5
6158
  8
0
 10
1078.8606082560029336
 20
125.7115294775665006
 30
0.0
 40
0.4355918493725615
 50
113.5238036894426017
 51
145.8151295849183953
  0
ARC
  5
6159
  8
0
 10
1078.1975776487590792
 20
126.9883557216839023
 30
0.0
 40
1.004580225302576
 50
299.1398191538435754
 51
312.107976864069883
  0
ARC
  5
615A
  8
0
 10
1078.457021567935044
 20
126.7193108814137048
 30
0.0
 40
0.6311311678233535
 50
311.011773659711821
 51
352.3624559070686928
  0
ARC
  5
615B
  8
0
 10
1077.0670314386359223
 20
124.7599515694127064
 30
0.0
 40
2.015772708272352
 50
334.4807736588755915
 51
359.0969165393274807
  0
ARC
  5
615C
  8
0
 10
1077.0426175484999476
 20
124.7716064554893052
 30
0.0
 40
2.0428258855534152
 50
325.7336133385766743
 51
334.4807736588755915
  0
ARC
  5
615D
  8
0
 10
1078.7671954345589711
 20
123.5990021913353019
 30
0.0
 40
0.0426833767196471
 50
148.3315548705481888
 51
180.6725693449427865
  0
LINE
  5
615E
  8
0
 10
1078.7245149985531043
 20
123.5985011619107041
 30
0.0
 11
1078.7245149985531043
 21
120.4162542109378933
 31
0.0
  0
ARC
  5
615F
  8
0
 10
1078.7679473291780141
 20
120.4162542109378933
 30
0.0
 40
0.0434323306256275
 50
179.9999999999967031
 51
211.5333229576052076
  0
ARC
  5
6160
  8
0
 10
1077.0902669825120483
 20
119.254214562138003
 30
0.0
 40
1.9974560820548981
 50
34.4352595611546306
 51
34.7772797882539777
  0
LINE
  5
6161
  8
0
 10
1078.4250413580530221
 20
120.5438415790704028
 30
0.0
 11
1078.4410157490528945
 21
120.4816108924703997
 31
0.0
  0
LINE
  5
6162
  8
0
 10
1078.4410157490528945
 20
120.4816108924703997
 30
0.0
 11
1078.4575537164530488
 21
120.4818973688704062
 31
0.0
  0
ARC
  5
6163
  8
0
 10
1078.4425395873920479
 20
120.5078890059841967
 30
0.0
 40
0.0300164833267842
 50
300.0129772877945129
 51
359.288927973518696
  0
LINE
  5
6164
  8
0
 10
1078.4725537591530156
 20
120.5183467796703951
 30
0.0
 11
1078.472553752668091
 21
116.486782666329006
 31
0.0
  0
LINE
  5
6165
  8
0
 10
1078.4725537486640405
 20
113.9980231921137062
 30
0.0
 11
1078.4725537432289002
 21
111.6256608617507027
 31
0.0
  0
ARC
  5
6166
  8
0
 10
1078.9639181968120738
 20
116.6132490373291972
 30
0.0
 40
0.5073783203521325
 50
183.6424166660744106
 51
234.9022764899038123
  0
ARC
  5
6167
  8
0
 10
1078.5081161480850369
 20
115.9182508752543015
 30
0.0
 40
0.3244228054394812
 50
359.9692668795264012
 51
59.6195628887388125
  0
LINE
  5
6168
  8
0
 10
1078.8325389068529603
 20
115.9180768567703979
 30
0.0
 11
1078.8325389068529603
 21
114.5678712138704043
 31
0.0
  0
ARC
  5
6169
  8
0
 10
1078.5075215165759346
 20
114.5678712138704043
 30
0.0
 40
0.3250173902770967
 50
303.060517733453878
 51
0.0
  0
ARC
  5
616A
  8
0
 10
1078.9576792093680524
 20
113.8762894550543052
 30
0.0
 40
0.5001657878760958
 50
123.0605177334539064
 51
179.1787852732556132
  0
ARC
  5
616B
  8
0
 10
1078.4425409201940056
 20
120.5181524615207991
 30
0.0
 40
0.0300134680091733
 50
0.3709563865184772
 51
61.0062917933863105
  0
LINE
  5
616C
  8
0
 10
1078.4570888555149395
 20
120.5444044298247945
 30
0.0
 11
1078.4250413580530221
 21
120.5438415790704028
 31
0.0
  0
ARC
  5
616D
  8
0
 10
1078.4176787603539651
 20
120.5147750902264931
 30
0.0
 40
0.0299844729584849
 50
14.7970606317777698
 51
75.7858373504405449
  0
LINE
  5
616E
  8
0
 10
1078.4466695028529557
 20
120.522433183670401
 30
0.0
 11
1078.4496782566529873
 21
120.5107962736703939
 31
0.0
  0
ARC
  5
616F
  8
0
 10
1078.4210874704081107
 20
120.5034040504118025
 30
0.0
 40
0.0295309671838921
 50
312.4406768547192996
 51
14.4965121710187805
  0
ARC
  5
6170
  8
0
 10
1075.0572124247460124
 20
126.1563165975156977
 30
0.0
 40
2.1443754703084581
 50
183.0324661622352096
 51
217.8783777314588974
  0
ARC
  5
6171
  8
0
 10
1071.8125256913399426
 20
123.5779219863120062
 30
0.0
 40
2.0002705382235471
 50
0.0006013236987601
 51
39.1093357519556406
  0
LINE
  5
6172
  8
0
 10
1073.8127962294529425
 20
123.5779429793082045
 30
0.0
 11
1073.8127962294529425
 21
120.2888968154081937
 31
0.0
  0
ARC
  5
6173
  8
0
 10
1071.8124612715180319
 20
120.2888968154081937
 30
0.0
 40
2.0003349579352072
 50
320.6593373180799063
 51
0.0
  0
ARC
  5
6174
  8
0
 10
1074.9179069337999408
 20
117.7644527873718943
 30
0.0
 40
2.0017737879112918
 50
141.1245678033203887
 51
178.8759506586370094
  0
ARC
  5
6175
  8
0
 10
1077.8294503295410323
 20
123.2966792116698969
 30
0.0
 40
0.6752099664656991
 50
275.600210961432083
 51
338.4739102921706149
  0
ARC
  5
6176
  8
0
 10
1076.6387445856651084
 20
142.7166702561223133
 30
0.0
 40
20.13123510575425
 50
269.361887159763512
 51
273.5787446654774726
  0
ARC
  5
6177
  8
0
 10
1074.4308259089470994
 20
200.885794128427392
 30
0.0
 40
78.3242353384207917
 50
269.5478939620238066
 51
271.4512856952687798
  0
ARC
  5
6178
  8
0
 10
1077.8282063488670701
 20
120.7124178542099031
 30
0.0
 40
0.6738748062327659
 50
20.9424812732794585
 51
86.0594514652805174
  0
ARC
  5
6179
  8
0
 10
1077.7326589800788952
 20
106.3573323862006959
 30
0.0
 40
15.0280367061931006
 50
89.4591492345437729
 51
94.8870255148546846
  0
ARC
  5
617A
  8
0
 10
1075.394494637932894
 20
142.6611267173911131
 30
0.0
 40
21.3566083083510208
 50
268.7902893296572984
 51
272.8393265209822971
  0
ARC
  5
617B
  8
0
 10
1074.7802040059900719
 20
-102.962956503661502
 30
0.0
 40
224.2722944135686873
 50
89.9582522489972121
 51
90.2471484705639426
  0
ARC
  5
617C
  8
0
 10
1084.5063581964709556
 20
121.2947408302790961
 30
0.0
 40
6.6324523696975417
 50
179.2228496067621109
 51
190.9595331104879961
  0
ARC
  5
617D
  8
0
 10
1077.8004560794229292
 20
119.9769450728797011
 30
0.0
 40
0.2025594492394806
 50
266.516991536313185
 51
16.3032746526870902
  0
ARC
  5
617E
  8
0
 10
1078.0704351473939369
 20
122.814146248548596
 30
0.0
 40
3.0524670297040251
 50
242.9514502096108117
 51
264.6938377069677131
  0
ARC
  5
617F
  8
0
 10
1084.7065930921589825
 20
135.8785214261500016
 30
0.0
 40
17.7056690347532886
 50
239.2864684010527014
 51
243.0506619699507098
  0
ARC
  5
6180
  8
0
 10
1072.9206657139900472
 20
115.7433065826333944
 30
0.0
 40
5.626860902381039
 50
60.8267123130913276
 51
80.8773423427435318
  0
ARC
  5
6181
  8
0
 10
1075.0572124247460124
 20
103.1998151932370007
 30
0.0
 40
2.1443754703084581
 50
183.0324661622352096
 51
217.8783777314588974
  0
ARC
  5
6182
  8
0
 10
1071.8125256913399426
 20
100.621420582033295
 30
0.0
 40
2.0002705382235471
 50
0.0006013236987601
 51
39.1093357519556406
  0
LINE
  5
6183
  8
0
 10
1073.8127962294529425
 20
100.6214415750293938
 30
0.0
 11
1073.8127962294529425
 21
97.3323954111294682
 31
0.0
  0
ARC
  5
6184
  8
0
 10
1071.8124612715180319
 20
97.3323954111294682
 30
0.0
 40
2.0003349579352072
 50
320.6593373180799063
 51
0.0
  0
ARC
  5
6185
  8
0
 10
1074.9179069337999408
 20
94.8079513830932541
 30
0.0
 40
2.0017737879112918
 50
141.1245678033203887
 51
178.8759506586370094
  0
ARC
  5
6186
  8
0
 10
1077.8294503295410323
 20
100.3401778073911004
 30
0.0
 40
0.6752099664656991
 50
275.600210961432083
 51
338.4739102921706149
  0
ARC
  5
6187
  8
0
 10
1076.6387445856651084
 20
119.7601688518435026
 30
0.0
 40
20.13123510575425
 50
269.361887159763512
 51
273.5787446654774726
  0
ARC
  5
6188
  8
0
 10
1074.4308259089470994
 20
177.929292724148695
 30
0.0
 40
78.3242353384207917
 50
269.5478939620238066
 51
271.4512856952687798
  0
ARC
  5
6189
  8
0
 10
1077.8282063488670701
 20
97.7559164499312345
 30
0.0
 40
0.6738748062327659
 50
20.9424812732794585
 51
86.0594514652805174
  0
ARC
  5
618A
  8
0
 10
1077.7326589800788952
 20
83.4008309819220557
 30
0.0
 40
15.0280367061931006
 50
89.4591492345437729
 51
94.8870255148546846
  0
ARC
  5
618B
  8
0
 10
1075.394494637932894
 20
119.7046253131123024
 30
0.0
 40
21.3566083083510208
 50
268.7902893296572984
 51
272.8393265209822971
  0
ARC
  5
618C
  8
0
 10
1074.7802040059900719
 20
-125.919457907940199
 30
0.0
 40
224.2722944135686873
 50
89.9582522489972121
 51
90.2471484705639426
  0
ARC
  5
618D
  8
0
 10
1084.5063581964709556
 20
98.3382394260003849
 30
0.0
 40
6.6324523696975417
 50
179.2228496067588139
 51
190.9595331104879961
  0
ARC
  5
618E
  8
0
 10
1077.8004560794229292
 20
97.0204436686009757
 30
0.0
 40
0.2025594492394806
 50
266.516991536313185
 51
16.3032746526870902
  0
ARC
  5
618F
  8
0
 10
1078.0704351473939369
 20
99.8576448442699558
 30
0.0
 40
3.0524670297040251
 50
242.9514502096108117
 51
264.6938377069677131
  0
ARC
  5
6190
  8
0
 10
1084.7065930921589825
 20
112.9220200218713046
 30
0.0
 40
17.7056690347532886
 50
239.2864684010527014
 51
243.0506619699507098
  0
ARC
  5
6191
  8
0
 10
1072.9206657139900472
 20
92.7868051783547259
 30
0.0
 40
5.626860902381039
 50
60.8267123130913276
 51
80.8773423427435318
  0
ARC
  5
6192
  8
0
 10
1078.5928645447650069
 20
112.4037677499722037
 30
0.0
 40
0.7153911464894889
 50
214.2815746097516865
 51
240.847428740077504
  0
ARC
  5
6193
  8
0
 10
1077.4354538181639782
 20
110.3287936566194958
 30
0.0
 40
1.6605543659615249
 50
23.6675383417818495
 51
60.8474287400774472
  0
ARC
  5
6194
  8
0
 10
1077.4655803534030838
 20
110.3690573405627049
 30
0.0
 40
1.616988698772196
 50
0.2491903010030016
 51
22.7893363661086106
  0
LINE
  5
6195
  8
0
 10
1078.0017515255528906
 20
112.0008162752341008
 30
0.0
 11
1078.0017515255528906
 21
111.887089119534096
 31
0.0
  0
ARC
  5
6196
  8
0
 10
1078.5302293495810773
 20
112.1993707462819003
 30
0.0
 40
0.6138473954439611
 50
210.5791687083564057
 51
241.5511636266921869
  0
ARC
  5
6197
  8
0
 10
1077.4499250580220178
 20
110.205453767914193
 30
0.0
 40
1.65391852699653
 50
33.8267639584498667
 51
61.5511636266921727
  0
ARC
  5
6198
  8
0
 10
1077.3782865562400275
 20
110.2183582199339043
 30
0.0
 40
1.706996814942392
 50
3.240631326623304
 51
32.1281122466900229
  0
ARC
  5
6199
  8
0
 10
1082.4633696836619947
 20
113.8057701044630932
 30
0.0
 40
4.856683365291607
 50
203.2697117246929963
 51
206.6004472747025034
  0
ARC
  5
619A
  8
0
 10
1075.0393026717999874
 20
110.1420719437812039
 30
0.0
 40
3.4223728854395699
 50
2.8085269279501999
 51
25.7910195191250189
  0
ARC
  5
619B
  8
0
 10
1078.5928645447650069
 20
103.2695628842198943
 30
0.0
 40
0.7153911464894889
 50
119.152571259922496
 51
145.7184253902483135
  0
ARC
  5
619C
  8
0
 10
1077.4354538181639782
 20
105.3445369775726022
 30
0.0
 40
1.6605543659615249
 50
299.1525712599225244
 51
336.3324616582182216
  0
ARC
  5
619D
  8
0
 10
1077.4655803534030838
 20
105.304273293629393
 30
0.0
 40
1.616988698772196
 50
337.2106636338913859
 51
359.7508096989969886
  0
LINE
  5
619E
  8
0
 10
1078.0017515255528906
 20
103.6725143589580966
 30
0.0
 11
1078.0017515255528906
 21
103.7862415146581014
 31
0.0
  0
ARC
  5
619F
  8
0
 10
1078.5302293495810773
 20
103.4739598879101976
 30
0.0
 40
0.6138473954439611
 50
118.4488363733077989
 51
149.4208312916435091
  0
ARC
  5
61A0
  8
0
 10
1077.4499250580220178
 20
105.4678768662779049
 30
0.0
 40
1.65391852699653
 50
298.4488363733079268
 51
326.1732360415501262
  0
ARC
  5
61A1
  8
0
 10
1077.3782865562400275
 20
105.4549724142582932
 30
0.0
 40
1.706996814942392
 50
327.8718877533099771
 51
356.7593686733766845
  0
ARC
  5
61A2
  8
0
 10
1082.4633696836619947
 20
101.8675605297290048
 30
0.0
 40
4.856683365291607
 50
153.3995527252957061
 51
156.7302882753070037
  0
ARC
  5
61A3
  8
0
 10
1075.0393026717999874
 20
105.5312586904109935
 30
0.0
 40
3.4223728854395699
 50
334.2089804808750273
 51
357.1914730720498028
  0
LINE
  5
61A4
  8
0
 10
1078.4575647956530702
 20
105.4487504715196025
 30
0.0
 11
1079.0825537591529155
 21
105.4442305733339964
 31
0.0
  0
LINE
  5
61A5
  8
0
 10
1079.0825537591529155
 20
110.2413236063491979
 30
0.0
 11
1078.4575647956530702
 21
110.2149786127216942
 31
0.0
  0
ARC
  5
61A6
  8
0
 10
1078.3480797205600084
 20
103.8187170338467951
 30
0.0
 40
0.7514535680118116
 50
295.2262030805870268
 51
347.7968893314863976
  0
ARC
  5
61A7
  8
0
 10
1078.8259453744449274
 20
102.7915595248910989
 30
0.0
 40
0.3814485373375481
 50
114.4038404718397004
 51
164.9591889547870096
  0
ARC
  5
61A8
  8
0
 10
1078.8411181319108891
 20
102.8376407453363015
 30
0.0
 40
0.3999113919260917
 50
115.9874754924199038
 51
163.5557835735075969
  0
ARC
  5
61A9
  8
0
 10
1078.3790372591390678
 20
103.8492295407855011
 30
0.0
 40
0.7124138857715701
 50
293.7436296975520236
 51
350.935253037983216
  0
ARC
  5
61AA
  8
0
 10
1077.0607172902421098
 20
101.8174755176744952
 30
0.0
 40
2.0222828181205719
 50
325.6771770489453957
 51
358.7961786053693913
  0
ARC
  5
61AB
  8
0
 10
1078.7679272651259907
 20
100.6545892713864987
 30
0.0
 40
0.0434132900671266
 50
148.6106886348231058
 51
180.3934321183672864
  0
LINE
  5
61AC
  8
0
 10
1078.7245149985531043
 20
100.6542911683045958
 30
0.0
 11
1078.7245149985531043
 21
97.4628633120172623
 31
0.0
  0
ARC
  5
61AD
  8
0
 10
1078.767947330529978
 20
97.4628633120172623
 30
0.0
 40
0.0434323319772396
 50
180.0
 51
211.5333189228188076
  0
ARC
  5
61AE
  8
0
 10
1077.0503026028620752
 20
96.2919949335639558
 30
0.0
 40
2.035376994268141
 50
3.1758064588113291
 51
34.3397267990217685
  0
ARC
  5
61AF
  8
0
 10
1072.3072555057819955
 20
94.4733546606359056
 30
0.0
 40
0.1923014491705533
 50
275.3392533543458853
 51
352.0815351013037002
  0
LINE
  5
61B0
  8
0
 10
1072.3251496819530075
 20
94.2818875725704544
 30
0.0
 11
1072.0996421812531025
 21
94.2700656244704334
 31
0.0
  0
ARC
  5
61B1
  8
0
 10
1072.1078756419160527
 20
94.2382997199391639
 30
0.0
 40
0.0328155841814759
 50
104.5308311072052021
 51
159.2884159317808042
  0
ARC
  5
61B2
  8
0
 10
1072.1533998570089352
 20
94.2172259579823645
 30
0.0
 40
0.0829293933845666
 50
156.792416828027001
 51
179.8926241193784108
  0
LINE
  5
61B3
  8
0
 10
1072.0704706092531069
 20
94.217381372770447
 30
0.0
 11
1072.0704706092531069
 21
93.8704154901704584
 31
0.0
  0
ARC
  5
61B4
  8
0
 10
1072.4635206161099177
 20
93.8704154901704584
 30
0.0
 40
0.393050006856896
 50
180.0
 51
202.8357695610139046
  0
LINE
  5
61B5
  8
0
 10
1072.1012774571529462
 20
93.7178763093704532
 30
0.0
 11
1072.4439167918530984
 21
92.9044797309704364
 31
0.0
  0
ARC
  5
61B6
  8
0
 10
1071.6907184359420171
 20
92.6088032224380839
 30
0.0
 40
0.8091553380190361
 50
4.1780785791455957
 51
21.4330494827952585
  0
ARC
  5
61B7
  8
0
 10
1072.2884341831399979
 20
94.1710988128035069
 30
0.0
 40
0.1952387360361391
 50
273.5337266811341124
 51
323.353728432102514
  0
LINE
  5
61B8
  8
0
 10
1072.3004679320529249
 20
93.9762312861704743
 30
0.0
 11
1072.0704706092531069
 21
93.9664930799454083
 31
0.0
  0
ARC
  5
61B9
  8
0
 10
1072.2413144730619479
 20
94.2102295380636718
 30
0.0
 40
0.2564215066099695
 50
322.6227137423305749
 51
359.432079618980822
  0
ARC
  5
61BA
  8
0
 10
1078.7666724606260686
 20
132.7374598774675007
 30
0.0
 40
0.3135262476309292
 50
189.6306043656927045
 51
230.2735080330618871
  0
ARC
  5
61BB
  8
0
 10
1078.9125554214328986
 20
132.9130115309108078
 30
0.0
 40
0.5417809765647413
 50
230.2735080330618871
 51
243.4807583362635057
  0
ARC
  5
61BC
  8
0
 10
1078.2947999582690954
 20
131.6603970478122108
 30
0.0
 40
0.8548907451541312
 50
39.63438923677883
 51
63.9185642436868022
  0
ARC
  5
61BD
  8
0
 10
1078.5294604473299387
 20
131.8492686503159064
 30
0.0
 40
0.5537090902302627
 50
2.702397857914367
 51
40.0721951442108022
  0
ARC
  5
61BE
  8
0
 10
1078.737975880887916
 20
132.6420076016765961
 30
0.0
 40
0.2806473178148247
 50
182.3510266210041948
 51
230.1115404164654876
  0
ARC
  5
61BF
  8
0
 10
1079.0144409123779496
 20
132.9960932941156102
 30
0.0
 40
0.729783942769077
 50
231.2848351281799921
 51
244.5932578310269889
  0
ARC
  5
61C0
  8
0
 10
1078.3091333818490511
 20
131.6120506629337967
 30
0.0
 40
0.8241442100171468
 50
39.1794303671218671
 51
61.5828446609113485
  0
ARC
  5
61C1
  8
0
 10
1078.4247741050648983
 20
131.7288803993365036
 30
0.0
 40
0.6609274324855977
 50
5.5941658004652437
 51
37.6615788786132768
  0
ARC
  5
61C2
  8
0
 10
1078.7656052459260536
 20
131.9744912133976982
 30
0.0
 40
0.3131973774488366
 50
190.4117032517594907
 51
226.384981793328393
  0
ARC
  5
61C3
  8
0
 10
1078.8768700676519074
 20
132.0918696240889858
 30
0.0
 40
0.4749299926785155
 50
226.4349252456009935
 51
244.9570836175107047
  0
ARC
  5
61C4
  8
0
 10
1078.3058346515711037
 20
130.9130251948506896
 30
0.0
 40
0.8350116891198232
 50
36.0967358014980704
 51
63.6977533080821701
  0
ARC
  5
61C5
  8
0
 10
1078.5213097755340641
 20
131.0801966803074095
 30
0.0
 40
0.5624723779422693
 50
3.7873461600482812
 51
35.2684248494913035
  0
ARC
  5
61C6
  8
0
 10
1078.8044876713240683
 20
131.9336787328687137
 30
0.0
 40
0.3547375582744777
 50
192.0487010502154135
 51
247.0011265814121089
  0
ARC
  5
61C7
  8
0
 10
1078.2842486173690304
 20
130.8195890091863873
 30
0.0
 40
0.8751467909756803
 50
41.6290753873793307
 51
64.1456399720498638
  0
ARC
  5
61C8
  8
0
 10
1078.5007028655641079
 20
131.0143794897290945
 30
0.0
 40
0.5839580515984805
 50
4.8688459702427798
 51
41.4518249426250307
  0
LINE
  5
61CA
  8
0
 10
1050.0143268913529937
 20
82.813725375970435
 30
0.0
 11
1050.1793331742530881
 21
82.813725375970435
 31
0.0
  0
LINE
  5
61CB
  8
0
 10
1055.7715225178531
 20
82.813725375970435
 30
0.0
 11
1056.3965225178531
 21
82.813725375970435
 31
0.0
  0
LINE
  5
61CC
  8
0
 10
1057.7765225178529818
 20
82.813725375970435
 30
0.0
 11
1058.4015225178529818
 21
82.813725375970435
 31
0.0
  0
LINE
  5
61CD
  8
0
 10
1059.3291166261660692
 20
82.813725375970435
 30
0.0
 11
1072.9283454646711107
 21
82.813725375970435
 31
0.0
  0
ARC
  5
61CE
  8
0
 10
1072.1901514844430494
 20
157.9573147683119885
 30
0.0
 40
0.145276848873748
 50
359.917639965398223
 51
45.1564053270381009
  0
LINE
  5
61CF
  8
0
 10
1072.3354281832530432
 20
157.9571059396704129
 30
0.0
 11
1072.3354281832530432
 21
157.7886825914704048
 31
0.0
  0
ARC
  5
61D0
  8
0
 10
1071.6906310880240198
 20
157.7886825914704048
 30
0.0
 40
0.6447970952293663
 50
354.4043227411746102
 51
0.0
  0
LINE
  5
61D1
  8
0
 10
1072.3323555699530516
 20
157.7258098365703916
 30
0.0
 11
1072.3323555699530516
 21
157.6910117005893994
 31
0.0
  0
LINE
  5
61D2
  8
0
 10
1072.3547493074529484
 20
157.6909707173705044
 30
0.0
 11
1072.2504115390529478
 21
157.6911616679703911
 31
0.0
  0
ARC
  5
61D3
  8
0
 10
1072.2505332419800652
 20
157.757661651974388
 30
0.0
 40
0.066500095369314
 50
185.7924274634729045
 51
269.8951419852206755
  0
LINE
  5
61D4
  8
0
 10
1072.1843726923530085
 20
157.7509501426704048
 30
0.0
 11
1072.1843726923530085
 21
157.4661026601438039
 31
0.0
  0
ARC
  5
61D5
  8
0
 10
1072.0100107380239933
 20
157.6999916741229129
 30
0.0
 40
0.1049335406624806
 50
5.7105494035273336
 51
79.9862748403095623
  0
LINE
  5
61D6
  8
0
 10
1072.3323555699530516
 20
157.7258098365703916
 30
0.0
 11
1072.2975040868170709
 21
157.6910754829733889
 31
0.0
  0
LINE
  5
61D7
  8
0
 10
1072.1085159560529974
 20
157.5321752671704019
 30
0.0
 11
1072.1085159560529974
 21
157.3903484460522861
 31
0.0
  0
ARC
  5
61D8
  8
0
 10
1074.09708419215508
 20
157.5554995993722969
 30
0.0
 40
1.9887050193794751
 50
175.5317521129186105
 51
180.672003349843294
  0
LINE
  5
61D9
  8
0
 10
1072.515995696662003
 20
157.9020667556536068
 30
0.0
 11
1072.4977233831530157
 21
157.8828117655297945
 31
0.0
  0
LINE
  5
61DA
  8
0
 10
1072.3865864044310001
 20
157.9803496963810971
 30
0.0
 11
1072.3719134092530112
 21
157.9648875857704127
 31
0.0
  0
ARC
  5
61DB
  8
0
 10
1072.4172493069720531
 20
157.9218654249939959
 30
0.0
 40
0.0624999995185615
 50
136.4999998395487921
 51
180.0000002049640955
  0
LINE
  5
61DC
  8
0
 10
1072.3547493074529484
 20
157.9218654247704023
 30
0.0
 11
1072.3547493074529484
 21
157.6367789116694098
 31
0.0
  0
ARC
  5
61DD
  8
0
 10
1072.3999493893290946
 20
157.8914267268978904
 30
0.0
 40
0.0710522202861412
 50
121.967133697143197
 51
137.4085230501634953
  0
ARC
  5
61DE
  8
0
 10
1072.2439741826349291
 20
158.0451860084316991
 30
0.0
 40
0.1480327064023262
 50
308.1553582172750794
 51
314.4507615875700139
  0
ARC
  5
61DF
  8
0
 10
1072.3986337783330782
 20
157.8965890267413101
 30
0.0
 40
0.0666535574411106
 50
139.9108676051077111
 51
161.4903847606263128
  0
ARC
  5
61E0
  8
0
 10
1077.6171041283901104
 20
154.9694462326650068
 30
0.0
 40
3.1701797976105071
 50
103.6155940605936934
 51
105.4176832773865016
  0
ARC
  5
61E1
  8
0
 10
1076.8245363172009093
 20
157.7924099471248098
 30
0.0
 40
0.2384831944921949
 50
102.1603458444782007
 51
118.5442691221404061
  0
ARC
  5
61E2
  8
0
 10
1076.747399126217033
 20
157.9342175837900015
 30
0.0
 40
0.0770534820797417
 50
118.5442691221404061
 51
144.6988051848815076
  0
ARC
  5
61E3
  8
0
 10
1076.7331616163239687
 20
157.9452827786510056
 30
0.0
 40
0.059045052920296
 50
145.4781289150093073
 51
207.4678820233586976
  0
ARC
  5
61E4
  8
0
 10
1076.8723462625869161
 20
158.0133554621124858
 30
0.0
 40
0.2139717142580709
 50
206.450216586108013
 51
226.4966124946602974
  0
ARC
  5
61E5
  8
0
 10
1077.1249225248659513
 20
158.2783667857073056
 30
0.0
 40
0.5800667180388036
 50
226.4206602895534104
 51
236.1416014992666135
  0
ARC
  5
61E6
  8
0
 10
1075.0127723195719227
 20
155.1707012375532031
 30
0.0
 40
3.1774399699925739
 50
44.7194313616206571
 51
55.7349108479131203
  0
ARC
  5
61E7
  8
0
 10
1075.5473204964189335
 20
155.6093663145722985
 30
0.0
 40
2.4897842904861771
 50
1.0830001399664879
 51
46.2022582004997417
  0
ARC
  5
61E8
  8
0
 10
1075.7420071447891132
 20
155.811745934932901
 30
0.0
 40
2.891012700129246
 50
7.1736229676659198
 51
32.7907421768085428
  0
ARC
  5
61E9
  8
0
 10
1079.1459738191849738
 20
158.0046743972471859
 30
0.0
 40
1.1581754112363669
 50
202.3256611654620087
 51
212.790742176808493
  0
ARC
  5
61EA
  8
0
 10
1078.7186955956399288
 20
157.8201633740069099
 30
0.0
 40
0.6928863586231567
 50
193.0227176695780997
 51
201.633547765022314
  0
ARC
  5
61EB
  8
0
 10
1078.4166883547609359
 20
157.759280113098896
 30
0.0
 40
0.3850263524109559
 50
158.7555329849921861
 51
194.3228523760645032
  0
ARC
  5
61EC
  8
0
 10
1078.3744586133789198
 20
157.7421623701063993
 30
0.0
 40
0.3532545176365501
 50
112.5552714074158018
 51
153.6793034126204986
  0
ARC
  5
61ED
  8
0
 10
1078.6449240365700462
 20
157.0745986405665917
 30
0.0
 40
1.0735182806416941
 50
100.4627654535561021
 51
112.219938184209596
  0
LINE
  5
61EE
  8
0
 10
1077.9989478479660647
 20
149.4979147079228028
 30
0.0
 11
1078.0015653334960462
 21
149.3741227526084003
 31
0.0
  0
ARC
  5
61EF
  8
0
 10
1078.5483628687059081
 20
149.7275839438148068
 30
0.0
 40
0.6510932023914778
 50
212.8794598119760906
 51
241.5146924513821887
  0
ARC
  5
61F0
  8
0
 10
1077.4953574664850748
 20
147.7498722620466935
 30
0.0
 40
1.5895076844019049
 50
50.3832100982993865
 51
62.153039624390928
  0
ARC
  5
61F1
  8
0
 10
1077.5009268271860492
 20
147.7566004473380872
 30
0.0
 40
1.5807734840413801
 50
24.1522281894959114
 51
50.3832100982993865
  0
ARC
  5
61F2
  8
0
 10
1077.4637120886920911
 20
147.7434726468339079
 30
0.0
 40
1.620105161765365
 50
2.2629782771239242
 51
24.0373519560529409
  0
ARC
  5
61F3
  8
0
 10
1078.6166373736089099
 20
149.9182675398627111
 30
0.0
 40
0.7471524967556196
 50
214.2362451539896142
 51
230.7813252792556113
  0
ARC
  5
61F4
  8
0
 10
1078.5909393773420106
 20
149.9143355854668016
 30
0.0
 40
0.728066387291131
 50
232.1525830348504087
 51
243.4704086180990998
  0
ARC
  5
61F5
  8
0
 10
1077.4910479002910506
 20
147.8752081827472011
 30
0.0
 40
1.58931643592253
 50
48.5857242261060591
 51
60.8276663967861424
  0
ARC
  5
61F6
  8
0
 10
1077.4886763291360694
 20
147.8733832513408117
 30
0.0
 40
1.592253930279699
 50
25.5666220799970603
 51
48.5651643261014883
  0
ARC
  5
61F7
  8
0
 10
1077.40827382248699
 20
147.8481095696018031
 30
0.0
 40
1.675733120418168
 50
2.386309993002913
 51
25.1597557365662183
  0
ARC
  5
61F8
  8
0
 10
1080.756157871528103
 20
150.5494867204562013
 30
0.0
 40
2.9948723691495491
 50
203.1075788809899905
 51
208.3625759295713067
  0
ARC
  5
61F9
  8
0
 10
1074.9385403301910173
 20
147.5956959088350118
 30
0.0
 40
3.5314205302470012
 50
19.6773560753437202
 51
25.693616441704819
  0
ARC
  5
61FA
  8
0
 10
1075.1358458377790157
 20
147.6662919171670012
 30
0.0
 40
3.3218656249623648
 50
0.5384117541094275
 51
19.6767329064374792
  0
LINE
  5
61FB
  8
0
 10
1078.9240257095530069
 20
138.5291173104704114
 30
0.0
 11
1078.931118234404039
 21
138.3529083813699003
 31
0.0
  0
ARC
  5
61FC
  8
0
 10
1077.7213896278090033
 20
138.471129507456908
 30
0.0
 40
1.2123465007370049
 50
1.4555659159528389
 51
3.6789594943372781
  0
ARC
  5
61FD
  8
0
 10
1078.1340472958700047
 20
138.4550687570454102
 30
0.0
 40
0.8006698678708016
 50
356.4294208781254838
 51
3.3549513009522678
  0
ARC
  5
61FE
  8
0
 10
1079.9025255584040224
 20
138.3527814678274126
 30
0.0
 40
0.9707791108762384
 50
176.904458867089005
 51
181.7266902724446993
  0
ARC
  5
61FF
  8
0
 10
882.7221160150515971
 20
130.6528442631006897
 30
0.0
 40
196.3599538444009909
 50
1.0319873036285989
 51
2.238795500170315
  0
ARC
  5
6200
  8
0
 10
883.2316993714001683
 20
146.0046232295298978
 30
0.0
 40
195.8489501718991903
 50
356.7508294858682802
 51
357.7609143342140214
  0
ARC
  5
6201
  8
0
 10
881.8690611114002422
 20
130.5038038599545018
 30
0.0
 40
197.2037729148532037
 50
1.0899153170590019
 51
2.227489105535831
  0
LINE
  5
6202
  8
0
 10
1078.9105978956599756
 20
138.5004895210448126
 30
0.0
 11
1078.9157706426528875
 21
138.372856722970397
 31
0.0
  0
ARC
  5
6203
  8
0
 10
1078.458209146074978
 20
138.3543125094813888
 30
0.0
 40
0.4579371256016269
 50
357.0118916420000232
 51
2.3208333952032771
  0
ARC
  5
6204
  8
0
 10
881.2514971829474462
 20
146.2134887426097123
 30
0.0
 40
197.8211561056064909
 50
356.7294100282766749
 51
357.7161947325988081
  0
LINE
  5
6205
  8
0
 10
1079.0825537591529155
 20
137.008285072573301
 30
0.0
 11
1079.0599232648189627
 21
139.0123236975560133
 31
0.0
  0
LINE
  5
6206
  8
0
 10
1079.0724922807519306
 20
134.03047693884929
 30
0.0
 11
1079.0825537591529155
 21
134.6380837878793102
 31
0.0
  0
ARC
  5
6207
  8
0
 10
1050.2199151539430204
 20
86.9253471057155735
 30
0.0
 40
0.1118814248754725
 50
227.180282407062009
 51
266.0954177074980862
  0
LINE
  5
6208
  8
0
 10
1050.143870046749953
 20
86.8432825280701053
 30
0.0
 11
1048.9080856372529524
 21
88.0772530420704385
 31
0.0
  0
ARC
  5
6209
  8
0
 10
1048.9960987098129408
 20
88.1652889197851692
 30
0.0
 40
0.1244854076045885
 50
179.992578021803098
 51
225.0074220215365983
  0
LINE
  5
620A
  8
0
 10
1078.7309283828531079
 20
134.9560042341323083
 30
0.0
 11
1078.4575647956530702
 21
134.9560042341323083
 31
0.0
  0
LINE
  5
620B
  8
0
 10
1078.7308675965530256
 20
138.1771289962343872
 30
0.0
 11
1078.4575647956530702
 21
138.1771289962343872
 31
0.0
  0
LINE
  5
620C
  8
0
 10
1079.0734539648190093
 20
124.5660230830024062
 30
0.0
 11
1079.0825537591529155
 21
123.3262615193442002
 31
0.0
  0
LINE
  5
620D
  8
0
 10
1079.0710092452109166
 20
120.3837253759703998
 30
0.0
 11
1079.0825537591529155
 21
121.2339153192721994
 31
0.0
  0
ARC
  5
620E
  8
0
 10
874.4575887693241611
 20
130.7669917508590913
 30
0.0
 40
204.629534322932102
 50
357.4923224006582814
 51
358.1391007992248205
  0
ARC
  5
620F
  8
0
 10
1079.6744319495869604
 20
121.7855187588534989
 30
0.0
 40
0.7837785042267307
 50
177.9333958589762119
 51
182.0637994600687932
  0
ARC
  5
6210
  8
0
 10
882.9256683379849164
 20
113.1106982307237985
 30
0.0
 40
196.1561578142693918
 50
2.124885110018512
 51
2.5264257555624652
  0
ARC
  5
6211
  8
0
 10
881.3117763136386884
 20
130.6341397551626073
 30
0.0
 40
197.7608865561142863
 50
357.485251174767825
 51
358.1002028694045975
  0
ARC
  5
6212
  8
0
 10
887.0150602116956406
 20
113.3252465837552023
 30
0.0
 40
192.0612196134636065
 50
2.5759175796125011
 51
3.1028497010163232
  0
ARC
  5
6213
  8
0
 10
882.1525418438326369
 20
112.9617769648711061
 30
0.0
 40
196.9200903547204859
 50
2.574360815299614
 51
3.1249937480846599
  0
ARC
  5
6214
  8
0
 10
1078.4982185252990803
 20
121.7876111482653982
 30
0.0
 40
0.376157015847486
 50
356.4353904743442172
 51
2.8983307100668472
  0
ARC
  5
6215
  8
0
 10
881.1359937692785707
 20
130.6409902168398105
 30
0.0
 40
197.9368000157739118
 50
357.0295501507346785
 51
357.4296246015001088
  0
ARC
  5
6216
  8
0
 10
856.4082039632780834
 20
131.7384208067653049
 30
0.0
 40
222.7044803997459894
 50
357.0774799001843007
 51
357.3944523235364272
  0
ARC
  5
6217
  8
0
 10
882.0530785990440563
 20
112.9574085847362994
 30
0.0
 40
197.0196499840099023
 50
2.1601775781681538
 51
2.5183544683661419
  0
LINE
  5
6218
  8
0
 10
1078.7245149985531043
 20
123.5985011619107041
 30
0.0
 11
1078.4575647956530702
 21
123.5985011619107041
 31
0.0
  0
LINE
  5
6219
  8
0
 10
1078.7245149985531043
 20
120.4162542109378933
 30
0.0
 11
1078.4725537589890791
 21
120.4162542109378933
 31
0.0
  0
LINE
  5
621A
  8
0
 10
1079.0825537591529155
 20
103.7819954818703962
 30
0.0
 11
1078.4575647956530702
 21
103.7819954818703962
 31
0.0
  0
ARC
  5
621B
  8
0
 10
876.897275438808947
 20
97.4651876805882154
 30
0.0
 40
202.1859783821375913
 50
0.1507753782630998
 51
1.1221105492077841
  0
ARC
  5
621C
  8
0
 10
886.3551558768172072
 20
107.7979383137110005
 30
0.0
 40
192.7230410189808083
 50
357.3258757394328882
 51
358.017482714827679
  0
ARC
  5
621D
  8
0
 10
1079.4776153803838952
 20
98.7779237830886956
 30
0.0
 40
0.6099489926555707
 50
177.3258757394312966
 51
183.0809830847337025
  0
ARC
  5
621E
  8
0
 10
1077.9658382081599939
 20
98.6841894606640864
 30
0.0
 40
0.9047651990422944
 50
358.529590059285681
 51
3.8627601411258592
  0
ARC
  5
621F
  8
0
 10
1077.9687782918599623
 20
98.6718084692903119
 30
0.0
 40
0.9015923043681583
 50
348.9939770861615784
 51
359.3113671156775126
  0
ARC
  5
6220
  8
0
 10
890.4143267062720497
 20
107.5412435460663971
 30
0.0
 40
188.6562489661066877
 50
356.9005875225333284
 51
357.2769313474910859
  0
ARC
  5
6221
  8
0
 10
1084.6372818067989101
 20
98.3602985536692245
 30
0.0
 40
5.7838468389172837
 50
175.9664054899112955
 51
177.8384934095437018
  0
ARC
  5
6222
  8
0
 10
881.1117124744097282
 20
108.1387607224484952
 30
0.0
 40
197.9611107248479982
 50
356.8804046993665224
 51
357.2835746813967148
  0
ARC
  5
6223
  8
0
 10
1078.4928983341769708
 20
98.7801119330948154
 30
0.0
 40
0.3582392989087122
 50
356.2734266428532806
 51
3.0597727637155661
  0
ARC
  5
6224
  8
0
 10
882.1798956661093598
 20
89.4526424454968634
 30
0.0
 40
196.8926999819454977
 50
2.7208808508009339
 51
3.276745712397215
  0
ARC
  5
6225
  8
0
 10
882.5085585420938514
 20
89.5836149954558465
 30
0.0
 40
196.573654443633103
 50
2.729493278664942
 51
3.2506998278108878
  0
ARC
  5
6226
  8
0
 10
881.2977999764425476
 20
108.1309460046440023
 30
0.0
 40
197.7748614119101092
 50
357.3377319997979953
 51
357.9595181279321991
  0
LINE
  5
6227
  8
0
 10
1078.7245149985531043
 20
100.6542911683045958
 30
0.0
 11
1078.4575647956530702
 21
100.6542911683045958
 31
0.0
  0
LINE
  5
6228
  8
0
 10
1078.7245149985531043
 20
97.4628633120172623
 30
0.0
 11
1078.4575647956530702
 21
97.4628633120172623
 31
0.0
  0
LINE
  5
6229
  8
0
 10
1080.0230524037528994
 20
87.813725375970435
 30
0.0
 11
1051.0555132955530553
 21
87.813725375970435
 31
0.0
  0
ARC
  5
622A
  8
0
 10
1051.0555132955530553
 20
87.313725375970435
 30
0.0
 40
0.5000000000000023
 50
90.0
 51
180.0
  0
LINE
  5
622B
  8
0
 10
1050.5555132955530553
 20
87.313725375970435
 30
0.0
 11
1050.5555132955530553
 21
86.563725375970435
 31
0.0
  0
ARC
  5
622C
  8
0
 10
1050.5452207378859839
 20
86.3343899630126543
 30
0.0
 40
0.5001504432549413
 50
88.8208313033861714
 51
179.5145099183762909
  0
LINE
  5
622D
  8
0
 10
1050.2122965792159448
 20
86.813725375970435
 30
0.0
 11
1050.4024256713980776
 21
86.813725375970435
 31
0.0
  0
LINE
  5
622E
  8
0
 10
1050.0450882495529186
 20
86.338627887270448
 30
0.0
 11
1050.0143268913529937
 21
82.813725375970435
 31
0.0
  0
LINE
  5
622F
  8
0
 10
1050.1793331742530881
 20
82.813725375970435
 30
0.0
 11
1050.2100788580530661
 21
86.3368317789704491
 31
0.0
  0
ARC
  5
6230
  8
0
 10
1050.8332045889169422
 20
86.2490284201898731
 30
0.0
 40
0.6292814205727569
 50
116.1857804415326996
 51
171.9793752520687917
  0
LINE
  5
6231
  8
0
 10
1050.1817763074950562
 20
83.0936807162162552
 30
0.0
 11
1052.5444218996210566
 21
85.4563682776338993
 31
0.0
  0
ARC
  5
6232
  8
0
 10
1055.3810542550299942
 20
82.6197863103737689
 30
0.0
 40
4.0115683188422411
 50
100.5260660562291974
 51
135.0005088875730905
  0
LINE
  5
6233
  8
0
 10
1050.2882633697929577
 20
86.563725375970435
 30
0.0
 11
1058.4957961279530991
 21
86.563725375970435
 31
0.0
  0
LINE
  5
6234
  8
0
 10
1058.4957961279530991
 20
86.563725375970435
 30
0.0
 11
1058.5367057009530072
 21
86.4928679170704555
 31
0.0
  0
ARC
  5
6235
  8
0
 10
1058.8613976775100127
 20
86.6803289172766966
 30
0.0
 40
0.3749220002062348
 50
210.0000000181969142
 51
269.9999999760489118
  0
LINE
  5
6236
  8
0
 10
1058.8613976773528975
 20
86.3054069170704707
 30
0.0
 11
1059.3897098408529018
 21
86.3054069170704707
 31
0.0
  0
ARC
  5
6237
  8
0
 10
1059.3897098408529018
 20
86.6803289170704687
 30
0.0
 40
0.3749220000000122
 50
270.0
 51
329.9999999999981242
  0
LINE
  5
6238
  8
0
 10
1059.7144018172530195
 20
86.4928679170704555
 30
0.0
 11
1059.7553113902529276
 21
86.5637253759704635
 31
0.0
  0
LINE
  5
6239
  8
0
 10
1059.7553113902529276
 20
86.5637253759704635
 30
0.0
 11
1070.4957961279910705
 21
86.5637253759704635
 31
0.0
  0
LINE
  5
623A
  8
0
 10
1070.4957961279910705
 20
86.5637253759704635
 30
0.0
 11
1070.5367057009159453
 21
86.4928679170704555
 31
0.0
  0
ARC
  5
623B
  8
0
 10
1070.8613976771730449
 20
86.6803289167588247
 30
0.0
 40
0.3749219996883682
 50
209.9999999725035025
 51
270.0000000274945933
  0
LINE
  5
623C
  8
0
 10
1070.8613976773528975
 20
86.3054069170704707
 30
0.0
 11
1071.3897098408529018
 21
86.3054069170704707
 31
0.0
  0
ARC
  5
623D
  8
0
 10
1071.3897098408529018
 20
86.6803289170052125
 30
0.0
 40
0.3749219999347559
 50
270.0
 51
330.0000000057559078
  0
LINE
  5
623E
  8
0
 10
1071.7144018172530195
 20
86.4928679170704555
 30
0.0
 11
1071.7553113902529276
 21
86.563725375970435
 31
0.0
  0
LINE
  5
623F
  8
0
 10
1071.7553113902529276
 20
86.563725375970435
 30
0.0
 11
1079.9069761391529028
 21
86.563725375970435
 31
0.0
  0
LINE
  5
6240
  8
0
 10
1080.0230524037528994
 20
87.813725375970435
 30
0.0
 11
1079.9756032636530563
 21
86.4549209687704519
 31
0.0
  0
ARC
  5
6241
  8
0
 10
1079.8207770850879115
 20
86.4603274636265127
 30
0.0
 40
0.1549205465903185
 50
270.0
 51
358.0000570821185875
  0
LINE
  5
6242
  8
0
 10
1079.8207770850879115
 20
86.3054069170361942
 30
0.0
 11
1079.7154659907530458
 21
86.3054069170704707
 31
0.0
  0
ARC
  5
6243
  8
0
 10
1079.7154659908039775
 20
86.4603289197919054
 30
0.0
 40
0.1549220027214631
 50
186.000012094751412
 51
269.9999999813641125
  0
LINE
  5
6244
  8
0
 10
1079.5613926704409096
 20
86.4441351283972637
 30
0.0
 11
1079.5488232289619646
 21
86.5637253759704635
 31
0.0
  0
ARC
  5
6245
  8
0
 10
1079.9069761391529028
 20
86.6387253759704237
 30
0.0
 40
0.0749999999999436
 50
270.0
 51
357.8743168259518939
  0
LINE
  5
6246
  8
0
 10
1051.7435295155569293
 20
84.6554616667704494
 30
0.0
 11
1053.7050150557529378
 21
84.6554616667704494
 31
0.0
  0
LINE
  5
6247
  8
0
 10
1053.7769200890541015
 20
86.2966645996689579
 30
0.0
 11
1053.8462619586530309
 21
86.0186198282704453
 31
0.0
  0
ARC
  5
6248
  8
0
 10
1055.8707466934199601
 20
86.4802524057887041
 30
0.0
 40
2.0764496328901041
 50
192.8452295444760125
 51
236.4294273417316958
  0
LINE
  5
6249
  8
0
 10
1055.8901569356530672
 20
84.3089272758704311
 30
0.0
 11
1056.0096841438530646
 21
83.1670340067704359
 31
0.0
  0
LINE
  5
624A
  8
0
 10
1056.0249911353650987
 20
82.9493496606255718
 30
0.0
 11
1056.1253049161518902
 21
82.9365609123173044
 31
0.0
  0
LINE
  5
624B
  8
0
 10
1056.1099528109589301
 20
83.1663016808791582
 30
0.0
 11
1056.070520299952932
 21
84.2807276248704369
 31
0.0
  0
LINE
  5
624C
  8
0
 10
1056.0096841438530646
 20
83.1670340067704359
 30
0.0
 11
1055.8923162983530801
 21
84.8451562276704436
 31
0.0
  0
LINE
  5
624D
  8
0
 10
1055.8923162983530801
 20
84.8451562276704436
 30
0.0
 11
1055.8533271843170951
 21
85.4026895938705621
 31
0.0
  0
LINE
  5
624E
  8
0
 10
1055.8533271843170951
 20
85.4026895938705621
 30
0.0
 11
1055.9536379275889431
 21
85.4017386400757488
 31
0.0
  0
LINE
  5
624F
  8
0
 10
1055.9536379275889431
 20
85.4017386400757488
 30
0.0
 11
1055.9932435426530901
 21
84.8353145944704607
 31
0.0
  0
LINE
  5
6250
  8
0
 10
1055.9932435426530901
 20
84.8353145944704607
 30
0.0
 11
1056.1099528109589301
 21
83.1663016808791582
 31
0.0
  0
LINE
  5
6251
  8
0
 10
1055.8533271843170951
 20
85.4026895938705621
 30
0.0
 11
1055.831192743640031
 21
85.3577022787662116
 31
0.0
  0
LINE
  5
6252
  8
0
 10
1055.7520230955828993
 20
82.9994013657672838
 30
0.0
 11
1055.7715225178531
 21
82.813725375970435
 31
0.0
  0
ARC
  5
6253
  8
0
 10
1056.5004917693759126
 20
86.5653222814109284
 30
0.0
 40
3.643624202943498
 50
241.0460517838087924
 51
262.4954855253866981
  0
ARC
  5
6254
  8
0
 10
1055.2161288502150001
 20
84.2541851301808293
 30
0.0
 40
0.9996022332086946
 50
185.6458947723440929
 51
241.3322305120788087
  0
LINE
  5
6255
  8
0
 10
1054.2213757720530793
 20
84.1558442021704565
 30
0.0
 11
1054.2029637218909102
 21
84.3310231578513623
 31
0.0
  0
ARC
  5
6256
  8
0
 10
1053.7045717148050699
 20
84.1104547370192819
 30
0.0
 40
0.5450071100710709
 50
11.3935666572348708
 51
89.9533922264132855
  0
LINE
  5
6257
  8
0
 10
1056.3965225178531
 20
82.813725375970435
 30
0.0
 11
1056.392842138064907
 21
82.9193769170197612
 31
0.0
  0
LINE
  5
6258
  8
0
 10
1059.3291166261660692
 20
82.813725375970435
 30
0.0
 11
1058.4003948595209295
 21
82.8460967200804674
 31
0.0
  0
LINE
  5
6259
  8
0
 10
1057.7708183579391061
 20
82.8680411153862053
 30
0.0
 11
1056.3929574195499299
 21
82.9160675665519449
 31
0.0
  0
LINE
  5
625A
  8
0
 10
1057.7497452631989745
 20
83.1079746788435756
 30
0.0
 11
1057.6417222091840813
 21
84.2016307546446967
 31
0.0
  0
LINE
  5
625B
  8
0
 10
1057.7490609204530756
 20
83.0752182146704428
 30
0.0
 11
1057.7765225178529818
 21
82.813725375970435
 31
0.0
  0
ARC
  5
625C
  8
0
 10
1070.3265438267990248
 20
85.5580351810355069
 30
0.0
 40
12.49289249931428
 50
180.9375720821288098
 51
185.5701361322049081
  0
LINE
  5
625D
  8
0
 10
1057.83532390935693
 20
85.3536141118880352
 30
0.0
 11
1057.8583064052029385
 21
85.4014326921704168
 31
0.0
  0
LINE
  5
625E
  8
0
 10
1057.8583064052029385
 20
85.4014326921704168
 30
0.0
 11
1057.9585184961028972
 21
85.4016306212704137
 31
0.0
  0
LINE
  5
625F
  8
0
 10
1057.9585184961028972
 20
85.4016306212704137
 30
0.0
 11
1057.9881441615209496
 21
85.3531918645449252
 31
0.0
  0
LINE
  5
6260
  8
0
 10
1057.9349270283530586
 20
84.3058068195704351
 30
0.0
 11
1057.9356871063530434
 21
84.2950122446704455
 31
0.0
  0
LINE
  5
6261
  8
0
 10
1057.9356871063530434
 20
84.2950122446704455
 30
0.0
 11
1058.0213838528529777
 21
83.0692091938704635
 31
0.0
  0
LINE
  5
6262
  8
0
 10
1058.0213838528529777
 20
83.0692091938704635
 30
0.0
 11
1057.8926411764530258
 21
84.3454231733704347
 31
0.0
  0
LINE
  5
6263
  8
0
 10
1057.8583064052029385
 20
85.4014326921704168
 30
0.0
 11
1057.9349270283530586
 21
84.3058068195704351
 31
0.0
  0
LINE
  5
6264
  8
0
 10
1058.0359368568529135
 20
84.2944333910704273
 30
0.0
 11
1058.0458129737530726
 21
84.1533191080704484
 31
0.0
  0
LINE
  5
6265
  8
0
 10
1058.0458129737530726
 20
84.1533191080704484
 30
0.0
 11
1058.1216298600529626
 21
83.0690961363704332
 31
0.0
  0
LINE
  5
6266
  8
0
 10
1058.1216298600529626
 20
83.0690961363704332
 30
0.0
 11
1058.071811118252981
 21
84.3430946145704326
 31
0.0
  0
LINE
  5
6267
  8
0
 10
1058.0213838528529777
 20
83.0692091938704635
 30
0.0
 11
1058.121629860153007
 21
83.0690961363704332
 31
0.0
  0
LINE
  5
6268
  8
0
 10
1057.9585184961028972
 20
85.4016306212704137
 30
0.0
 11
1057.9818765644029099
 21
85.0678551045704268
 31
0.0
  0
LINE
  5
6269
  8
0
 10
1057.9818765644029099
 20
85.0678551045704268
 30
0.0
 11
1058.0359368568529135
 21
84.2944333910704273
 31
0.0
  0
LINE
  5
626A
  8
0
 10
1058.3425439685520359
 20
84.1910432957821655
 30
0.0
 11
1058.3876645270690915
 21
83.0953319234188541
 31
0.0
  0
LINE
  5
626B
  8
0
 10
1058.3925356966549316
 20
83.071707313505172
 30
0.0
 11
1058.4015225178529818
 21
82.813725375970435
 31
0.0
  0
ARC
  5
626C
  8
0
 10
1078.7682406234021073
 20
86.3674419147208852
 30
0.0
 40
0.2149999999289514
 50
114.0842579668444046
 51
174.0000000390047887
  0
LINE
  5
626D
  8
0
 10
1078.5544184159530232
 20
86.3899155341704414
 30
0.0
 11
1078.5183216953530518
 21
86.0464781795704567
 31
0.0
  0
ARC
  5
626E
  8
0
 10
1076.2047741138380843
 20
86.2874946584077662
 30
0.0
 40
2.3260677882392868
 50
306.4814272932857193
 51
354.0525994483247132
  0
LINE
  5
626F
  8
0
 10
1078.4259225546470589
 20
85.5967769451751934
 30
0.0
 11
1078.4371285301529042
 21
85.2747006220704549
 31
0.0
  0
LINE
  5
6270
  8
0
 10
1078.4371285301529042
 20
85.2747006220704549
 30
0.0
 11
1078.4466254065350768
 21
84.9525533348180062
 31
0.0
  0
LINE
  5
6271
  8
0
 10
1078.4466254065350768
 20
84.9525533348180062
 30
0.0
 11
1078.4601614727530432
 21
84.4930347003704441
 31
0.0
  0
LINE
  5
6272
  8
0
 10
1078.4601614727530432
 20
84.4930347003704441
 30
0.0
 11
1078.4642295608030054
 21
84.3553157735878898
 31
0.0
  0
ARC
  5
6273
  8
0
 10
1077.4647813801971097
 20
84.3206471312243337
 30
0.0
 40
1.0000492890249459
 50
303.4597586602160959
 51
1.9866670513822231
  0
ARC
  5
6274
  8
0
 10
1051.3244523093248972
 20
87.7025371059156811
 30
0.0
 40
0.1300905718693083
 50
60.5703801536808513
 51
89.9904303262053844
  0
LINE
  5
6275
  8
0
 10
1051.3244740373529567
 20
87.8326276759704712
 30
0.0
 11
1050.2636288737530776
 21
87.8326276759704712
 31
0.0
  0
LINE
  5
6276
  8
0
 10
1050.7810358230149177
 20
87.7316513467704482
 30
0.0
 11
1050.2636288737530776
 21
87.7316513467704482
 31
0.0
  0
LINE
  5
6277
  8
0
 10
1050.5577168749950943
 20
87.360615925970464
 30
0.0
 11
1050.2936106330539587
 21
87.3606159259704356
 31
0.0
  0
ARC
  5
6278
  8
0
 10
1050.2940164077449481
 20
87.3912138395626101
 30
0.0
 40
0.0306006040674601
 50
186.7652862999150045
 51
269.2402156951779943
  0
LINE
  5
6279
  8
0
 10
1050.5555132955530553
 20
87.237375122042252
 30
0.0
 11
1050.2930892767531077
 21
87.2380210982704654
 31
0.0
  0
ARC
  5
627A
  8
0
 10
1050.2930169218520859
 20
87.2086273481485392
 30
0.0
 40
0.029393839175246
 50
89.858962464783886
 51
181.137355510053311
  0
LINE
  5
627B
  8
0
 10
1050.2636288737530776
 20
87.2080439011704556
 30
0.0
 11
1050.2636288737530776
 21
86.9749753759704589
 31
0.0
  0
ARC
  5
627C
  8
0
 10
1050.2948922703319568
 20
86.9749753759704589
 30
0.0
 40
0.0312633965791909
 50
180.0
 51
268.3226180665041056
  0
LINE
  5
627D
  8
0
 10
1050.29397713882895
 20
86.9437253759704447
 30
0.0
 11
1050.4602294282528874
 21
86.9437253759704447
 31
0.0
  0
LINE
  5
627E
  8
0
 10
1050.4602294282528874
 20
86.9437253759704447
 30
0.0
 11
1050.5555132955530553
 21
86.9519732157801855
 31
0.0
  0
LINE
  5
627F
  8
0
 10
1050.4647434079520281
 20
86.8280250979915138
 30
0.0
 11
1050.4646791633529119
 21
86.8807079262704178
 31
0.0
  0
ARC
  5
6280
  8
0
 10
1050.400697229421894
 20
86.8806299028642144
 30
0.0
 40
0.0639819815042633
 50
0.0698698740468195
 51
80.451108811166975
  0
LINE
  5
6281
  8
0
 10
1059.1536497439778941
 20
87.813725375970435
 30
0.0
 11
1059.1578443740529565
 21
88.2995224793204585
 31
0.0
  0
ARC
  5
6282
  8
0
 10
1064.2868619218841104
 20
88.2552358190780666
 30
0.0
 40
5.1292087415348124
 50
176.3883044275472116
 51
179.505290118410187
  0
LINE
  5
6283
  8
0
 10
1059.2624014877280842
 20
87.813725375970435
 30
0.0
 11
1059.2582068576530219
 21
88.2995224793204585
 31
0.0
  0
ARC
  5
6284
  8
0
 10
1054.1291893098220953
 20
88.2552358190780666
 30
0.0
 40
5.1292087415348124
 50
0.4947098815898042
 51
3.611695572452815
  0
LINE
  5
6285
  8
0
 10
1059.1678403508531119
 20
88.5783464341204336
 30
0.0
 11
1059.2482108808530938
 21
88.5783464341204336
 31
0.0
  0
LINE
  5
6286
  8
0
 10
1065.6336580373849756
 20
87.813725375970435
 30
0.0
 11
1065.6379075759030002
 21
88.3058816485704483
 31
0.0
  0
ARC
  5
6287
  8
0
 10
1070.7669251237339267
 20
88.2615949883280564
 30
0.0
 40
5.1292087415348124
 50
176.3883044275472116
 51
179.505290118410187
  0
LINE
  5
6288
  8
0
 10
1065.7425195980210901
 20
87.813725375970435
 30
0.0
 11
1065.7382700595030656
 21
88.3058816485704483
 31
0.0
  0
ARC
  5
6289
  8
0
 10
1060.6092525116719116
 20
88.2615949883280564
 30
0.0
 40
5.1292087415348124
 50
0.4947098815898042
 51
3.611695572452815
  0
LINE
  5
628A
  8
0
 10
1065.6479035527029282
 20
88.5847056033704376
 30
0.0
 11
1065.7282740827029102
 21
88.5847056033704376
 31
0.0
  0
LINE
  5
628B
  8
0
 10
1070.1092065650921086
 20
87.813725375970435
 30
0.0
 11
1070.1140182967030796
 21
88.370991508320472
 31
0.0
  0
ARC
  5
628C
  8
0
 10
1075.2430358445340062
 20
88.3267048480780801
 30
0.0
 40
5.1292087415348124
 50
176.3883044275472116
 51
179.505290118410187
  0
LINE
  5
628D
  8
0
 10
1070.2191925119138887
 20
87.813725375970435
 30
0.0
 11
1070.2143807803029176
 21
88.370991508320472
 31
0.0
  0
ARC
  5
628E
  8
0
 10
1065.0853632324719911
 20
88.3267048480780801
 30
0.0
 40
5.1292087415348124
 50
0.4947098815898042
 51
3.611695572452815
  0
LINE
  5
628F
  8
0
 10
1070.1240142735030076
 20
88.6498154631204329
 30
0.0
 11
1070.2043848035029896
 21
88.6498154631204329
 31
0.0
  0
LINE
  5
6290
  8
0
 10
1079.0725658075530191
 20
88.3490248537704446
 30
0.0
 11
1078.4875537591528882
 21
88.3490248537704446
 31
0.0
  0
LINE
  5
6291
  8
0
 10
1078.4875537591528882
 20
88.3490248537704446
 30
0.0
 11
1078.1583731394530332
 21
88.3342797678704557
 31
0.0
  0
ARC
  5
6292
  8
0
 10
1078.2369145373199899
 20
86.5808612935914113
 30
0.0
 40
1.7551766569556311
 50
92.5647525555621371
 51
97.6997942698185682
  0
LINE
  5
6293
  8
0
 10
1078.0017513577529371
 20
88.3202127175704419
 30
0.0
 11
1078.0017513577529371
 21
88.2011789040704457
 31
0.0
  0
ARC
  5
6294
  8
0
 10
1078.1452159221680631
 20
87.8904303669716711
 30
0.0
 40
0.3422670515135592
 50
93.6408937347661379
 51
114.7815490061185955
  0
ARC
  5
6295
  8
0
 10
1068.7494755542838902
 20
652.4618758275238406
 30
0.0
 40
564.3077328009203484
 50
270.9518133846012802
 51
270.9629687509145128
  0
LINE
  5
6296
  8
0
 10
1078.2333351735530869
 20
88.2338423998704542
 30
0.0
 11
1079.0729027540530751
 21
88.2486726004704423
 31
0.0
  0
LINE
  5
6297
  8
0
 10
1078.1234809973529991
 20
88.2320066067704261
 30
0.0
 11
1078.4865068061531019
 21
88.2281952026704346
 31
0.0
  0
LINE
  5
6298
  8
0
 10
1078.4865068061531019
 20
88.2281952026704346
 30
0.0
 11
1079.0729027540530751
 21
88.2486726004704423
 31
0.0
  0
LINE
  5
6299
  8
0
 10
1078.1297884059758871
 20
88.3327657113908487
 30
0.0
 11
1079.0725658075530191
 21
88.3490248537704446
 31
0.0
  0
ARC
  5
629A
  8
0
 10
1078.4875537591030934
 20
88.198213476802664
 30
0.0
 40
0.0299999999414965
 50
91.9999389442330369
 51
178.4458039625932884
  0
ARC
  5
629B
  8
0
 10
1078.4875537591528882
 20
88.3790248537704457
 30
0.0
 40
0.0299999999999961
 50
181.554196769303104
 51
270.0000000000064801
  0
ARC
  5
629C
  8
0
 10
1079.0725537592988985
 20
88.2586665085804185
 30
0.0
 40
0.0099999998324265
 50
271.9999988121313095
 51
0.0
  0
ARC
  5
629D
  8
0
 10
1079.0725537445789541
 20
88.339024843419736
 30
0.0
 40
0.0100000176264445
 50
0.044635592156141
 51
89.9308843533889473
  0
LINE
  5
629E
  8
0
 10
1066.1663759174530242
 20
86.5637253759704635
 30
0.0
 11
1066.1734867540531013
 21
86.3591349264704462
 31
0.0
  0
LINE
  5
629F
  8
0
 10
1066.1734867540531013
 20
86.3591349264704462
 30
0.0
 11
1065.5484875001529872
 21
86.3591349264704462
 31
0.0
  0
LINE
  5
62A0
  8
0
 10
1065.5484875001529872
 20
86.3591349264704462
 30
0.0
 11
1065.5269834313530737
 21
86.5637253759704635
 31
0.0
  0
ARC
  5
62A1
  8
0
 10
1055.3429992461249185
 20
84.4398979773300056
 30
0.0
 40
1.1262133637053049
 50
191.3571471557507095
 51
241.9700469917547139
  0
ARC
  5
62A2
  8
0
 10
1056.0179677418580013
 20
85.9073882049628565
 30
0.0
 40
2.7403667180774951
 50
243.9321539824526042
 51
269.826805688244292
  0
ARC
  5
62A3
  8
0
 10
1056.2439112052729797
 20
87.0106452877236478
 30
0.0
 40
2.724779311952898
 50
236.0586087087289968
 51
262.5403124098492071
  0
LINE
  5
62A4
  8
0
 10
1056.070520299952932
 20
84.2807276248704369
 30
0.0
 11
1056.0455782549129253
 21
84.6668199575718887
 31
0.0
  0
ARC
  5
62A5
  8
0
 10
1044.1780892482240688
 20
83.9001654030878541
 30
0.0
 40
11.8922266430552792
 50
3.6962424810785981
 51
7.0418697648972124
  0
LINE
  5
62A6
  8
0
 10
1055.9806107891529336
 20
85.3580885168704242
 30
0.0
 11
1055.9536379275889431
 21
85.4017386400757488
 31
0.0
  0
ARC
  5
62A7
  8
0
 10
1065.4767800342190185
 20
85.4618686244092061
 30
0.0
 40
9.6461497400643701
 50
180.6187347424908012
 51
184.559979344033593
  0
LINE
  5
62A8
  8
0
 10
1055.8901569356530672
 20
84.3089272758704311
 30
0.0
 11
1055.8611636993530283
 21
84.6949740368704056
 31
0.0
  0
ARC
  5
62A9
  8
0
 10
1057.0841259160790742
 20
91.6121699799443121
 30
0.0
 40
7.401178510940845
 50
262.1284947828308987
 51
269.6311257425459189
  0
ARC
  5
62AA
  8
0
 10
1056.551366335522971
 20
86.7243781803571352
 30
0.0
 40
3.8083020540890629
 50
263.5746484654090978
 51
268.0011390213931008
  0
LINE
  5
62AB
  8
0
 10
1056.4185341722529756
 20
82.9183933995704336
 30
0.0
 11
1057.770425233260994
 21
82.8717844987910439
 31
0.0
  0
LINE
  5
62AC
  8
0
 10
1058.4002564526811057
 20
82.8500699230679203
 30
0.0
 11
1059.4544299585099907
 21
82.813725375970435
 31
0.0
  0
ARC
  5
62AD
  8
0
 10
1057.8583488805240904
 20
83.0893203689800544
 30
0.0
 40
0.1101940514395563
 50
170.2536919812351073
 51
187.3526279387004081
  0
ARC
  5
62AE
  8
0
 10
1058.3380873749110833
 20
83.0727950874218948
 30
0.0
 40
0.054459186487773
 50
358.8554915433729775
 51
24.4456470178198586
  0
ARC
  5
62AF
  8
0
 10
1045.4445952163289348
 20
83.8056885187692302
 30
0.0
 40
12.6386465551346099
 50
2.437000441617152
 51
7.0330683594540817
  0
LINE
  5
62B0
  8
0
 10
1057.0364769375530614
 20
84.2111448532704259
 30
0.0
 11
1057.6417222091840813
 21
84.2016307546446967
 31
0.0
  0
ARC
  5
62B1
  8
0
 10
1057.8004039308120809
 20
84.1277090845418343
 30
0.0
 40
0.1750551401409952
 50
124.660578420813593
 51
155.0216045456089944
  0
ARC
  5
62B2
  8
0
 10
1057.9495810081239142
 20
83.9119529994707847
 30
0.0
 40
0.4373612373641568
 50
110.0977330406453945
 51
124.660578420813593
  0
ARC
  5
62B3
  8
0
 10
1057.9472358129360146
 20
83.9183626156309543
 30
0.0
 40
0.4305360545987468
 50
97.2850729250570936
 51
110.0977459981661042
  0
ARC
  5
62B4
  8
0
 10
1057.9801450835821015
 20
83.7982714281003069
 30
0.0
 40
0.5524807385129606
 50
67.2463719499189949
 51
80.4494817514020468
  0
ARC
  5
62B5
  8
0
 10
1058.0339699706489682
 20
83.926606427441385
 30
0.0
 40
0.4133154033045256
 50
50.4057562521884606
 51
67.2463719499189949
  0
ARC
  5
62B6
  8
0
 10
1058.1746472331390123
 20
84.0966908148213292
 30
0.0
 40
0.1925920674019148
 50
29.3345643479193292
 51
50.4057562521884606
  0
LINE
  5
62B7
  8
0
 10
1058.3425439685520359
 20
84.1910432957821655
 30
0.0
 11
1059.9111008586530716
 21
84.1683881519704471
 31
0.0
  0
ARC
  5
62B8
  8
0
 10
1074.5058781753550647
 20
85.6335652709306743
 30
0.0
 40
14.66813788161455
 50
181.109339725390214
 51
185.7327452496863032
  0
LINE
  5
62B9
  8
0
 10
1059.8404895504070282
 20
85.3495839453380682
 30
0.0
 11
1059.8634720462530368
 21
85.3974025256204214
 31
0.0
  0
LINE
  5
62BA
  8
0
 10
1059.8634720462530368
 20
85.3974025256204214
 30
0.0
 11
1059.9636841371529954
 21
85.3976004547204326
 31
0.0
  0
LINE
  5
62BB
  8
0
 10
1059.9636841371529954
 20
85.3976004547204326
 30
0.0
 11
1059.9933098025710478
 21
85.3491616979949157
 31
0.0
  0
LINE
  5
62BC
  8
0
 10
1059.9419653747529537
 20
84.2748085986704183
 30
0.0
 11
1060.0265282369059605
 21
83.0661956761634883
 31
0.0
  0
LINE
  5
62BD
  8
0
 10
1060.0265282369059605
 20
83.0661956761634883
 30
0.0
 11
1059.9111008586530716
 21
84.1683881519704471
 31
0.0
  0
LINE
  5
62BE
  8
0
 10
1059.8634720462530368
 20
85.3974025256204214
 30
0.0
 11
1059.9419653747529537
 21
84.2748085986704183
 31
0.0
  0
LINE
  5
62BF
  8
0
 10
1060.0411024979030117
 20
84.2904032245204462
 30
0.0
 11
1060.0509786148029434
 21
84.149288941520453
 31
0.0
  0
LINE
  5
62C0
  8
0
 10
1060.0509786148029434
 20
84.149288941520453
 30
0.0
 11
1060.1267480570559201
 21
83.0645597530414364
 31
0.0
  0
LINE
  5
62C1
  8
0
 10
1060.1267480570559201
 20
83.0645597530414364
 30
0.0
 11
1060.0879161473530985
 21
84.1659352974704262
 31
0.0
  0
LINE
  5
62C2
  8
0
 10
1059.9636841371529954
 20
85.3976004547204326
 30
0.0
 11
1059.9870422054530081
 21
85.0638249380204314
 31
0.0
  0
LINE
  5
62C3
  8
0
 10
1059.9870422054530081
 20
85.0638249380204314
 30
0.0
 11
1060.0411024979030117
 21
84.2904032245204462
 31
0.0
  0
ARC
  5
62C4
  8
0
 10
1045.2496772712408983
 20
83.574920758680534
 30
0.0
 40
14.85000441513818
 50
2.2809141077586021
 51
6.8619467893086279
  0
LINE
  5
62C5
  8
0
 10
1060.0879161473530985
 20
84.1659352974704262
 30
0.0
 11
1061.9175905555530335
 21
84.1422622571704153
 31
0.0
  0
ARC
  5
62C6
  8
0
 10
1077.0591037807068915
 20
85.6513131480474073
 30
0.0
 40
15.2165257972630901
 50
181.1510007683768038
 51
185.6914834591119075
  0
LINE
  5
62C7
  8
0
 10
1061.8456482555570801
 20
85.3456526778380606
 30
0.0
 11
1061.8686307514030887
 21
85.3934712581204423
 31
0.0
  0
LINE
  5
62C8
  8
0
 10
1061.8686307514030887
 20
85.3934712581204423
 30
0.0
 11
1061.9688428423030473
 21
85.3936691872204534
 31
0.0
  0
LINE
  5
62C9
  8
0
 10
1061.9688428423030473
 20
85.3936691872204534
 30
0.0
 11
1061.9984685077210997
 21
85.3452304304949081
 31
0.0
  0
LINE
  5
62CA
  8
0
 10
1061.9471240799030056
 20
84.2708773311704391
 30
0.0
 11
1062.0339381200631124
 21
83.0334280236338742
 31
0.0
  0
LINE
  5
62CB
  8
0
 10
1062.0339381200631124
 20
83.0334280236338742
 30
0.0
 11
1061.9175905555530335
 21
84.1422622571704153
 31
0.0
  0
LINE
  5
62CC
  8
0
 10
1061.8686307514030887
 20
85.3934712581204423
 30
0.0
 11
1061.9471240799030056
 21
84.2708773311704391
 31
0.0
  0
LINE
  5
62CD
  8
0
 10
1062.0561373199529953
 20
84.1453576740204454
 30
0.0
 11
1062.1341506391590883
 21
83.0317922196894784
 31
0.0
  0
LINE
  5
62CE
  8
0
 10
1062.1341506391590883
 20
83.0317922196894784
 30
0.0
 11
1062.0948367769869947
 21
84.1401793042179662
 31
0.0
  0
LINE
  5
62CF
  8
0
 10
1061.9688428423030473
 20
85.3936691872204534
 30
0.0
 11
1061.99220091060306
 21
85.0598936705204238
 31
0.0
  0
LINE
  5
62D0
  8
0
 10
1061.99220091060306
 20
85.0598936705204238
 30
0.0
 11
1062.0561373199529953
 21
84.1453576740204454
 31
0.0
  0
ARC
  5
62D1
  8
0
 10
1046.699134351533985
 20
83.5153596178738695
 30
0.0
 40
15.4083760602325892
 50
2.3240183977085831
 51
6.820439475969545
  0
LINE
  5
62D2
  8
0
 10
1063.7749961477800298
 20
83.0092292897374335
 30
0.0
 11
1063.6651506866539876
 21
84.124005878305141
 31
0.0
  0
LINE
  5
62D3
  8
0
 10
1063.7743118050339035
 20
82.9764728255643149
 30
0.0
 11
1063.7909759238750667
 21
82.813725375970435
 31
0.0
  0
ARC
  5
62D4
  8
0
 10
1077.4265814725979453
 20
85.5817360243718355
 30
0.0
 40
13.5779264321161008
 50
181.0104022839857976
 51
185.4959938220463869
  0
LINE
  5
62D5
  8
0
 10
1063.8507662706069823
 20
85.3423037847880579
 30
0.0
 11
1063.8737487664529908
 21
85.3901223650704111
 31
0.0
  0
LINE
  5
62D6
  8
0
 10
1063.8737487664529908
 20
85.3901223650704111
 30
0.0
 11
1063.9739608573529495
 21
85.390320294170408
 31
0.0
  0
LINE
  5
62D7
  8
0
 10
1063.9739608573529495
 20
85.390320294170408
 30
0.0
 11
1064.0035865227710019
 21
85.3418815374449338
 31
0.0
  0
LINE
  5
62D8
  8
0
 10
1063.9501405123749009
 20
84.2950122446704455
 30
0.0
 11
1064.0314258031010013
 21
83.1212365614747455
 31
0.0
  0
LINE
  5
62D9
  8
0
 10
1064.0314258031010013
 20
83.1212365614747455
 30
0.0
 11
1063.9110741591530314
 21
84.2812944623704254
 31
0.0
  0
LINE
  5
62DA
  8
0
 10
1063.8737487664529908
 20
85.3901223650704111
 30
0.0
 11
1063.9501405123749009
 21
84.2950122446704455
 31
0.0
  0
LINE
  5
62DB
  8
0
 10
1064.0503902628749984
 20
84.2944333910704273
 30
0.0
 11
1064.0602663797749301
 21
84.1533191080704484
 31
0.0
  0
LINE
  5
62DC
  8
0
 10
1064.0602663797749301
 20
84.1533191080704484
 30
0.0
 11
1064.1316718103009862
 21
83.1211235039747436
 31
0.0
  0
LINE
  5
62DD
  8
0
 10
1064.1316718103009862
 20
83.1211235039747436
 30
0.0
 11
1064.0862645242750659
 21
84.3430946145704326
 31
0.0
  0
LINE
  5
62DE
  8
0
 10
1064.0314258031010013
 20
83.1212365614747455
 30
0.0
 11
1064.1316718104010306
 21
83.1211235039747436
 31
0.0
  0
LINE
  5
62DF
  8
0
 10
1063.9739608573529495
 20
85.390320294170408
 30
0.0
 11
1063.9963299704240853
 21
85.0678551045704268
 31
0.0
  0
LINE
  5
62E0
  8
0
 10
1063.9963299704240853
 20
85.0678551045704268
 30
0.0
 11
1064.0503902628749984
 21
84.2944333910704273
 31
0.0
  0
LINE
  5
62E1
  8
0
 10
1064.3598112711611066
 20
84.1187207033553932
 30
0.0
 11
1064.4054116423660616
 21
83.003745518527964
 31
0.0
  0
LINE
  5
62E2
  8
0
 10
1064.4102828119530386
 20
82.9801209086142535
 30
0.0
 11
1064.4159759238750667
 21
82.813725375970435
 31
0.0
  0
ARC
  5
62E3
  8
0
 10
1063.8835997651049183
 20
82.9905749798738839
 30
0.0
 40
0.1101940514395563
 50
170.2536919812351073
 51
187.3526279387004081
  0
ARC
  5
62E4
  8
0
 10
1064.3558344902080535
 20
82.9812086825309763
 30
0.0
 40
0.054459186487773
 50
358.8554915433729775
 51
24.4456470178198586
  0
ARC
  5
62E5
  8
0
 10
1051.7399745324310061
 20
83.8239036980518364
 30
0.0
 40
12.3572017775258107
 50
2.4080052972658561
 51
7.0561251317733964
  0
LINE
  5
62E6
  8
0
 10
1062.0948367769869947
 20
84.1401793042179662
 30
0.0
 11
1063.6651506866539876
 21
84.124005878305141
 31
0.0
  0
ARC
  5
62E7
  8
0
 10
1063.8454200794849385
 20
84.0480066193128579
 30
0.0
 40
0.1956347140951801
 50
128.7872711334042037
 51
157.1403371609931128
  0
ARC
  5
62E8
  8
0
 10
1063.9429119042549701
 20
83.9299535229130669
 30
0.0
 40
0.3487322435659369
 50
111.5513585350881982
 51
129.1225334530871862
  0
ARC
  5
62E9
  8
0
 10
1063.9877656549329004
 20
83.8225827011003872
 30
0.0
 40
0.4650785583667124
 50
99.4914305006502531
 51
111.8318639029129997
  0
ARC
  5
62EA
  8
0
 10
1064.0190640825110222
 20
83.8447124498952832
 30
0.0
 40
0.4427119641175707
 50
64.4117467123184611
 51
80.9558121779800786
  0
ARC
  5
62EB
  8
0
 10
1064.0481048167619065
 20
83.8758892402642715
 30
0.0
 40
0.4022516346096655
 50
50.0297880544767111
 51
66.2248773629583667
  0
ARC
  5
62EC
  8
0
 10
1064.1647525864809722
 20
84.0142791346210771
 30
0.0
 40
0.2212598737889443
 50
28.1662285692796814
 51
50.1582711072090603
  0
LINE
  5
62ED
  8
0
 10
1064.3598112711611066
 20
84.1187207033553932
 30
0.0
 11
1065.9291939616530271
 21
84.1127696729704297
 31
0.0
  0
ARC
  5
62EE
  8
0
 10
1055.9900096452890921
 20
85.4971396900847509
 30
0.0
 40
2.3646614677790518
 50
240.1698353634627097
 51
270.5370955458047888
  0
LINE
  5
62EF
  8
0
 10
1056.0058166982018975
 20
83.1325310556005803
 30
0.0
 11
1056.0249911353650987
 21
82.9493496606255718
 31
0.0
  0
LINE
  5
62F0
  8
0
 10
1056.1253049161518902
 20
82.9365609123173044
 30
0.0
 11
1056.1185066688490224
 21
83.1305468922401474
 31
0.0
  0
LINE
  5
62F1
  8
0
 10
1056.0249911353650987
 20
82.9493496606255718
 30
0.0
 11
1056.0121758598329507
 21
83.1325821170636061
 31
0.0
  0
LINE
  5
62F2
  8
0
 10
1056.1124308003529677
 20
83.1305992058704248
 30
0.0
 11
1056.1253049161518902
 21
82.9365609123173044
 31
0.0
  0
LINE
  5
62F3
  8
0
 10
1056.1124308003529677
 20
83.1305992058704248
 30
0.0
 11
1056.1523009581530914
 21
83.1302559211704448
 31
0.0
  0
ARC
  5
62F4
  8
0
 10
1056.2116823326769008
 20
93.6338750920408955
 30
0.0
 40
10.5037870234652893
 50
269.676086324139817
 51
270.7333667191225004
  0
ARC
  5
62F5
  8
0
 10
1056.3734038437430627
 20
82.3447646367474988
 30
0.0
 40
0.7866570089694122
 50
87.399149243466951
 51
91.9873413540428828
  0
ARC
  5
62F6
  8
0
 10
1057.4783989534751072
 20
95.4539722551226646
 30
0.0
 40
12.3696654751221793
 50
265.040864768886081
 51
267.5267768484590079
  0
ARC
  5
62F7
  8
0
 10
1057.9695130559680365
 20
107.3884568805200956
 30
0.0
 40
24.3142380832018183
 50
267.5841475292684777
 51
269.4805039758429075
  0
LINE
  5
62F8
  8
0
 10
1058.3929795188300886
 20
83.0589666455674802
 30
0.0
 11
1060.0284348472700913
 21
83.0310854607451745
 31
0.0
  0
LINE
  5
62F9
  8
0
 10
1060.1287787822950577
 20
83.0293748008759422
 30
0.0
 11
1062.0362341066620502
 21
82.9968565697055425
 31
0.0
  0
LINE
  5
62FA
  8
0
 10
1062.1364695989188931
 20
82.9951477585648547
 30
0.0
 11
1063.775260278343012
 21
82.9672097127964179
 31
0.0
  0
LINE
  5
62FB
  8
0
 10
1058.3886873660810579
 20
83.0929307246477862
 30
0.0
 11
1060.0265282369059605
 21
83.0661956761634883
 31
0.0
  0
LINE
  5
62FC
  8
0
 10
1060.1267480570559201
 20
83.0645597530414364
 30
0.0
 11
1062.0339381200631124
 21
83.0334280236338742
 31
0.0
  0
LINE
  5
62FD
  8
0
 10
1062.1341506391590883
 20
83.0317922196894784
 30
0.0
 11
1063.7743564049910674
 21
83.0050185681981247
 31
0.0
  0
LINE
  5
62FE
  8
0
 10
1060.0284348472700913
 20
83.0310854607451745
 30
0.0
 11
1060.0436222948369505
 21
82.813725375970435
 31
0.0
  0
LINE
  5
62FF
  8
0
 10
1060.0436222948369505
 20
82.813725375970435
 30
0.0
 11
1060.0208794733750892
 21
83.0312142644931441
 31
0.0
  0
LINE
  5
6300
  8
0
 10
1060.1287787822950577
 20
83.0293748008759422
 30
0.0
 11
1060.14384211498691
 21
82.813725375970435
 31
0.0
  0
LINE
  5
6301
  8
0
 10
1060.14384211498691
 20
82.813725375970435
 30
0.0
 11
1060.1362433104900447
 21
83.0292475458622476
 31
0.0
  0
LINE
  5
6302
  8
0
 10
1062.0362341066620502
 20
82.9968565697055425
 30
0.0
 11
1062.0489670307199503
 21
82.815361179914845
 31
0.0
  0
LINE
  5
6303
  8
0
 10
1062.0489670307199503
 20
82.815361179914845
 30
0.0
 11
1062.0299118048349101
 21
82.9969643520843903
 31
0.0
  0
LINE
  5
6304
  8
0
 10
1062.1364695989188931
 20
82.9951477585648547
 30
0.0
 11
1062.1491795498150168
 21
82.813725375970435
 31
0.0
  0
LINE
  5
6305
  8
0
 10
1062.1491795498150168
 20
82.813725375970435
 30
0.0
 11
1062.1427483973241124
 21
82.9950407178308325
 31
0.0
  0
LINE
  5
6306
  8
0
 10
1064.4058628041839256
 20
83.0027254386429263
 30
0.0
 11
1066.0460795959120333
 21
82.9954377445505855
 31
0.0
  0
LINE
  5
6307
  8
0
 10
1064.4108070133650017
 20
82.9647998022455369
 30
0.0
 11
1066.048748237720929
 21
82.9572436052048658
 31
0.0
  0
ARC
  5
6308
  8
0
 10
1082.2312266754249777
 20
85.6985542155529032
 30
0.0
 40
16.3789799198968815
 50
181.220835290179707
 51
185.555981653886505
  0
LINE
  5
6309
  8
0
 10
1065.8559647548670455
 20
85.3495839453380682
 30
0.0
 11
1065.878947250713054
 21
85.3974025256204214
 31
0.0
  0
LINE
  5
630A
  8
0
 10
1065.878947250713054
 20
85.3974025256204214
 30
0.0
 11
1065.9791593416130127
 21
85.3976004547204326
 31
0.0
  0
LINE
  5
630B
  8
0
 10
1065.9791593416130127
 20
85.3976004547204326
 30
0.0
 11
1066.0087850070310651
 21
85.3491616979949157
 31
0.0
  0
LINE
  5
630C
  8
0
 10
1065.957440579212971
 20
84.2748085986704183
 30
0.0
 11
1066.0460795959120333
 21
82.9954377445505855
 31
0.0
  0
LINE
  5
630D
  8
0
 10
1066.0460795959120333
 20
82.9954377445505855
 30
0.0
 11
1065.9291939616530271
 21
84.1127696729704297
 31
0.0
  0
LINE
  5
630E
  8
0
 10
1065.878947250713054
 20
85.3974025256204214
 30
0.0
 11
1065.957440579212971
 21
84.2748085986704183
 31
0.0
  0
LINE
  5
630F
  8
0
 10
1066.0565777023630289
 20
84.2904032245204462
 30
0.0
 11
1066.0664538192629607
 21
84.149288941520453
 31
0.0
  0
LINE
  5
6310
  8
0
 10
1066.0664538192629607
 20
84.149288941520453
 30
0.0
 11
1066.1463176585530164
 21
82.9954442706704327
 31
0.0
  0
LINE
  5
6311
  8
0
 10
1066.1463176585530164
 20
82.9954442706704327
 30
0.0
 11
1066.1067506674239667
 21
84.1127049749936049
 31
0.0
  0
LINE
  5
6312
  8
0
 10
1065.9791593416130127
 20
85.3976004547204326
 30
0.0
 11
1066.0025174099130254
 21
85.0638249380204314
 31
0.0
  0
LINE
  5
6313
  8
0
 10
1066.0025174099130254
 20
85.0638249380204314
 30
0.0
 11
1066.0565777023630289
 21
84.2904032245204462
 31
0.0
  0
ARC
  5
6314
  8
0
 10
1050.4977520050190378
 20
83.4980982534908946
 30
0.0
 40
15.6210940930864997
 50
2.2548652899021331
 51
6.8054074835333518
  0
LINE
  5
6315
  8
0
 10
1066.1067506674239667
 20
84.1127049749936049
 30
0.0
 11
1067.9337030870899525
 21
84.1195910818133967
 31
0.0
  0
ARC
  5
6316
  8
0
 10
1084.124749061302964
 20
85.693237548472851
 30
0.0
 40
16.2673394549055992
 50
181.224334308286501
 51
185.5512778141251999
  0
LINE
  5
6317
  8
0
 10
1067.8611234600170974
 20
85.3456526778380606
 30
0.0
 11
1067.8841059558631059
 21
85.3934712581204423
 31
0.0
  0
LINE
  5
6318
  8
0
 10
1067.8841059558631059
 20
85.3934712581204423
 30
0.0
 11
1067.9843180467630646
 21
85.3936691872204534
 31
0.0
  0
LINE
  5
6319
  8
0
 10
1067.9843180467630646
 20
85.3936691872204534
 30
0.0
 11
1068.0139437121799801
 21
85.3452304304949081
 31
0.0
  0
LINE
  5
631A
  8
0
 10
1067.9625992843630229
 20
84.2708773311704391
 30
0.0
 11
1068.0503109009530363
 21
83.0049180936704261
 31
0.0
  0
LINE
  5
631B
  8
0
 10
1068.0503109009530363
 20
83.0049180936704261
 30
0.0
 11
1067.9337030870899525
 21
84.1195910818133967
 31
0.0
  0
LINE
  5
631C
  8
0
 10
1067.8841059558631059
 20
85.3934712581204423
 30
0.0
 11
1067.9625992843630229
 21
84.2708773311704391
 31
0.0
  0
LINE
  5
631D
  8
0
 10
1068.0716125244130126
 20
84.1453576740204454
 30
0.0
 11
1068.1504749690309382
 21
83.0058419325659429
 31
0.0
  0
LINE
  5
631E
  8
0
 10
1068.1504749690309382
 20
83.0058419325659429
 30
0.0
 11
1068.1103119814470119
 21
84.1401793042179662
 31
0.0
  0
LINE
  5
631F
  8
0
 10
1067.9843180467630646
 20
85.3936691872204534
 30
0.0
 11
1068.0076761150630773
 21
85.0598936705204238
 31
0.0
  0
LINE
  5
6320
  8
0
 10
1068.0076761150630773
 20
85.0598936705204238
 30
0.0
 11
1068.0716125244130126
 21
84.1453576740204454
 31
0.0
  0
ARC
  5
6321
  8
0
 10
1052.7146095559940022
 20
83.5153596178738695
 30
0.0
 40
15.4083760602325892
 50
2.3240183977085831
 51
6.820439475969545
  0
LINE
  5
6322
  8
0
 10
1069.7880524465529106
 20
83.0257722271704353
 30
0.0
 11
1069.6785516663699127
 21
84.1354088248530303
 31
0.0
  0
LINE
  5
6323
  8
0
 10
1069.7861052685530012
 20
83.0068769222704077
 30
0.0
 11
1069.8064511283339471
 21
82.813725375970435
 31
0.0
  0
ARC
  5
6324
  8
0
 10
1084.1346673817140527
 20
85.6075178418849276
 30
0.0
 40
14.2708905240549395
 50
181.0648614358715065
 51
185.2863308651922978
  0
LINE
  5
6325
  8
0
 10
1069.8662414750669996
 20
85.3423037847880579
 30
0.0
 11
1069.8892239709130081
 21
85.3901223650704111
 31
0.0
  0
LINE
  5
6326
  8
0
 10
1069.8892239709130081
 20
85.3901223650704111
 30
0.0
 11
1069.9894360618129667
 21
85.390320294170408
 31
0.0
  0
LINE
  5
6327
  8
0
 10
1069.9894360618129667
 20
85.390320294170408
 30
0.0
 11
1070.0190617272301097
 21
85.3418815374449338
 31
0.0
  0
LINE
  5
6328
  8
0
 10
1069.9656157168340087
 20
84.2950122446704455
 30
0.0
 11
1070.0451831599950765
 21
83.144127302304085
 31
0.0
  0
LINE
  5
6329
  8
0
 10
1070.0451831599950765
 20
83.144127302304085
 30
0.0
 11
1069.9244751388689565
 21
84.2926974089183147
 31
0.0
  0
LINE
  5
632A
  8
0
 10
1069.8892239709130081
 20
85.3901223650704111
 30
0.0
 11
1069.9656157168340087
 21
84.2950122446704455
 31
0.0
  0
LINE
  5
632B
  8
0
 10
1070.0658654673341061
 20
84.2944333910704273
 30
0.0
 11
1070.0757415842340379
 21
84.1533191080704484
 31
0.0
  0
LINE
  5
632C
  8
0
 10
1070.0757415842340379
 20
84.1533191080704484
 30
0.0
 11
1070.1454291671950614
 21
83.1440142448040547
 31
0.0
  0
LINE
  5
632D
  8
0
 10
1070.1454291671950614
 20
83.1440142448040547
 30
0.0
 11
1070.1034127982300106
 21
84.2980700652294672
 31
0.0
  0
LINE
  5
632E
  8
0
 10
1070.0451831599950765
 20
83.144127302304085
 30
0.0
 11
1070.1454291672951058
 21
83.1440142448040547
 31
0.0
  0
LINE
  5
632F
  8
0
 10
1069.9894360618129667
 20
85.390320294170408
 30
0.0
 11
1070.0118051748841026
 21
85.0678551045704268
 31
0.0
  0
LINE
  5
6330
  8
0
 10
1070.0118051748841026
 20
85.0678551045704268
 30
0.0
 11
1070.0658654673341061
 21
84.2944333910704273
 31
0.0
  0
LINE
  5
6331
  8
0
 10
1070.3738035150529413
 20
84.1439757418704204
 30
0.0
 11
1070.4197427988519848
 21
83.0352722050474483
 31
0.0
  0
LINE
  5
6332
  8
0
 10
1070.4246139684380523
 20
83.0116475951337662
 30
0.0
 11
1070.4314511283339471
 21
82.813725375970435
 31
0.0
  0
ARC
  5
6333
  8
0
 10
1069.8332925454899396
 20
83.0115622130156652
 30
0.0
 40
0.0474193109827446
 50
162.5623819744704974
 51
185.6703924595115041
  0
ARC
  5
6334
  8
0
 10
1070.3701656466939767
 20
83.0127353690504748
 30
0.0
 40
0.054459186487773
 50
358.8554915433729775
 51
24.4456470178198586
  0
ARC
  5
6335
  8
0
 10
1057.8282948412429505
 20
83.8314239198924867
 30
0.0
 40
12.28398467448174
 50
2.1770858729763192
 51
7.0630522194657077
  0
LINE
  5
6336
  8
0
 10
1068.1103119814470119
 20
84.1401793042179662
 30
0.0
 11
1069.6785516663699127
 21
84.1354088248530303
 31
0.0
  0
ARC
  5
6337
  8
0
 10
1069.858821059201091
 20
84.0594095658607472
 30
0.0
 40
0.1956347140951801
 50
128.7872711334042037
 51
157.1403371609931128
  0
ARC
  5
6338
  8
0
 10
1069.9563128839699857
 20
83.9413564694609562
 30
0.0
 40
0.3487322435659369
 50
111.5513585350881982
 51
129.1225334530871862
  0
ARC
  5
6339
  8
0
 10
1070.0011666346490529
 20
83.8339856476482765
 30
0.0
 40
0.4650785583667124
 50
99.4914305006502531
 51
111.8318639029129997
  0
ARC
  5
633A
  8
0
 10
1070.0251816345689804
 20
83.7869275083465652
 30
0.0
 40
0.5170946029737494
 50
68.4176789659678519
 51
81.298317494287005
  0
ARC
  5
633B
  8
0
 10
1070.0366025190489836
 20
83.8218415856611472
 30
0.0
 40
0.4804324602691367
 50
53.7777494492927701
 51
68.1526200065127625
  0
ARC
  5
633C
  8
0
 10
1070.1787448303718975
 20
84.0395341731360901
 30
0.0
 40
0.2212598737889443
 50
28.1662285692796814
 51
50.1582711072090603
  0
LINE
  5
633D
  8
0
 10
1070.3738035150529413
 20
84.1439757418704204
 30
0.0
 11
1071.9407670747239081
 21
84.1645529025864931
 31
0.0
  0
LINE
  5
633E
  8
0
 10
1066.1489886196529824
 20
82.9572501265704574
 30
0.0
 11
1068.0529568590529834
 21
82.9670915577704164
 31
0.0
  0
LINE
  5
633F
  8
0
 10
1068.1531155443599346
 20
82.9680456444147865
 30
0.0
 11
1069.7880111879881042
 21
82.988783251616681
 31
0.0
  0
LINE
  5
6340
  8
0
 10
1066.1463176585530164
 20
82.9954442706704327
 30
0.0
 11
1068.0503109009530363
 21
83.0049180936704261
 31
0.0
  0
LINE
  5
6341
  8
0
 10
1068.1504749690309382
 20
83.0058419325659429
 30
0.0
 11
1069.7880524465529106
 21
83.0257722271704353
 31
0.0
  0
LINE
  5
6342
  8
0
 10
1066.0490696551130441
 20
82.9572421224330157
 30
0.0
 11
1066.0590974992960582
 21
82.813725375970435
 31
0.0
  0
LINE
  5
6343
  8
0
 10
1066.0590974992960582
 20
82.813725375970435
 30
0.0
 11
1066.0440875441859134
 21
82.9572651060488084
 31
0.0
  0
LINE
  5
6344
  8
0
 10
1066.1489886196529824
 20
82.9572501265704574
 30
0.0
 11
1066.1593173194469273
 21
82.813725375970435
 31
0.0
  0
LINE
  5
6345
  8
0
 10
1066.1593173194469273
 20
82.813725375970435
 30
0.0
 11
1066.1542560145660445
 21
82.9572773532350141
 31
0.0
  0
LINE
  5
6346
  8
0
 10
1068.0529568590529834
 20
82.9670915577704164
 30
0.0
 11
1068.0644422351790581
 21
82.813725375970435
 31
0.0
  0
LINE
  5
6347
  8
0
 10
1068.0644422351790581
 20
82.813725375970435
 30
0.0
 11
1068.0485239008989993
 21
82.9670686442302667
 31
0.0
  0
LINE
  5
6348
  8
0
 10
1068.1531155443599346
 20
82.9680456444147865
 30
0.0
 11
1068.1646547542750341
 21
82.813725375970435
 31
0.0
  0
LINE
  5
6349
  8
0
 10
1068.1646547542750341
 20
82.813725375970435
 30
0.0
 11
1068.1591812115721041
 21
82.9680425481634245
 31
0.0
  0
LINE
  5
634A
  8
0
 10
1070.4197427988549407
 20
83.0352722050400445
 30
0.0
 11
1072.0560312122549931
 21
83.0627243342267008
 31
0.0
  0
LINE
  5
634B
  8
0
 10
1070.425059494343941
 20
82.9987505037433237
 30
0.0
 11
1072.0584917138430683
 21
83.0273742306943632
 31
0.0
  0
ARC
  5
634C
  8
0
 10
1086.7517076980780075
 20
85.6458200537478547
 30
0.0
 40
14.8848927269481202
 50
181.1381032762060102
 51
185.6615453337963118
  0
LINE
  5
634D
  8
0
 10
1071.8697514002069511
 20
85.3501712062880671
 30
0.0
 11
1071.8927338960529596
 21
85.3979897865704203
 31
0.0
  0
LINE
  5
634E
  8
0
 10
1071.8927338960529596
 20
85.3979897865704203
 30
0.0
 11
1071.9929459869529182
 21
85.3981877156704314
 31
0.0
  0
LINE
  5
634F
  8
0
 10
1071.9929459869529182
 20
85.3981877156704314
 30
0.0
 11
1072.0225716523709707
 21
85.349748958944943
 31
0.0
  0
LINE
  5
6350
  8
0
 10
1071.9683195956649797
 20
84.3286835717267138
 30
0.0
 11
1072.0560312122549931
 21
83.0627243342267008
 31
0.0
  0
LINE
  5
6351
  8
0
 10
1072.0560312122549931
 20
83.0627243342267008
 30
0.0
 11
1071.9394233983919094
 21
84.177397322369643
 31
0.0
  0
LINE
  5
6352
  8
0
 10
1071.8927338960529596
 20
85.3979897865704203
 30
0.0
 11
1071.9683195956649797
 21
84.3286835717267138
 31
0.0
  0
LINE
  5
6353
  8
0
 10
1072.0773328357149694
 20
84.2031639145767059
 30
0.0
 11
1072.1561396400529702
 21
83.0645027737704282
 31
0.0
  0
LINE
  5
6354
  8
0
 10
1072.1561396400529702
 20
83.0645027737704282
 30
0.0
 11
1072.1160322927489688
 21
84.1979855447742267
 31
0.0
  0
LINE
  5
6355
  8
0
 10
1071.9929459869529182
 20
85.3981877156704314
 30
0.0
 11
1072.0133964263650341
 21
85.1176999110766843
 31
0.0
  0
LINE
  5
6356
  8
0
 10
1072.0133964263650341
 20
85.1176999110766843
 30
0.0
 11
1072.0773328357149694
 21
84.2031639145767059
 31
0.0
  0
ARC
  5
6357
  8
0
 10
1058.0483072003009966
 20
83.6361239149618569
 30
0.0
 40
14.0789409320352092
 50
2.2871643180377941
 51
6.991118117457205
  0
LINE
  5
6358
  8
0
 10
1072.0584917138430683
 20
83.0273742306943632
 30
0.0
 11
1072.0733652187839198
 21
82.813725375970435
 31
0.0
  0
LINE
  5
6359
  8
0
 10
1072.0733652187839198
 20
82.813725375970435
 30
0.0
 11
1072.0539929425990522
 21
83.0272953957123292
 31
0.0
  0
LINE
  5
635A
  8
0
 10
1072.1585998479420141
 20
83.0292155513613892
 30
0.0
 11
1072.1737194642369104
 21
82.813725375970435
 31
0.0
  0
LINE
  5
635B
  8
0
 10
1072.1737194642369104
 20
82.813725375970435
 30
0.0
 11
1072.1647565657099221
 21
83.0293358620867679
 31
0.0
  0
LINE
  5
635C
  8
0
 10
1072.1561396400529702
 20
83.0645027737704282
 30
0.0
 11
1074.0583052037529797
 21
83.1000458782704357
 31
0.0
  0
LINE
  5
635D
  8
0
 10
1074.0606481636868921
 20
83.0663841891249746
 30
0.0
 11
1072.1585998479420141
 21
83.0292155513614176
 31
0.0
  0
ARC
  5
635E
  8
0
 10
1087.937440353879083
 20
85.6139451204297615
 30
0.0
 40
14.0655129740784304
 50
181.0558321871926069
 51
185.7091824250364027
  0
LINE
  5
635F
  8
0
 10
1073.8743155090069195
 20
85.354764061088062
 30
0.0
 11
1073.897298004852928
 21
85.4025826413704436
 31
0.0
  0
LINE
  5
6360
  8
0
 10
1073.897298004852928
 20
85.4025826413704436
 30
0.0
 11
1073.9975100957528866
 21
85.4027805704704548
 31
0.0
  0
LINE
  5
6361
  8
0
 10
1073.9975100957528866
 20
85.4027805704704548
 30
0.0
 11
1074.0271357611709391
 21
85.3543418137448953
 31
0.0
  0
LINE
  5
6362
  8
0
 10
1073.9705935871629663
 20
84.3660051157704203
 30
0.0
 11
1074.0583052037529797
 21
83.1000458782704357
 31
0.0
  0
LINE
  5
6363
  8
0
 10
1074.0583052037529797
 20
83.1000458782704357
 30
0.0
 11
1073.9416973898898959
 21
84.2147188664133779
 31
0.0
  0
LINE
  5
6364
  8
0
 10
1073.897298004852928
 20
85.4025826413704436
 30
0.0
 11
1073.9705935871629663
 21
84.3660051157704203
 31
0.0
  0
LINE
  5
6365
  8
0
 10
1074.079606827212956
 20
84.240485458620455
 30
0.0
 11
1074.1584136315509568
 21
83.1018243178141489
 31
0.0
  0
LINE
  5
6366
  8
0
 10
1074.1584136315509568
 20
83.1018243178141489
 30
0.0
 11
1074.1183062842469553
 21
84.2353070888179474
 31
0.0
  0
LINE
  5
6367
  8
0
 10
1073.9975100957528866
 20
85.4027805704704548
 30
0.0
 11
1074.0156704178630207
 21
85.1550214551204192
 31
0.0
  0
LINE
  5
6368
  8
0
 10
1074.0156704178630207
 20
85.1550214551204192
 30
0.0
 11
1074.079606827212956
 21
84.240485458620455
 31
0.0
  0
ARC
  5
6369
  8
0
 10
1060.8372316519069045
 20
83.716496440341885
 30
0.0
 40
13.2912041545810595
 50
2.2370594876204541
 51
7.0784229040639532
  0
LINE
  5
636A
  8
0
 10
1074.0606481636868921
 20
83.0663841891249746
 30
0.0
 11
1074.0755457068451051
 21
82.8537283966584539
 31
0.0
  0
LINE
  5
636B
  8
0
 10
1074.0755457068451051
 20
82.8537283966584539
 30
0.0
 11
1074.0561146681609443
 21
83.066295598392756
 31
0.0
  0
LINE
  5
636C
  8
0
 10
1074.1608738394390912
 20
83.0665370954051383
 30
0.0
 11
1074.1757777873729083
 21
82.8572235022586483
 31
0.0
  0
LINE
  5
636D
  8
0
 10
1074.1757777873729083
 20
82.8572235022586483
 30
0.0
 11
1074.1670305572069992
 21
83.066657406130517
 31
0.0
  0
LINE
  5
636E
  8
0
 10
1074.1584136315509568
 20
83.1018243178141489
 30
0.0
 11
1075.2299907834531041
 21
83.1232440034704183
 31
0.0
  0
LINE
  5
636F
  8
0
 10
1075.2303309802530293
 20
83.0906048772704509
 30
0.0
 11
1074.1608738394390912
 21
83.0665370954051383
 31
0.0
  0
LINE
  5
6370
  8
0
 10
1072.1171283747301004
 20
84.1670089251544624
 30
0.0
 11
1073.9438954953789107
 21
84.1937068198548957
 31
0.0
  0
LINE
  5
6371
  8
0
 10
1072.9283454646711107
 20
82.813725375970435
 30
0.0
 11
1075.8108419693530777
 21
82.9142384015704152
 31
0.0
  0
LINE
  5
6372
  8
0
 10
1074.0732880014140846
 20
82.8784267225443756
 30
0.0
 11
1072.1735310318699703
 21
82.8182582839601338
 31
0.0
  0
ARC
  5
6373
  8
0
 10
1075.0963343043611076
 20
90.0093156466246285
 30
0.0
 40
6.887368636065287
 50
271.1119533887538751
 51
275.773766051538928
  0
ARC
  5
6374
  8
0
 10
1075.0815912954399209
 20
90.3253542026770759
 30
0.0
 40
7.236278138332592
 50
271.1777817593653026
 51
275.6087221804705791
  0
ARC
  5
6375
  8
0
 10
1075.6252833820790329
 20
86.9993005699868291
 30
0.0
 40
2.7228774372185711
 50
286.1052649754855111
 51
317.0921691944437839
  0
ARC
  5
6376
  8
0
 10
1075.7846085863170629
 20
84.8610150500616811
 30
0.0
 40
1.85696803025615
 50
325.2834745908893979
 51
8.8126021381832675
  0
ARC
  5
6377
  8
0
 10
1076.1604787771530027
 20
86.294352710670637
 30
0.0
 40
3.3658618842002448
 50
274.7976078039645245
 51
303.4587584180953854
  0
ARC
  5
6378
  8
0
 10
1086.1599893945131043
 20
85.6137461677912057
 30
0.0
 40
10.2920332432043704
 50
180.6944262400469086
 51
185.7984027773761113
  0
LINE
  5
6379
  8
0
 10
1075.8687120661099925
 20
85.4890095286932166
 30
0.0
 11
1075.8916945619560011
 21
85.5368281089755982
 31
0.0
  0
LINE
  5
637A
  8
0
 10
1075.8916945619560011
 20
85.5368281089755982
 30
0.0
 11
1075.9919066528570966
 21
85.5784328698448604
 31
0.0
  0
LINE
  5
637B
  8
0
 10
1075.9919066528570966
 20
85.5784328698448604
 30
0.0
 11
1076.0215323182740121
 21
85.5299941131193435
 31
0.0
  0
LINE
  5
637C
  8
0
 10
1075.9636610061529609
 20
84.5235459095704158
 30
0.0
 11
1076.0493577526528952
 21
83.2977428587704338
 31
0.0
  0
LINE
  5
637D
  8
0
 10
1076.0493577526528952
 20
83.2977428587704338
 30
0.0
 11
1075.9206150762529433
 21
84.573956838270405
 31
0.0
  0
LINE
  5
637E
  8
0
 10
1075.8916945619560011
 20
85.5368281089755982
 30
0.0
 11
1075.9636610061529609
 21
84.5235459095704158
 31
0.0
  0
LINE
  5
637F
  8
0
 10
1076.0639107566530583
 20
84.5229670559703976
 30
0.0
 11
1076.1484143679570025
 21
83.3144902885256755
 31
0.0
  0
LINE
  5
6380
  8
0
 10
1076.1484143679570025
 20
83.3144902885256755
 30
0.0
 11
1076.0997850180528985
 21
84.5716282794704028
 31
0.0
  0
LINE
  5
6381
  8
0
 10
1076.0493577526528952
 20
83.2977428587704338
 30
0.0
 11
1076.1484143680570469
 21
83.3144902885256755
 31
0.0
  0
LINE
  5
6382
  8
0
 10
1075.9919066528570966
 20
85.5784328698448604
 30
0.0
 11
1076.0098504642030548
 21
85.2963887694703971
 31
0.0
  0
LINE
  5
6383
  8
0
 10
1076.0098504642030548
 20
85.2963887694703971
 30
0.0
 11
1076.0639107566530583
 21
84.5229670559703976
 31
0.0
  0
ARC
  5
6384
  8
0
 10
1064.7329658490500606
 20
84.1258799078060662
 30
0.0
 40
11.3755557944065
 50
2.2456960479876722
 51
7.0902482788686036
  0
LINE
  5
6385
  8
0
 10
1076.3806177238020609
 20
84.3832860919735737
 30
0.0
 11
1076.4270822001531087
 21
83.2573291313704118
 31
0.0
  0
ARC
  5
6386
  8
0
 10
1076.3890849198930937
 20
83.2383640551858832
 30
0.0
 40
0.0424672511692225
 50
2.264291745177843
 51
26.5245482396984009
  0
LINE
  5
6387
  8
0
 10
1076.4315190131530926
 20
83.2400418963704425
 30
0.0
 11
1076.4464063140530925
 21
82.813725375970435
 31
0.0
  0
ARC
  5
6388
  8
0
 10
1076.2592959501509995
 20
84.3086665675740647
 30
0.0
 40
0.1424326022489066
 50
31.5937887182370396
 51
65.1948495888563997
  0
ARC
  5
6389
  8
0
 10
1076.169924992560027
 20
84.1152957469018929
 30
0.0
 40
0.3554571133930349
 50
65.1948495888563997
 51
85.123252412106055
  0
ARC
  5
638A
  8
0
 10
1076.1536875954329844
 20
83.9249872297608732
 30
0.0
 40
0.5464570735026416
 50
85.123252412106055
 51
95.2433710939981637
  0
ARC
  5
638B
  8
0
 10
1076.1421994165209526
 20
83.8304086093766045
 30
0.0
 40
0.6362968121858525
 50
109.4049514108333057
 51
123.7934116992667981
  0
ARC
  5
638C
  8
0
 10
1075.9549342164229984
 20
84.100405102737497
 30
0.0
 40
0.307808064588195
 50
122.7780724569293938
 51
152.4339642151753083
  0
LINE
  5
638D
  8
0
 10
1075.6820691206110041
 20
84.242849632689925
 30
0.0
 11
1075.7892088358989895
 21
83.1568874921233743
 31
0.0
  0
ARC
  5
638E
  8
0
 10
1075.8276373473020158
 20
83.1435535587766168
 30
0.0
 40
0.0406760896247238
 50
160.8642373336454057
 51
185.3328387965183026
  0
LINE
  5
638F
  8
0
 10
1075.7871373203529402
 20
83.1397730714704295
 30
0.0
 11
1075.8214063140530925
 21
82.813725375970435
 31
0.0
  0
LINE
  5
6390
  8
0
 10
1074.1747564054330724
 20
82.8816783300133153
 30
0.0
 11
1075.8086813137529134
 21
82.9347954497704336
 31
0.0
  0
LINE
  5
6391
  8
0
 10
1075.8085564924529081
 20
82.9359830368704394
 30
0.0
 11
1074.1746981137659986
 21
82.8830740005404749
 31
0.0
  0
LINE
  5
6392
  8
0
 10
1074.0736794198530788
 20
82.8798514567704245
 30
0.0
 11
1072.1734248028690217
 21
82.8208137169278444
 31
0.0
  0
ARC
  5
6393
  8
0
 10
1075.1290068497580705
 20
89.2577336940364745
 30
0.0
 40
5.0452888940266698
 50
270.3668882961883924
 51
276.2933844537760137
  0
LINE
  5
6394
  8
0
 10
1075.1613136760529414
 20
84.2125482372704539
 30
0.0
 11
1074.1196836754079413
 21
84.1963803271487592
 31
0.0
  0
ARC
  5
6395
  8
0
 10
1076.1109622826149916
 20
84.6639699720377763
 30
0.0
 40
1.4766848021374761
 50
282.5618755844246834
 51
324.3562324657045792
  0
ARC
  5
6396
  8
0
 10
1075.7224629185820959
 20
84.9085556006042594
 30
0.0
 40
1.9119316986853649
 50
326.4361832810021156
 51
7.1191858023916312
  0
ARC
  5
6397
  8
0
 10
1076.1059959669848922
 20
84.698846720997679
 30
0.0
 40
1.476875161048659
 50
282.5574701919177869
 51
324.989045861928787
  0
ARC
  5
6398
  8
0
 10
1076.1824478481530605
 20
86.2933019861715849
 30
0.0
 40
3.3443678058011601
 50
274.4397091444989769
 51
288.796530176352519
  0
ARC
  5
6399
  8
0
 10
1076.1824131044349997
 20
86.2934040654345438
 30
0.0
 40
3.3444756357684051
 50
288.796530176352519
 51
303.1528737581631958
  0
ARC
  5
639A
  8
0
 10
1077.4644830465390442
 20
84.3305952618374732
 30
0.0
 40
1.0000520968843021
 50
303.155350732168074
 51
1.4164514819176921
  0
ARC
  5
639B
  8
0
 10
1055.2324023219550782
 20
84.256264847067726
 30
0.0
 40
0.9999782544658303
 50
185.9984121449689951
 51
242.0320716548935991
  0
LINE
  5
639C
  8
0
 10
1054.2378991566129116
 20
84.1517662177501649
 30
0.0
 11
1054.2253848080611078
 21
84.2710881637667768
 31
0.0
  0
ARC
  5
639D
  8
0
 10
1056.5230599888830056
 20
86.6859465022206308
 30
0.0
 40
3.7511870984105031
 50
242.025096885988404
 51
262.3394754933632953
  0
ARC
  5
639E
  8
0
 10
1056.1028632834349992
 20
92.608370721659341
 30
0.0
 40
9.4420717023469081
 50
270.0430202244597808
 51
271.0171369173198173
  0
ARC
  5
639F
  8
0
 10
1056.3025252028130581
 20
81.3625066195100857
 30
0.0
 40
1.80556468429269
 50
88.9765166230472602
 51
91.0171369173197746
  0
ARC
  5
63A0
  8
0
 10
1057.3856232822670336
 20
94.4410038310672633
 30
0.0
 40
11.3220926200452805
 50
264.6744948407787774
 51
267.4916719069767055
  0
ARC
  5
63A1
  8
0
 10
1057.9824032357089436
 20
109.3772539681523028
 30
0.0
 40
26.2702126009937516
 50
267.6170169488274837
 51
269.4925414737605252
  0
ARC
  5
63A2
  8
0
 10
1056.6333640231000572
 20
88.1521605083605237
 30
0.0
 40
5.221057529678216
 50
264.408241374447698
 51
267.5720604188986727
  0
ARC
  5
63A3
  8
0
 10
1127.0220817617930607
 20
2228.3845444937310276
 30
0.0
 40
2146.6103782013510681
 50
268.1149914170929947
 51
268.1512083051468949
  0
ARC
  5
63A4
  8
0
 10
1093.2376997361750455
 20
1173.9909903368850337
 30
0.0
 40
1091.6756739959919287
 50
268.1712335056245138
 51
268.2575300910705209
  0
LINE
  5
63A5
  8
0
 10
1054.2388385670531079
 20
84.2181194044704426
 30
0.0
 11
1054.1495472006329237
 21
85.3187381424413758
 31
0.0
  0
LINE
  5
63A6
  8
0
 10
1072.7869888145530695
 20
82.813725375970435
 30
0.0
 11
1074.0751696189279301
 21
82.857842636628348
 31
0.0
  0
LINE
  5
63A7
  8
0
 10
1074.1756077866120904
 20
82.8612938105059129
 30
0.0
 11
1075.8104854406130926
 21
82.9176305460275245
 31
0.0
  0
LINE
  5
63A8
  8
0
 10
1075.8214063140530925
 20
82.813725375970435
 30
0.0
 11
1076.4464063140530925
 21
82.813725375970435
 31
0.0
  0
LINE
  5
63A9
  8
0
 10
1061.3884281833529712
 20
120.341075375970405
 30
0.0
 11
1070.3884281833529712
 21
120.341075375970405
 31
0.0
  0
LINE
  5
63AA
  8
0
 10
1070.3884281833529712
 20
120.341075375970405
 30
0.0
 11
1070.3884281833529712
 21
114.841075375970405
 31
0.0
  0
LINE
  5
63AB
  8
0
 10
1070.3884281833529712
 20
114.841075375970405
 30
0.0
 11
1061.3884281833529712
 21
114.841075375970405
 31
0.0
  0
LINE
  5
63AC
  8
0
 10
1061.3884281833529712
 20
114.841075375970405
 30
0.0
 11
1061.3884281833529712
 21
120.341075375970405
 31
0.0
  0
LINE
  5
63AD
  8
0
 10
1078.4725537589361011
 20
120.3837253759703998
 30
0.0
 11
1079.2075537591529155
 21
120.3837253759703998
 31
0.0
  0
LINE
  5
63AE
  8
0
 10
1079.2075537591529155
 20
120.3837253759703998
 30
0.0
 11
1079.2075537591529155
 21
111.3837253759703998
 31
0.0
  0
LINE
  5
63AF
  8
0
 10
1079.2075537591529155
 20
111.3837253759703998
 30
0.0
 11
1078.7178577599158871
 21
111.3837253759703998
 31
0.0
  0
LINE
  5
63B0
  8
0
 10
1055.5084313048530475
 20
126.5910759259704008
 30
0.0
 11
1061.0084313048530475
 21
126.5910759259704008
 31
0.0
  0
LINE
  5
63B1
  8
0
 10
1061.0084313048530475
 20
126.5910759259704008
 30
0.0
 11
1061.0084313048530475
 21
114.8410759259704008
 31
0.0
  0
LINE
  5
63B2
  8
0
 10
1061.0084313048530475
 20
114.8410759259704008
 30
0.0
 11
1055.5084313048530475
 21
114.8410759259704008
 31
0.0
  0
LINE
  5
63B3
  8
0
 10
1055.5084313048530475
 20
114.8410759259704008
 30
0.0
 11
1055.5084313048530475
 21
126.5910759259704008
 31
0.0
  0
LINE
  5
63B4
  8
0
 10
1055.5084313048530475
 20
138.7110759259703912
 30
0.0
 11
1061.0084313048530475
 21
138.7110759259703912
 31
0.0
  0
LINE
  5
63B5
  8
0
 10
1061.0084313048530475
 20
138.7110759259703912
 30
0.0
 11
1061.0084313048530475
 21
126.9610759259704054
 31
0.0
  0
LINE
  5
63B6
  8
0
 10
1061.0084313048530475
 20
126.9610759259704054
 30
0.0
 11
1055.5084313048530475
 21
126.9610759259704054
 31
0.0
  0
LINE
  5
63B7
  8
0
 10
1055.5084313048530475
 20
126.9610759259704054
 30
0.0
 11
1055.5084313048530475
 21
138.7110759259703912
 31
0.0
  0
LINE
  5
63B8
  8
0
 10
1053.3716133033528877
 20
157.1678502514371019
 30
0.0
 11
1053.3716133033528877
 21
87.813725375970435
 31
0.0
  0
LINE
  5
63B9
  8
0
 10
1053.3716133033528877
 20
153.317509529830204
 30
0.0
 11
1071.8359247360529025
 21
153.317509529830204
 31
0.0
  0
LINE
  5
63BA
  8
0
 10
1072.9147913993920156
 20
153.317509529830204
 30
0.0
 11
1077.6117891329299709
 21
153.317509529830204
 31
0.0
  0
LINE
  5
63BB
  8
0
 10
1053.3716133033528877
 20
152.995608449829092
 30
0.0
 11
1071.8359247360529025
 21
152.995608449829092
 31
0.0
  0
LINE
  5
63BC
  8
0
 10
1072.914817914878995
 20
152.995608449829092
 30
0.0
 11
1077.6182630123719264
 21
152.995608449829092
 31
0.0
  0
ENDSEC
  0
EOF
