  0
SECTION
  2
HEADER
  9
$ACADVER
  1
AC1009
  9
$INSBASE
 10
838.2328680412849735
 20
66.5734379927095574
 30
0.0
  9
$EXTMIN
 10
808.1792242068637506
 20
35.3156663040770411
 30
-0.0015258207003583
  9
$EXTMAX
 10
868.2597564913639872
 20
66.5799306956155021
 30
0.0000000349246037
  9
$LIMMIN
 10
0.0
 20
0.0
  9
$LIMMAX
 10
11.6929133858000007
 20
8.2677165353999982
  9
$ORTHOMODE
 70
     1
  9
$REGENMODE
 70
     1
  9
$FILLMODE
 70
     1
  9
$QTEXTMODE
 70
     0
  9
$MIRRTEXT
 70
     0
  9
$DRAGMODE
 70
     2
  9
$LTSCALE
 40
0.6431102362
  9
$OSMODE
 70
    23
  9
$ATTMODE
 70
     1
  9
$TEXTSIZE
 40
0.2
  9
$TRACEWID
 40
0.05
  9
$TEXTSTYLE
  7
STANDARD
  9
$CLAYER
  8
0
  9
$CELTYPE
  6
BYLAYER
  9
$CECOLOR
 62
   256
  9
$DIMSCALE
 40
1.0
  9
$DIMASZ
 40
0.1875
  9
$DIMEXO
 40
0.0625
  9
$DIMDLI
 40
0.4443307087
  9
$DIMRND
 40
0.0
  9
$DIMDLE
 40
0.0
  9
$DIMEXE
 40
0.125
  9
$DIMTP
 40
0.01
  9
$DIMTM
 40
0.01
  9
$DIMTXT
 40
2.0
  9
$DIMCEN
 40
0.1052362205
  9
$DIMTSZ
 40
0.0
  9
$DIMTOL
 70
     1
  9
$DIMLIM
 70
     0
  9
$DIMTIH
 70
     1
  9
$DIMTOH
 70
     1
  9
$DIMSE1
 70
     0
  9
$DIMSE2
 70
     0
  9
$DIMTAD
 70
     0
  9
$DIMZIN
 70
     0
  9
$DIMBLK
  1

  9
$DIMASO
 70
     1
  9
$DIMSHO
 70
     1
  9
$DIMPOST
  1
\X
  9
$DIMAPOST
  1

  9
$DIMALT
 70
     1
  9
$DIMALTD
 70
     2
  9
$DIMALTF
 40
25.3999999999999986
  9
$DIMLFAC
 40
1.0
  9
$DIMTOFL
 70
     0
  9
$DIMTVP
 40
0.0
  9
$DIMTIX
 70
     0
  9
$DIMSOXD
 70
     0
  9
$DIMSAH
 70
     0
  9
$DIMBLK1
  1

  9
$DIMBLK2
  1

  9
$DIMSTYLE
  2
STANDARD
  9
$DIMCLRD
 70
     0
  9
$DIMCLRE
 70
     0
  9
$DIMCLRT
 70
     0
  9
$DIMTFAC
 40
1.0
  9
$DIMGAP
 40
0.09
  9
$LUNITS
 70
     2
  9
$LUPREC
 70
     4
  9
$SKETCHINC
 40
0.1
  9
$FILLETRAD
 40
0.0
  9
$AUNITS
 70
     0
  9
$AUPREC
 70
     0
  9
$MENU
  1
.
  9
$ELEVATION
 40
0.0
  9
$PELEVATION
 40
0.0
  9
$THICKNESS
 40
0.0
  9
$LIMCHECK
 70
     0
  9
$BLIPMODE
 70
     0
  9
$CHAMFERA
 40
0.0
  9
$CHAMFERB
 40
0.0
  9
$SKPOLY
 70
     0
  9
$TDCREATE
 40
2458106.4931018520146608
  9
$TDUPDATE
 40
2459712.5560879628174007
  9
$TDINDWG
 40
0.2703226389
  9
$TDUSRTIMER
 40
0.2703226389
  9
$USRTIMER
 70
     1
  9
$ANGBASE
 50
0.0
  9
$ANGDIR
 70
     0
  9
$PDMODE
 70
     0
  9
$PDSIZE
 40
0.3125
  9
$PLINEWID
 40
0.0
  9
$COORDS
 70
     1
  9
$SPLFRAME
 70
     0
  9
$SPLINETYPE
 70
     6
  9
$SPLINESEGS
 70
     8
  9
$ATTDIA
 70
     1
  9
$ATTREQ
 70
     1
  9
$HANDLING
 70
     1
  9
$HANDSEED
  5
568E
  9
$SURFTAB1
 70
     6
  9
$SURFTAB2
 70
     6
  9
$SURFTYPE
 70
     6
  9
$SURFU
 70
     6
  9
$SURFV
 70
     6
  9
$UCSNAME
  2

  9
$UCSORG
 10
0.0
 20
0.0
 30
0.0
  9
$UCSXDIR
 10
1.0
 20
0.0
 30
0.0
  9
$UCSYDIR
 10
0.0
 20
1.0
 30
0.0
  9
$PUCSNAME
  2

  9
$PUCSORG
 10
0.0
 20
0.0
 30
0.0
  9
$PUCSXDIR
 10
1.0
 20
0.0
 30
0.0
  9
$PUCSYDIR
 10
0.0
 20
1.0
 30
0.0
  9
$USERI1
 70
     0
  9
$USERI2
 70
     0
  9
$USERI3
 70
     0
  9
$USERI4
 70
     0
  9
$USERI5
 70
     0
  9
$USERR1
 40
0.0
  9
$USERR2
 40
0.0
  9
$USERR3
 40
0.0
  9
$USERR4
 40
0.0
  9
$USERR5
 40
0.0
  9
$WORLDVIEW
 70
     1
  9
$SHADEDGE
 70
     3
  9
$SHADEDIF
 70
    70
  9
$TILEMODE
 70
     1
  9
$MAXACTVP
 70
    64
  9
$PLIMCHECK
 70
     0
  9
$PEXTMIN
 10
1.0000000000000000E+20
 20
1.0000000000000000E+20
 30
1.0000000000000000E+20
  9
$PEXTMAX
 10
-1.0000000000000000E+20
 20
-1.0000000000000000E+20
 30
-1.0000000000000000E+20
  9
$PLIMMIN
 10
0.0
 20
0.0
  9
$PLIMMAX
 10
12.0
 20
9.0
  9
$UNITMODE
 70
     0
  9
$VISRETAIN
 70
     1
  9
$PLINEGEN
 70
     0
  9
$PSLTSCALE
 70
     1
  0
ENDSEC
  0
SECTION
  2
TABLES
  0
TABLE
  2
VPORT
 70
     1
  0
VPORT
  2
*ACTIVE
 70
     0
 10
0.0
 20
0.0
 11
1.0
 21
1.0
 12
564.6452887926006952
 22
68.5537592338677513
 13
0.0
 23
0.0
 14
1.0
 24
1.0
 15
0.0
 25
0.0
 16
-0.0000000000000568
 26
0.0
 36
193.9250709296327955
 17
273.5742015565131169
 27
-17.6059607340214797
 37
0.0
 40
31.4669520717628188
 41
2.005224660397074
 42
50.0
 43
0.0
 44
0.0
 50
0.0
 51
0.0
 71
     0
 72
   100
 73
     1
 74
     1
 75
     0
 76
     0
 77
     0
 78
     0
  0
ENDTAB
  0
TABLE
  2
LTYPE
 70
     2
  0
LTYPE
  2
CONTINUOUS
 70
     0
  3
Solid line
 72
    65
 73
     0
 40
0.0
  0
LTYPE
  2
PHANTOM2
 70
     0
  3
___ _ _ ___ _ _ ___ _ _ ___ _ _
 72
    65
 73
     6
 40
1.25
 49
0.625
 49
-0.125
 49
0.125
 49
-0.125
 49
0.125
 49
-0.125
  0
ENDTAB
  0
TABLE
  2
LAYER
 70
     2
  0
LAYER
  2
0
 70
     0
 62
   255
  6
CONTINUOUS
  0
LAYER
  2
DEFPOINTS
 70
     0
 62
     7
  6
CONTINUOUS
  0
ENDTAB
  0
TABLE
  2
STYLE
 70
     1
  0
STYLE
  2
STANDARD
 70
     0
 40
0.0
 41
0.8
 50
0.0
 71
     0
 42
0.2
  3
txt
  4

  0
ENDTAB
  0
TABLE
  2
VIEW
 70
     0
  0
ENDTAB
  0
TABLE
  2
UCS
 70
     0
  0
ENDTAB
  0
TABLE
  2
APPID
 70
    10
  0
APPID
  2
ACAD
 70
     0
  0
APPID
  2
ACAD_MLEADERVER
 70
     0
  0
APPID
  2
ACAD_EXEMPT_FROM_CAD_STANDARDS
 70
     0
  0
APPID
  2
ACAD_NAV_VCDISPLAY
 70
     0
  0
APPID
  2
ACAD_DSTYLE_DIMJAG
 70
     0
  0
APPID
  2
ACAD_DSTYLE_DIMTALN
 70
     0
  0
APPID
  2
ACAECLAYERSTANDARD
 70
     0
  0
APPID
  2
ACCMTRANSPARENCY
 70
     0
  0
APPID
  2
ACDBATTR
 70
     0
  0
APPID
  2
DCO15
 70
     0
  0
ENDTAB
  0
TABLE
  2
DIMSTYLE
 70
     1
  0
DIMSTYLE
  2
STANDARD
 70
     0
  3

  4

  5

  6

  7

 40
1.0
 41
0.1875
 42
0.0625
 43
0.38
 44
0.125
 45
0.0
 46
0.0
 47
0.01
 48
0.01
140
0.15625
141
0.09
142
0.0
143
25.3999999999999986
144
1.0
145
0.0
146
1.0
147
0.09
 71
     1
 72
     0
 73
     1
 74
     1
 75
     0
 76
     0
 77
     0
 78
     4
170
     0
171
     2
172
     0
173
     0
174
     0
175
     0
176
     0
177
     0
178
     0
  0
ENDTAB
  0
ENDSEC
  0
SECTION
  2
BLOCKS
  0
BLOCK
  8
0
  2
$MODEL_SPACE
 70
     0
 10
0.0
 20
0.0
 30
0.0
  3
$MODEL_SPACE
  1

  0
ENDBLK
  5
21
  8
0
  0
BLOCK
 67
     1
  8
0
  2
$PAPER_SPACE
 70
     0
 10
0.0
 20
0.0
 30
0.0
  3
$PAPER_SPACE
  1

  0
ENDBLK
  5
1D
 67
     1
  8
0
  0
ENDSEC
  0
SECTION
  2
ENTITIES
  0
ATTDEF
  5
FAA
  8
DEFPOINTS
 10
838.2330064354656542
 20
66.5768987443730111
 30
0.0
 40
0.001
  1
72440120
  3

  2
MODELNUMBER
 70
     0
1001
ACDBATTR
1070
     0
1070
     1
  0
ATTDEF
  5
FAB
  8
DEFPOINTS
 10
838.2330064354656542
 20
66.575232077706346
 30
0.0
 40
0.001
  1
ENSEMBLE
  3

  2
TRADENAME
 70
     0
1001
ACDBATTR
1070
     0
1070
     1
  0
ATTDEF
  5
FAC
  8
DEFPOINTS
 10
838.2330064354656542
 20
66.5735654110396808
 30
0.0
 40
0.001
  1
SHOWER STALL
  3

  2
PRODUCT
 70
     0
1001
ACDBATTR
1070
     0
1070
     1
  0
LINE
  5
548F
  8
0
 10
808.4830599489661154
 20
66.5734379927095574
 30
0.0
 11
867.9380370134349505
 21
66.5734379927095574
 31
0.0
  0
LINE
  5
5490
  8
0
 10
808.2324779890351465
 20
35.3194890835595174
 30
0.0
 11
808.2324779890351465
 21
66.2210818326701087
 31
0.0
  0
LINE
  5
5491
  8
0
 10
808.3324779890348282
 20
35.3859668138118835
 30
0.0
 11
808.3324779890348282
 21
58.6472089408347301
 31
0.0
  0
LINE
  5
5492
  8
0
 10
808.2324779890351465
 20
58.793348653631881
 30
0.0
 11
810.9323095076349546
 21
58.6518564793095081
 31
0.0
  0
ARC
  5
5493
  8
0
 10
810.9157042952471102
 20
58.3992194008083629
 30
0.0
 40
0.2531822002275319
 50
354.5489166621268282
 51
86.2394986877331604
  0
ARC
  5
5494
  8
0
 10
894.0393066371012765
 20
50.6147418539396128
 30
0.0
 40
83.2341307449659382
 50
174.6501944720172048
 51
179.5723037780335005
  0
ARC
  5
5495
  8
0
 10
810.430420610043484
 20
58.4183133199133522
 30
0.0
 40
0.2729695059148729
 50
356.3338057804418781
 51
68.9190095830086165
  0
ARC
  5
5496
  8
0
 10
933.4594610089493472
 20
49.6911558616390607
 30
0.0
 40
123.0652226034043935
 50
175.9416093671657109
 51
179.279517227092299
  0
ARC
  5
5497
  8
0
 10
1304.4720830310309339
 20
41.2050816090203966
 30
0.0
 40
494.1699852655528957
 50
178.8365951016641873
 51
179.9287634404572032
  0
ARC
  5
5498
  8
0
 10
809.1870748858116258
 20
41.8465566146094332
 30
0.0
 40
1.115733203347903
 50
330.5180425324210205
 51
358.6098808105415969
  0
ARC
  5
5499
  8
0
 10
805.8950253281177538
 20
43.7194702545444329
 30
0.0
 40
4.9032616940254732
 50
323.0026390943851879
 51
330.3987246313944866
  0
ARC
  5
549A
  8
0
 10
812.742947363384701
 20
38.5979409236327271
 30
0.0
 40
3.6480746695638082
 50
143.4825073370529083
 51
152.4247696374781924
  0
ARC
  5
549B
  8
0
 10
810.4771258550579205
 20
39.7965148112498923
 30
0.0
 40
1.084891151432352
 50
153.1400000162547883
 51
178.7865812687144
  0
LINE
  5
549C
  8
0
 10
809.392477989035001
 20
39.8194890835595174
 30
0.0
 11
809.392477989035001
 21
36.8514193698595207
 31
0.0
  0
ARC
  5
549D
  8
0
 10
809.1424779890351147
 20
36.8514193698595207
 30
0.0
 40
0.2500000000000142
 50
272.0000000000035811
 51
0.0000000000032569
  0
LINE
  5
549E
  8
0
 10
809.1512028632350848
 20
36.601571663059481
 30
0.0
 11
808.3932793208350631
 21
36.575104389759467
 31
0.0
  0
ARC
  5
549F
  8
0
 10
808.3954779890239024
 20
36.5121427676664894
 30
0.0
 40
0.0629999999871967
 50
91.9999999064087746
 51
180.0
  0
LINE
  5
54A0
  8
0
 10
808.2324779890351465
 20
35.3194890835595174
 30
0.0
 11
808.2749688008350404
 21
35.3232065478595203
 31
0.0
  0
ARC
  5
54A1
  8
0
 10
808.2694779890643986
 20
35.3859668138118835
 30
0.0
 40
0.0629999999707149
 50
274.9999999818942911
 51
0.0000000433361516
  0
ARC
  5
54A2
  8
0
 10
1378.6478843564088947
 20
43.0169681850681371
 30
0.0
 40
567.8998690981852633
 50
179.1707421948389936
 51
180.1208165598366122
  0
ARC
  5
54A3
  8
0
 10
810.072421243047188
 20
41.8290180977236332
 30
0.0
 40
0.6769239252760662
 50
335.3310174530236054
 51
359.191711916494512
  0
ARC
  5
54A4
  8
0
 10
809.6244013889896678
 20
42.0456051012261582
 30
0.0
 40
1.174494073928477
 50
320.4771767497917949
 51
334.8515854552999258
  0
ARC
  5
54A5
  8
0
 10
806.1228130005690673
 20
45.2696033410396694
 30
0.0
 40
5.9328600956753164
 50
310.7295166567288902
 51
317.9795810185343043
  0
ARC
  5
54A6
  8
0
 10
812.4258983248529375
 20
38.0203975305393627
 30
0.0
 40
3.673562384208179
 50
131.4538688890733056
 51
138.5453457655262923
  0
ARC
  5
54A7
  8
0
 10
810.7679872891787909
 20
39.4934032490225491
 30
0.0
 40
1.4558357794668999
 50
138.7974671590995115
 51
151.5393251216408999
  0
ARC
  5
54A8
  8
0
 10
810.24439192893783
 20
39.7867581802437371
 30
0.0
 40
0.8557609738442353
 50
152.1003410410496883
 51
170.7048166347290135
  0
ARC
  5
54A9
  8
0
 10
808.0774626854808957
 20
58.6460006161721594
 30
0.0
 40
0.2550181662064411
 50
0.2714793360529671
 51
13.0224988051642203
  0
LINE
  5
54AA
  8
0
 10
808.325922206834889
 20
58.7034647906095302
 30
0.0
 11
808.3188389682350135
 21
58.7317327843095427
 31
0.0
  0
ARC
  5
54AB
  8
0
 10
808.195168524037058
 20
58.7007441236596605
 30
0.0
 40
0.1274938267406115
 50
14.0672198482101702
 51
31.9869135189759106
  0
ARC
  5
54AC
  8
0
 10
808.2329119524395082
 20
58.7243168502871526
 30
0.0
 40
0.0829939410305539
 50
31.9869135189821208
 51
43.8126572826096279
  0
ARC
  5
54AD
  8
0
 10
808.2698072625540817
 20
58.7597138299173523
 30
0.0
 40
0.0318645945120061
 50
43.8126572826280594
 51
80.1188089510839632
  0
LINE
  5
54AE
  8
0
 10
808.2329075671343617
 20
58.8333810341790127
 30
0.0
 11
808.8179703089348322
 21
58.8027191952095407
 31
0.0
  0
ARC
  5
54AF
  8
0
 10
808.8106641654984514
 20
58.7730072611976198
 30
0.0
 40
0.0305970383312292
 50
26.3644860075549694
 51
76.185101666801188
  0
ARC
  5
54B0
  8
0
 10
808.7637042153259017
 20
58.7479619212534772
 30
0.0
 40
0.0838096983818632
 50
9.068000944756168
 51
27.4490342265129783
  0
ARC
  5
54B1
  8
0
 10
808.8212413062707355
 20
58.8651335410874594
 30
0.0
 40
0.0624999999595215
 50
266.999999933227798
 51
357.9996956023704797
  0
LINE
  5
54B2
  8
0
 10
808.8800868665352937
 20
58.7594089105194826
 30
0.0
 11
808.8944304127350051
 21
59.1700917762095102
 31
0.0
  0
ARC
  5
54B3
  8
0
 10
808.9818770938533135
 20
59.1670376056671827
 30
0.0
 40
0.0874999999788644
 50
87.9999999862438642
 51
177.9996956023672965
  0
LINE
  5
54B4
  8
0
 10
808.9849307998349559
 20
59.2544843030095194
 30
0.0
 11
809.0919396368351499
 21
59.2507474721095306
 31
0.0
  0
ARC
  5
54B5
  8
0
 10
809.0888859308984138
 20
59.1633007747466806
 30
0.0
 40
0.0874999999978246
 50
2.000304410648682
 51
88.0000000162841758
  0
LINE
  5
54B6
  8
0
 10
809.1763326120352531
 20
59.1663549453095428
 30
0.0
 11
809.1877144127349766
 21
58.8404724587095416
 31
0.0
  0
ARC
  5
54B7
  8
0
 10
809.2501763278118005
 20
58.8426540091087986
 30
0.0
 40
0.0624999999777273
 50
182.0003044087289936
 51
266.9999999881753183
  0
LINE
  5
54B8
  8
0
 10
809.2469053305350144
 20
58.7802396632095565
 30
0.0
 11
810.6735125156351387
 21
58.7054743487095081
 31
0.0
  0
ARC
  5
54B9
  8
0
 10
810.6767836633279103
 20
58.7678915649487905
 30
0.0
 40
0.0625028742562203
 50
266.9999999992051016
 51
357.996774779140992
  0
LINE
  5
54BA
  8
0
 10
810.2650359551350903
 20
58.7905597419095329
 30
0.0
 11
810.3638357783348738
 21
61.6172797554095197
 31
0.0
  0
ARC
  5
54BB
  8
0
 10
810.2025266886788586
 20
58.7927823090756689
 30
0.0
 40
0.0625487665560176
 50
268.0221085097285254
 51
357.9636603834484845
  0
LINE
  5
54BC
  8
0
 10
810.7392483396348553
 20
58.7657067299095388
 30
0.0
 11
810.8410905242351419
 21
61.6811970330095392
 31
0.0
  0
ARC
  5
54BD
  8
0
 10
813.4722013554501245
 20
61.6598940356487901
 30
0.0
 40
2.631197070504844
 50
153.8688383343315991
 51
179.5361103169994976
  0
ARC
  5
54BE
  8
0
 10
812.6970901344388949
 20
62.0401399803799265
 30
0.0
 40
1.7678406067994641
 50
113.3217401307627057
 51
153.8688383343315991
  0
ARC
  5
54BF
  8
0
 10
812.9925613066468486
 20
61.3547795387482324
 30
0.0
 40
2.5141797713617899
 50
88.845352524928856
 51
113.3217401307627057
  0
LINE
  5
54C0
  8
0
 10
813.0432246340351412
 20
63.8684487990095207
 30
0.0
 11
820.1297941042068942
 21
63.8684487990095207
 31
0.0
  0
ARC
  5
54C1
  8
0
 10
812.9905562901842586
 20
61.4792594494147622
 30
0.0
 40
2.630344131903021
 50
147.7614438299123947
 51
176.9921751568934098
  0
ARC
  5
54C2
  8
0
 10
813.8162715941526812
 20
60.9585024407745735
 30
0.0
 40
3.6065580558232879
 50
123.4660521883622977
 51
147.7614438299123947
  0
ARC
  5
54C3
  8
0
 10
813.0871677097493375
 20
62.0614775960607901
 30
0.0
 40
2.284383079721048
 50
91.1022174626250063
 51
123.4660521883622977
  0
LINE
  5
54C4
  8
0
 10
813.043225003234852
 20
64.3454379927095346
 30
0.0
 11
820.1297941572067884
 21
64.3454379927095346
 31
0.0
  0
ARC
  5
54C5
  8
0
 10
820.1249164855775007
 20
58.7489503502538923
 30
0.0
 40
5.5964897680455969
 50
65.8492785309820903
 51
89.9500633352019179
  0
ARC
  5
54C6
  8
0
 10
822.9075759917225241
 20
64.9496888669296482
 30
0.0
 40
1.2000073760889729
 50
245.7471184997660032
 51
274.4523158541986732
  0
ARC
  5
54C7
  8
0
 10
820.1284353910774598
 20
57.6480492337498731
 30
0.0
 40
6.2203997136505649
 50
79.5901849884825481
 51
89.9874849636554472
  0
ARC
  5
54C8
  8
0
 10
820.5963737926570047
 20
60.405904073775389
 30
0.0
 40
3.423598729792503
 50
61.7139998066964068
 51
78.9529848896396658
  0
ARC
  5
54C9
  8
0
 10
822.9075740168799484
 20
64.9496824453004251
 30
0.0
 40
1.6769898734764901
 50
245.7470893910073926
 51
274.4524392745423143
  0
ARC
  5
54CA
  8
0
 10
808.5276990691348828
 20
66.4109379927095347
 30
0.0
 40
0.1625000000000443
 50
90.0
 51
179.0000000000893863
  0
LINE
  5
54CB
  8
0
 10
808.3652238186350587
 20
66.4137740088095256
 30
0.0
 11
808.2324779890351465
 21
58.8087705213342176
 31
0.0
  0
LINE
  5
54CC
  8
0
 10
808.3354141381349791
 20
58.9761097081095613
 30
0.0
 11
808.4652085881350558
 21
66.4120287681095647
 31
0.0
  0
ARC
  5
54CD
  8
0
 10
808.0582715529541247
 20
58.9803150146621533
 30
0.0
 40
0.277174488588021
 50
338.9293800782668882
 51
359.1306719346227965
  0
ARC
  5
54CE
  8
0
 10
808.1852528909920466
 20
58.9313917877818767
 30
0.0
 40
0.1410945769979772
 50
324.5164182341036962
 51
338.9293800782700146
  0
ARC
  5
54CF
  8
0
 10
808.2635288527792454
 20
58.8772365180317365
 30
0.0
 40
0.0459399116398981
 50
275.8093606563563753
 51
322.8459895264065267
  0
ARC
  5
54D0
  8
0
 10
808.5276990691728543
 20
66.4109379926176757
 30
0.0
 40
0.0625000000918738
 50
90.0000000344708866
 51
178.9999999193811959
  0
LINE
  5
54D1
  8
0
 10
808.5276990691348828
 20
66.4734379927095347
 30
0.0
 11
867.9380370133975475
 21
66.4734379927095347
 31
0.0
  0
LINE
  5
54D2
  8
0
 10
819.3332067264736907
 20
63.8684487990095207
 30
0.0
 11
818.9858431918349879
 21
62.846612013559529
 31
0.0
  0
ARC
  5
54D3
  8
0
 10
809.1100542106679541
 20
66.0862172021905394
 30
0.0
 40
10.3935677117506007
 50
337.4167471629335751
 51
341.8386950579580912
  0
ARC
  5
54D4
  8
0
 10
816.664164680359363
 20
62.918787190076273
 30
0.0
 40
2.2024400752219311
 50
324.1663492648023066
 51
338.0304108427289975
  0
ARC
  5
54D5
  8
0
 10
817.4275264040154525
 20
62.3675515209899913
 30
0.0
 40
1.26085530260912
 50
287.9768143965299032
 51
324.1663492648023066
  0
ARC
  5
54D6
  8
0
 10
817.037797196898282
 20
63.5686683038861133
 30
0.0
 40
2.5236182974086709
 50
276.8006464485781066
 51
287.9768143965299032
  0
ARC
  5
54D7
  8
0
 10
816.1647532025724558
 20
70.8895326444970237
 30
0.0
 40
9.8963559510659795
 50
272.5666084836626055
 51
276.8006464485781066
  0
ARC
  5
54D8
  8
0
 10
818.3416917956944872
 20
27.2373696001282006
 30
0.0
 40
33.8102175138391914
 50
92.939389679570894
 51
102.9077238421001965
  0
LINE
  5
54D9
  8
0
 10
808.2324779890351465
 20
36.5329404984594817
 30
0.0
 11
808.2749688008350404
 21
36.5359709378595312
 31
0.0
  0
ARC
  5
54DA
  8
0
 10
808.2689386653196379
 20
36.6205214995099482
 30
0.0
 40
0.0847653231559847
 50
274.0794205174415765
 51
300.9277172096407185
  0
ARC
  5
54DB
  8
0
 10
808.2905713817499418
 20
36.5844155136363725
 30
0.0
 40
0.0426747465852163
 50
300.9277172096333857
 51
349.1125607909185078
  0
ARC
  5
54DC
  8
0
 10
838.2328680412852009
 20
-131.8699568038101972
 30
0.0
 40
195.7383971435583021
 50
85.5476681207390328
 51
94.4523318792609672
  0
ARC
  5
54DD
  8
0
 10
838.2328680412854283
 20
-131.8699590337689926
 30
0.0
 40
196.2153881131164042
 50
85.5476678758963942
 51
94.4523321241036058
  0
LINE
  5
54DF
  8
0
 10
808.9549974190354078
 20
58.7554830148182532
 30
0.0
 11
808.967726667135139
 21
59.1200009873095382
 31
0.0
  0
LINE
  5
54E0
  8
0
 10
808.967726667135139
 20
59.1200009873095382
 30
0.0
 11
809.0887524647350801
 21
59.1157760637095109
 31
0.0
  0
ARC
  5
54E1
  8
0
 10
809.0865545459290615
 20
59.0528151911035479
 30
0.0
 40
0.0629992248077779
 50
1.999342570428962
 51
88.0006574295904755
  0
LINE
  5
54E2
  8
0
 10
809.1495154185348611
 20
59.0550131099095594
 30
0.0
 11
809.1603510617343318
 21
58.7447208864372215
 31
0.0
  0
LINE
  5
54E3
  8
0
 10
810.2205269947579609
 20
40.3841982739272609
 30
0.0
 11
866.2452090878120998
 21
40.3841982739272609
 31
0.0
  0
ARC
  5
54E4
  8
0
 10
810.3890943355929721
 20
41.0642719836762282
 30
0.0
 40
0.7006534086750078
 50
218.365949231593504
 51
256.078875940288583
  0
LINE
  5
54E5
  8
0
 10
808.3324779890348282
 20
36.4622026715595098
 30
0.0
 11
868.1332580935350052
 21
36.4622026715595098
 31
0.0
  0
LINE
  5
54E6
  8
0
 10
809.1783571692595842
 20
59.1083880418296985
 30
0.0
 11
809.1622812454349969
 21
58.8466900643595068
 31
0.0
  0
ARC
  5
54E7
  8
0
 10
809.0997073127606427
 20
58.8505339373034531
 30
0.0
 40
0.0626918847183587
 50
337.2080699628205025
 51
356.4847775078064274
  0
LINE
  5
54E8
  8
0
 10
868.2332580935351416
 20
35.3194890835595174
 30
0.0
 11
868.2332580935351416
 21
66.2210818326594222
 31
0.0
  0
LINE
  5
54E9
  8
0
 10
868.1332580935350052
 20
35.3859668138118835
 30
0.0
 11
868.1332580935350052
 21
58.6472089408347301
 31
0.0
  0
LINE
  5
54EA
  8
0
 10
868.2332580935351416
 20
58.793348653631881
 30
0.0
 11
865.5334265749348788
 21
58.6518564793095081
 31
0.0
  0
ARC
  5
54EB
  8
0
 10
865.5500317873229505
 20
58.3992194008083629
 30
0.0
 40
0.2531822002275319
 50
93.7605013122668538
 51
185.4510833378732002
  0
ARC
  5
54EC
  8
0
 10
782.4264294454686706
 20
50.6147418539396128
 30
0.0
 40
83.2341307449659382
 50
0.4276962219664958
 51
5.3498055279827508
  0
ARC
  5
54ED
  8
0
 10
866.0353154725266904
 20
58.4183133199133522
 30
0.0
 40
0.2729695059148729
 50
111.0809904169913978
 51
183.6661942195580934
  0
ARC
  5
54EE
  8
0
 10
743.0062750736208272
 20
49.6911558616390607
 30
0.0
 40
123.0652226034043935
 50
0.7204827729076796
 51
4.0583906328342954
  0
ARC
  5
54EF
  8
0
 10
371.9936530515391837
 20
41.2050816090203966
 30
0.0
 40
494.1699852655528957
 50
0.0712365595428161
 51
1.1634048983358349
  0
ARC
  5
54F0
  8
0
 10
867.2786611967585486
 20
41.8465566146094332
 30
0.0
 40
1.115733203347903
 50
181.3901191894584031
 51
209.4819574675788942
  0
ARC
  5
54F1
  8
0
 10
870.5707107544524206
 20
43.7194702545444329
 30
0.0
 40
4.9032616940254732
 50
209.6012753686053998
 51
216.9973609056148973
  0
ARC
  5
54F2
  8
0
 10
863.7227887191854734
 20
38.5979409236327271
 30
0.0
 40
3.6480746695638082
 50
27.5752303625218396
 51
36.517492662947113
  0
ARC
  5
54F3
  8
0
 10
865.9886102275121402
 20
39.7965148112498923
 30
0.0
 40
1.084891151432352
 50
1.2134187312855771
 51
26.859999983745201
  0
LINE
  5
54F4
  8
0
 10
867.0732580935349461
 20
39.8194890835595174
 30
0.0
 11
867.0732580935349461
 21
36.8514193698595207
 31
0.0
  0
ARC
  5
54F5
  8
0
 10
867.3232580935349461
 20
36.8514193698595207
 30
0.0
 40
0.2500000000000142
 50
179.9999999999967031
 51
267.9999999999964189
  0
LINE
  5
54F6
  8
0
 10
867.3145332193350896
 20
36.601571663059481
 30
0.0
 11
868.0724567617351113
 21
36.575104389759467
 31
0.0
  0
ARC
  5
54F7
  8
0
 10
868.0702580935459309
 20
36.5121427676664894
 30
0.0
 40
0.0629999999871967
 50
0.0
 51
88.0000000935912254
  0
LINE
  5
54F8
  8
0
 10
868.2332580935351416
 20
35.3194890835595174
 30
0.0
 11
868.1907672817350203
 21
35.3232065478595203
 31
0.0
  0
ARC
  5
54F9
  8
0
 10
868.1962580935057758
 20
35.3859668138118835
 30
0.0
 40
0.0629999999707149
 50
179.9999999566637996
 51
265.0000000181055952
  0
ARC
  5
54FA
  8
0
 10
297.817851726160427
 20
43.0169681850681371
 30
0.0
 40
567.8998690981852633
 50
359.8791834401600909
 51
0.8292578051609812
  0
ARC
  5
54FB
  8
0
 10
866.393314839522759
 20
41.8290180977236332
 30
0.0
 40
0.6769239252760662
 50
180.8082880835054027
 51
204.6689825469763946
  0
ARC
  5
54FC
  8
0
 10
866.8413346935801655
 20
42.0456051012261582
 30
0.0
 40
1.174494073928477
 50
205.1484145447001026
 51
219.5228232502082051
  0
ARC
  5
54FD
  8
0
 10
870.3429230820011071
 20
45.2696033410396694
 30
0.0
 40
5.9328600956753164
 50
222.0204189814658093
 51
229.2704833432709961
  0
ARC
  5
54FE
  8
0
 10
864.0398377577173505
 20
38.0203975305393627
 30
0.0
 40
3.673562384208179
 50
41.4546542344736366
 51
48.5461311109266873
  0
ARC
  5
54FF
  8
0
 10
865.6977487933912698
 20
39.4934032490225491
 30
0.0
 40
1.4558357794668999
 50
28.4606748783591108
 51
41.2025328409004601
  0
ARC
  5
5500
  8
0
 10
866.2213441536323444
 20
39.7867581802437371
 30
0.0
 40
0.8557609738442353
 50
9.2951833652710238
 51
27.8996589589503117
  0
ARC
  5
5501
  8
0
 10
868.3882733970892787
 20
58.6460006161721594
 30
0.0
 40
0.2550181662064411
 50
166.9775011948358099
 51
179.7285206639469948
  0
LINE
  5
5502
  8
0
 10
868.1398138757351717
 20
58.7034647906095302
 30
0.0
 11
868.1468971143350473
 21
58.7317327843095427
 31
0.0
  0
ARC
  5
5503
  8
0
 10
868.2705675585330027
 20
58.7007441236596605
 30
0.0
 40
0.1274938267406115
 50
148.0130864810240894
 51
165.9327801517898138
  0
ARC
  5
5504
  8
0
 10
868.2328241301305525
 20
58.7243168502871526
 30
0.0
 40
0.0829939410305539
 50
136.1873427173904076
 51
148.0130864810178082
  0
ARC
  5
5505
  8
0
 10
868.1959288200157516
 20
58.7597138299173523
 30
0.0
 40
0.0318645945120061
 50
99.8811910489160226
 51
136.1873427173719051
  0
LINE
  5
5506
  8
0
 10
868.2328285154354717
 20
58.8333810341790127
 30
0.0
 11
867.6477657736350011
 21
58.8027191952095407
 31
0.0
  0
ARC
  5
5507
  8
0
 10
867.6550719170716093
 20
58.7730072611976198
 30
0.0
 40
0.0305970383312292
 50
103.8148983331987978
 51
153.6355139924449986
  0
ARC
  5
5508
  8
0
 10
867.7020318672440453
 20
58.7479619212534772
 30
0.0
 40
0.0838096983818632
 50
152.5509657734870075
 51
170.9319990552438071
  0
ARC
  5
5509
  8
0
 10
867.6444947762993252
 20
58.8651335410874594
 30
0.0
 40
0.0624999999595215
 50
182.0003043976294066
 51
273.0000000667720883
  0
LINE
  5
550A
  8
0
 10
867.5856492160346534
 20
58.7594089105194826
 30
0.0
 11
867.5713056698350556
 21
59.1700917762095102
 31
0.0
  0
ARC
  5
550B
  8
0
 10
867.4838589887167473
 20
59.1670376056671827
 30
0.0
 40
0.0874999999788644
 50
2.0003043976326831
 51
92.0000000137561358
  0
LINE
  5
550C
  8
0
 10
867.4808052827349911
 20
59.2544843030095194
 30
0.0
 11
867.3737964457350245
 21
59.2507474721095306
 31
0.0
  0
ARC
  5
550D
  8
0
 10
867.3768501516715332
 20
59.1633007747466806
 30
0.0
 40
0.0874999999978246
 50
91.9999999837158384
 51
177.9996955893512904
  0
LINE
  5
550E
  8
0
 10
867.289403470535035
 20
59.1663549453095428
 30
0.0
 11
867.2780216698348568
 21
58.8404724587095416
 31
0.0
  0
ARC
  5
550F
  8
0
 10
867.2155597547582602
 20
58.8426540091087986
 30
0.0
 40
0.0624999999777273
 50
273.0000000118247954
 51
357.9996955912710064
  0
LINE
  5
5510
  8
0
 10
867.2188307520350463
 20
58.7802396632095565
 30
0.0
 11
865.792223566934922
 21
58.7054743487095081
 31
0.0
  0
ARC
  5
5511
  8
0
 10
865.7889524192421504
 20
58.7678915649487905
 30
0.0
 40
0.0625028742562203
 50
182.003225220859008
 51
273.0000000007948984
  0
LINE
  5
5512
  8
0
 10
866.2007001274349705
 20
58.7905597419095329
 30
0.0
 11
866.1019003042350732
 21
61.6172797554095197
 31
0.0
  0
ARC
  5
5513
  8
0
 10
866.2632093938912021
 20
58.7927823090756689
 30
0.0
 40
0.0625487665560176
 50
182.0363396165514018
 51
271.9778914902714746
  0
LINE
  5
5514
  8
0
 10
865.7264877429349781
 20
58.7657067299095388
 30
0.0
 11
865.6246455583350325
 21
61.6811970330095392
 31
0.0
  0
ARC
  5
5515
  8
0
 10
862.9935347271199362
 20
61.6598940356487901
 30
0.0
 40
2.631197070504844
 50
0.4638896830005005
 51
26.1311616656684187
  0
ARC
  5
5516
  8
0
 10
863.7686459481312795
 20
62.0401399803799265
 30
0.0
 40
1.7678406067994641
 50
26.1311616656684187
 51
66.6782598692373227
  0
ARC
  5
5517
  8
0
 10
863.4731747759232121
 20
61.3547795387482324
 30
0.0
 40
2.5141797713617899
 50
66.6782598692373227
 51
91.154647475071144
  0
LINE
  5
5518
  8
0
 10
863.4225114485349195
 20
63.8684487990095207
 30
0.0
 11
856.3359419783632802
 21
63.8684487990095207
 31
0.0
  0
ARC
  5
5519
  8
0
 10
863.4751797923855747
 20
61.4792594494147622
 30
0.0
 40
2.630344131903021
 50
3.0078248431065542
 51
32.238556170093851
  0
ARC
  5
551A
  8
0
 10
862.6494644884171521
 20
60.9585024407745735
 30
0.0
 40
3.6065580558232879
 50
32.238556170093851
 51
56.533947811637681
  0
ARC
  5
551B
  8
0
 10
863.3785683728207232
 20
62.0614775960607901
 30
0.0
 40
2.284383079721048
 50
56.533947811637681
 51
88.8977825373750079
  0
LINE
  5
551C
  8
0
 10
863.4225110793349813
 20
64.3454379927095346
 30
0.0
 11
856.335941925363386
 21
64.3454379927095346
 31
0.0
  0
ARC
  5
551D
  8
0
 10
856.3408195969924463
 20
58.7489503502538923
 30
0.0
 40
5.5964897680455969
 50
90.0499366647980963
 51
114.1507214690178955
  0
ARC
  5
551E
  8
0
 10
853.5581600908476503
 20
64.9496888669296482
 30
0.0
 40
1.2000073760889729
 50
265.5476841458013268
 51
294.2528815002340252
  0
ARC
  5
551F
  8
0
 10
856.3373006914924872
 20
57.6480492337498731
 30
0.0
 40
6.2203997136505649
 50
90.0125150363445812
 51
100.4098150115173951
  0
ARC
  5
5520
  8
0
 10
855.869362289913056
 20
60.405904073775389
 30
0.0
 40
3.423598729792503
 50
101.0470151103603058
 51
118.2860001933034937
  0
ARC
  5
5521
  8
0
 10
853.5581620656899986
 20
64.9496824453004251
 30
0.0
 40
1.6769898734764901
 50
265.5475607254575721
 51
294.2529106089925222
  0
ARC
  5
5522
  8
0
 10
867.9380370134349505
 20
66.4109379927095347
 30
0.0
 40
0.1625000000000443
 50
0.9999999999105827
 51
90.0
  0
LINE
  5
5523
  8
0
 10
868.1005122639351157
 20
66.4137740088095256
 30
0.0
 11
868.2332580935351416
 21
58.8087705213342176
 31
0.0
  0
LINE
  5
5524
  8
0
 10
868.1303219444349679
 20
58.9761097081095613
 30
0.0
 11
868.0005274944351186
 21
66.4120287681095647
 31
0.0
  0
ARC
  5
5525
  8
0
 10
868.4074645296161634
 20
58.9803150146621533
 30
0.0
 40
0.277174488588021
 50
180.8693280653770898
 51
201.0706199217329981
  0
ARC
  5
5526
  8
0
 10
868.2804831915779005
 20
58.9313917877818767
 30
0.0
 40
0.1410945769979772
 50
201.0706199217300139
 51
215.4835817658963038
  0
ARC
  5
5527
  8
0
 10
868.2022072297908153
 20
58.8772365180317365
 30
0.0
 40
0.0459399116398981
 50
217.1540104735935017
 51
264.1906393436436247
  0
ARC
  5
5528
  8
0
 10
867.9380370133975475
 20
66.4109379926176757
 30
0.0
 40
0.0625000000918738
 50
1.000000080618761
 51
89.9999999655290992
  0
LINE
  5
5529
  8
0
 10
857.1325293560962564
 20
63.8684487990095207
 30
0.0
 11
857.4798928907349591
 21
62.846612013559529
 31
0.0
  0
ARC
  5
552A
  8
0
 10
867.3556818719021066
 20
66.0862172021905394
 30
0.0
 40
10.3935677117506007
 50
198.1613049420419088
 51
202.5832528370663113
  0
ARC
  5
552B
  8
0
 10
859.801571402210925
 20
62.918787190076273
 30
0.0
 40
2.2024400752219311
 50
201.9695891572708888
 51
215.8336507351976934
  0
ARC
  5
552C
  8
0
 10
859.0382096785546082
 20
62.3675515209899913
 30
0.0
 40
1.26085530260912
 50
215.8336507351976934
 51
252.0231856034702105
  0
ARC
  5
552D
  8
0
 10
859.4279388856718924
 20
63.5686683038861133
 30
0.0
 40
2.5236182974086709
 50
252.0231856034702105
 51
263.1993535514218934
  0
ARC
  5
552E
  8
0
 10
860.3009828799978322
 20
70.8895326444970237
 30
0.0
 40
9.8963559510659795
 50
263.1993535514218934
 51
267.4333915163372808
  0
ARC
  5
552F
  8
0
 10
858.1240442868756872
 20
27.2373696001282006
 30
0.0
 40
33.8102175138391914
 50
77.0922761578997608
 51
87.0606103204290775
  0
LINE
  5
5530
  8
0
 10
868.2332580935351416
 20
36.5329404984594817
 30
0.0
 11
868.1907672817350203
 21
36.5359709378595312
 31
0.0
  0
ARC
  5
5531
  8
0
 10
868.1967974172506501
 20
36.6205214995099482
 30
0.0
 40
0.0847653231559847
 50
239.07228279035931
 51
265.9205794825584235
  0
ARC
  5
5532
  8
0
 10
868.1751647008201189
 20
36.5844155136363725
 30
0.0
 40
0.0426747465852163
 50
190.8874392090814069
 51
239.0722827903665006
  0
LINE
  5
5533
  8
0
 10
867.5107386635347666
 20
58.7554830148182532
 30
0.0
 11
867.4980094154349217
 21
59.1200009873095382
 31
0.0
  0
LINE
  5
5534
  8
0
 10
867.4980094154349217
 20
59.1200009873095382
 30
0.0
 11
867.3769836178350943
 21
59.1157760637095109
 31
0.0
  0
ARC
  5
5535
  8
0
 10
867.3791815366409992
 20
59.0528151911035479
 30
0.0
 40
0.0629992248077779
 50
91.9993425704095387
 51
178.0006574295709925
  0
LINE
  5
5536
  8
0
 10
867.3162206640349723
 20
59.0550131099095594
 30
0.0
 11
867.3053850208359563
 21
58.7447208864372215
 31
0.0
  0
ARC
  5
5537
  8
0
 10
866.0766417469770886
 20
41.0642719836762282
 30
0.0
 40
0.7006534086750078
 50
283.921124059711417
 51
321.6340507684038812
  0
LINE
  5
5538
  8
0
 10
867.2873789133103628
 20
59.1083880418296985
 30
0.0
 11
867.3034548371349501
 21
58.8466900643595068
 31
0.0
  0
ARC
  5
5539
  8
0
 10
867.366028769809418
 20
58.8505339373034531
 30
0.0
 40
0.0626918847183587
 50
183.5152224921936011
 51
202.7919300371796112
  0
ARC
  5
553A
  8
0
 10
867.9807694742969488
 20
66.2190843091473766
 30
0.0
 40
0.2524965206589718
 50
0.4532769808938462
 51
62.5077549886565009
  0
CIRCLE
  5
553B
  8
0
 10
859.7332580935349142
 20
52.5734295393595517
 30
0.0
 40
1.6550000000000009
  0
CIRCLE
  5
553C
  8
0
 10
859.7332580935349142
 20
52.5734295393595517
 30
0.0
 40
2.210745179200003
  0
ARC
  5
553D
  8
0
 10
808.4849666082729982
 20
66.2190843091473766
 30
0.0
 40
0.2524965206589718
 50
117.4922450113434991
 51
179.5467230191061105
  0
ENDSEC
  0
EOF
