  0
SECTION
  2
HEADER
  9
$ACADVER
  1
AC1009
  9
$INSBASE
 10
1007.9657952695099539
 20
30.4205393701369111
 30
0.0
  9
$EXTMIN
 10
976.6795094849611587
 20
30.418633329823539
 30
-0.0000000000112498
  9
$EXTMAX
 10
1007.9803807330480367
 20
107.1848738557356029
 30
0.0000000000002956
  9
$LIMMIN
 10
0.0
 20
0.0
  9
$LIMMAX
 10
11.6929133858000007
 20
8.2677165353999982
  9
$ORTHOMODE
 70
     1
  9
$REGENMODE
 70
     1
  9
$FILLMODE
 70
     1
  9
$QTEXTMODE
 70
     0
  9
$MIRRTEXT
 70
     0
  9
$DRAGMODE
 70
     2
  9
$LTSCALE
 40
0.6431102362
  9
$OSMODE
 70
    23
  9
$ATTMODE
 70
     1
  9
$TEXTSIZE
 40
0.2
  9
$TRACEWID
 40
0.05
  9
$TEXTSTYLE
  7
STANDARD
  9
$CLAYER
  8
0
  9
$CELTYPE
  6
BYLAYER
  9
$CECOLOR
 62
   256
  9
$DIMSCALE
 40
1.0
  9
$DIMASZ
 40
0.1875
  9
$DIMEXO
 40
0.0625
  9
$DIMDLI
 40
0.4443307087
  9
$DIMRND
 40
0.0
  9
$DIMDLE
 40
0.0
  9
$DIMEXE
 40
0.125
  9
$DIMTP
 40
0.01
  9
$DIMTM
 40
0.01
  9
$DIMTXT
 40
2.0
  9
$DIMCEN
 40
0.1052362205
  9
$DIMTSZ
 40
0.0
  9
$DIMTOL
 70
     1
  9
$DIMLIM
 70
     0
  9
$DIMTIH
 70
     1
  9
$DIMTOH
 70
     1
  9
$DIMSE1
 70
     0
  9
$DIMSE2
 70
     0
  9
$DIMTAD
 70
     0
  9
$DIMZIN
 70
     0
  9
$DIMBLK
  1

  9
$DIMASO
 70
     1
  9
$DIMSHO
 70
     1
  9
$DIMPOST
  1
\X
  9
$DIMAPOST
  1

  9
$DIMALT
 70
     1
  9
$DIMALTD
 70
     2
  9
$DIMALTF
 40
25.3999999999999986
  9
$DIMLFAC
 40
1.0
  9
$DIMTOFL
 70
     0
  9
$DIMTVP
 40
0.0
  9
$DIMTIX
 70
     0
  9
$DIMSOXD
 70
     0
  9
$DIMSAH
 70
     0
  9
$DIMBLK1
  1

  9
$DIMBLK2
  1

  9
$DIMSTYLE
  2
STANDARD
  9
$DIMCLRD
 70
     0
  9
$DIMCLRE
 70
     0
  9
$DIMCLRT
 70
     0
  9
$DIMTFAC
 40
1.0
  9
$DIMGAP
 40
0.09
  9
$LUNITS
 70
     2
  9
$LUPREC
 70
     4
  9
$SKETCHINC
 40
0.1
  9
$FILLETRAD
 40
0.0
  9
$AUNITS
 70
     0
  9
$AUPREC
 70
     0
  9
$MENU
  1
.
  9
$ELEVATION
 40
0.0
  9
$PELEVATION
 40
0.0
  9
$THICKNESS
 40
0.0
  9
$LIMCHECK
 70
     0
  9
$BLIPMODE
 70
     0
  9
$CHAMFERA
 40
0.0
  9
$CHAMFERB
 40
0.0
  9
$SKPOLY
 70
     0
  9
$TDCREATE
 40
2458106.4931018520146608
  9
$TDUPDATE
 40
2459712.5541898151859641
  9
$TDINDWG
 40
0.2767578241
  9
$TDUSRTIMER
 40
0.2767578241
  9
$USRTIMER
 70
     1
  9
$ANGBASE
 50
0.0
  9
$ANGDIR
 70
     0
  9
$PDMODE
 70
     0
  9
$PDSIZE
 40
0.3125
  9
$PLINEWID
 40
0.0
  9
$COORDS
 70
     1
  9
$SPLFRAME
 70
     0
  9
$SPLINETYPE
 70
     6
  9
$SPLINESEGS
 70
     8
  9
$ATTDIA
 70
     1
  9
$ATTREQ
 70
     1
  9
$HANDLING
 70
     1
  9
$HANDSEED
  5
63F1
  9
$SURFTAB1
 70
     6
  9
$SURFTAB2
 70
     6
  9
$SURFTYPE
 70
     6
  9
$SURFU
 70
     6
  9
$SURFV
 70
     6
  9
$UCSNAME
  2

  9
$UCSORG
 10
0.0
 20
0.0
 30
0.0
  9
$UCSXDIR
 10
1.0
 20
0.0
 30
0.0
  9
$UCSYDIR
 10
0.0
 20
1.0
 30
0.0
  9
$PUCSNAME
  2

  9
$PUCSORG
 10
0.0
 20
0.0
 30
0.0
  9
$PUCSXDIR
 10
1.0
 20
0.0
 30
0.0
  9
$PUCSYDIR
 10
0.0
 20
1.0
 30
0.0
  9
$USERI1
 70
     0
  9
$USERI2
 70
     0
  9
$USERI3
 70
     0
  9
$USERI4
 70
     0
  9
$USERI5
 70
     0
  9
$USERR1
 40
0.0
  9
$USERR2
 40
0.0
  9
$USERR3
 40
0.0
  9
$USERR4
 40
0.0
  9
$USERR5
 40
0.0
  9
$WORLDVIEW
 70
     1
  9
$SHADEDGE
 70
     3
  9
$SHADEDIF
 70
    70
  9
$TILEMODE
 70
     1
  9
$MAXACTVP
 70
    64
  9
$PLIMCHECK
 70
     0
  9
$PEXTMIN
 10
1.0000000000000000E+20
 20
1.0000000000000000E+20
 30
1.0000000000000000E+20
  9
$PEXTMAX
 10
-1.0000000000000000E+20
 20
-1.0000000000000000E+20
 30
-1.0000000000000000E+20
  9
$PLIMMIN
 10
0.0
 20
0.0
  9
$PLIMMAX
 10
12.0
 20
9.0
  9
$UNITMODE
 70
     0
  9
$VISRETAIN
 70
     1
  9
$PLINEGEN
 70
     0
  9
$PSLTSCALE
 70
     1
  0
ENDSEC
  0
SECTION
  2
TABLES
  0
TABLE
  2
VPORT
 70
     1
  0
VPORT
  2
*ACTIVE
 70
     0
 10
0.0
 20
0.0
 11
1.0
 21
1.0
 12
718.7557435524914808
 22
86.4077143268010133
 13
0.0
 23
0.0
 14
1.0
 24
1.0
 15
0.0
 25
0.0
 16
-0.0000000000000568
 26
0.0
 36
193.9250709296327955
 17
273.5742015565131169
 27
-17.6059607340214797
 37
0.0
 40
77.2470311763874804
 41
2.005224660397074
 42
50.0
 43
0.0
 44
0.0
 50
0.0
 51
0.0
 71
     0
 72
   100
 73
     1
 74
     1
 75
     0
 76
     0
 77
     0
 78
     0
  0
ENDTAB
  0
TABLE
  2
LTYPE
 70
     2
  0
LTYPE
  2
CONTINUOUS
 70
     0
  3
Solid line
 72
    65
 73
     0
 40
0.0
  0
LTYPE
  2
PHANTOM2
 70
     0
  3
___ _ _ ___ _ _ ___ _ _ ___ _ _
 72
    65
 73
     6
 40
1.25
 49
0.625
 49
-0.125
 49
0.125
 49
-0.125
 49
0.125
 49
-0.125
  0
ENDTAB
  0
TABLE
  2
LAYER
 70
     2
  0
LAYER
  2
0
 70
     0
 62
   255
  6
CONTINUOUS
  0
LAYER
  2
DEFPOINTS
 70
     0
 62
     7
  6
CONTINUOUS
  0
ENDTAB
  0
TABLE
  2
STYLE
 70
     1
  0
STYLE
  2
STANDARD
 70
     0
 40
0.0
 41
0.8
 50
0.0
 71
     0
 42
0.2
  3
txt
  4

  0
ENDTAB
  0
TABLE
  2
VIEW
 70
     0
  0
ENDTAB
  0
TABLE
  2
UCS
 70
     0
  0
ENDTAB
  0
TABLE
  2
APPID
 70
    10
  0
APPID
  2
ACAD
 70
     0
  0
APPID
  2
ACAD_MLEADERVER
 70
     0
  0
APPID
  2
ACAD_EXEMPT_FROM_CAD_STANDARDS
 70
     0
  0
APPID
  2
ACAD_NAV_VCDISPLAY
 70
     0
  0
APPID
  2
ACAD_DSTYLE_DIMJAG
 70
     0
  0
APPID
  2
ACAD_DSTYLE_DIMTALN
 70
     0
  0
APPID
  2
ACAECLAYERSTANDARD
 70
     0
  0
APPID
  2
ACCMTRANSPARENCY
 70
     0
  0
APPID
  2
ACDBATTR
 70
     0
  0
APPID
  2
DCO15
 70
     0
  0
ENDTAB
  0
TABLE
  2
DIMSTYLE
 70
     1
  0
DIMSTYLE
  2
STANDARD
 70
     0
  3

  4

  5

  6

  7

 40
1.0
 41
0.1875
 42
0.0625
 43
0.38
 44
0.125
 45
0.0
 46
0.0
 47
0.01
 48
0.01
140
0.15625
141
0.09
142
0.0
143
25.3999999999999986
144
1.0
145
0.0
146
1.0
147
0.09
 71
     1
 72
     0
 73
     1
 74
     1
 75
     0
 76
     0
 77
     0
 78
     4
170
     0
171
     2
172
     0
173
     0
174
     0
175
     0
176
     0
177
     0
178
     0
  0
ENDTAB
  0
ENDSEC
  0
SECTION
  2
BLOCKS
  0
BLOCK
  8
0
  2
$MODEL_SPACE
 70
     0
 10
0.0
 20
0.0
 30
0.0
  3
$MODEL_SPACE
  1

  0
ENDBLK
  5
21
  8
0
  0
BLOCK
 67
     1
  8
0
  2
$PAPER_SPACE
 70
     0
 10
0.0
 20
0.0
 30
0.0
  3
$PAPER_SPACE
  1

  0
ENDBLK
  5
1D
 67
     1
  8
0
  0
ENDSEC
  0
SECTION
  2
ENTITIES
  0
ATTDEF
  5
FAA
  8
DEFPOINTS
 10
1007.9659336636909757
 20
30.4240001218003613
 30
0.0
 40
0.001
  1
72440116
  3

  2
MODELNUMBER
 70
     0
1001
ACDBATTR
1070
     0
1070
     1
  0
ATTDEF
  5
FAB
  8
DEFPOINTS
 10
1007.9659336636909757
 20
30.4223334551336997
 30
0.0
 40
0.001
  1
ENSEMBLE
  3

  2
TRADENAME
 70
     0
1001
ACDBATTR
1070
     0
1070
     1
  0
ATTDEF
  5
FAC
  8
DEFPOINTS
 10
1007.9659336636909757
 20
30.420666788467031
 30
0.0
 40
0.001
  1
SHOWER STALL
  3

  2
PRODUCT
 70
     0
1001
ACDBATTR
1070
     0
1070
     1
  0
LINE
  5
5E3E
  8
0
 10
1007.9657952695099539
 20
107.1821500462368988
 30
0.0
 11
1007.9657952695099539
 21
105.9685084945927969
 31
0.0
  0
LINE
  5
5E3F
  8
0
 10
976.7118548136104437
 20
105.5228948599988996
 30
0.0
 11
976.7118548136104437
 21
35.7721190395271265
 31
0.0
  0
LINE
  5
5E40
  8
0
 10
976.7483271476104392
 20
105.6109154041369038
 30
0.0
 11
977.9753069046091696
 21
106.8378951611357053
 31
0.0
  0
ARC
  5
5E41
  8
0
 10
976.8363402211988387
 20
105.5228795261376007
 30
0.0
 40
0.1244854085328574
 50
134.9925782205754956
 51
179.9929423549037892
  0
LINE
  5
5E42
  8
0
 10
978.3380012330295585
 20
105.4586082334737966
 30
0.0
 11
981.1248161091060638
 21
105.4586082334737966
 31
0.0
  0
ARC
  5
5E43
  8
0
 10
978.3512554623199549
 20
106.3777903282430941
 30
0.0
 40
0.9192776500810598
 50
263.2863466276775171
 51
269.1738755829892966
  0
ARC
  5
5E44
  8
0
 10
978.2440424906396856
 20
105.3246332143354067
 30
0.0
 40
0.1401833532362681
 50
90.1052008703058931
 51
179.2742199925056923
  0
LINE
  5
5E45
  8
0
 10
978.1038703841104507
 20
105.3264089045369047
 30
0.0
 11
978.1038703841104507
 21
35.4394416701369508
 31
0.0
  0
LINE
  5
5E46
  8
0
 10
978.1038703841104507
 20
35.3384653409369207
 30
0.0
 11
978.1038703841104507
 21
34.9944230109635512
 31
0.0
  0
ARC
  5
5E47
  8
0
 10
978.0635996848799323
 20
106.7495222310136995
 30
0.0
 40
0.1249215346777922
 50
90.1911986410025861
 51
134.9740060025210084
  0
LINE
  5
5E48
  8
0
 10
1007.9657952695099539
 20
107.1821500462368988
 30
0.0
 11
1001.4795145486100409
 21
106.8422184778367949
 31
0.0
  0
ARC
  5
5E49
  8
0
 10
1001.4919516703380395
 20
106.5925524604410981
 30
0.0
 40
0.2499756032878986
 50
92.8518339193820026
 51
136.503357041773512
  0
LINE
  5
5E4A
  8
0
 10
1001.3106156927100301
 20
106.7646136863370003
 30
0.0
 11
1000.2600616296100497
 21
105.656737722836894
 31
0.0
  0
LINE
  5
5E4B
  8
0
 10
978.0631828167695403
 20
106.8744430701369055
 30
0.0
 11
998.8738558575104207
 21
106.8744430701369055
 31
0.0
  0
LINE
  5
5E4C
  8
0
 10
998.9620789966287475
 20
106.8378944850368981
 30
0.0
 11
1000.1328384365290276
 21
105.6671350452370035
 31
0.0
  0
ARC
  5
5E4D
  8
0
 10
998.8737862165196475
 20
106.7495215551538053
 30
0.0
 40
0.1249215343947455
 50
45.0259939716419311
 51
89.968058869309516
  0
ARC
  5
5E4E
  8
0
 10
1000.3507486060010478
 20
105.5706944420415994
 30
0.0
 40
0.125010295003969
 50
136.5051353269026038
 51
180.0006595371779099
  0
LINE
  5
5E4F
  8
0
 10
1000.2257383110099909
 20
105.5706930030367943
 30
0.0
 11
1000.2252756124149755
 21
105.3252015884580999
 31
0.0
  0
ARC
  5
5E50
  8
0
 10
1000.099538813895947
 20
105.3254385753203053
 30
0.0
 40
0.1257370218537775
 50
315.0677095625500215
 51
359.8920098882186949
  0
LINE
  5
5E51
  8
0
 10
1000.1885533219100353
 20
105.2366342058369071
 30
0.0
 11
999.7493777106943753
 21
104.7980521510511949
 31
0.0
  0
ARC
  5
5E52
  8
0
 10
999.9257184617745224
 20
104.6214727486503051
 30
0.0
 40
0.2495522908003727
 50
134.9612555099351994
 51
180.0445499313804021
  0
LINE
  5
5E53
  8
0
 10
999.6761662464103892
 20
104.6212787110368936
 30
0.0
 11
999.6761662464103892
 21
35.4205393701369076
 31
0.0
  0
ARC
  5
5E54
  8
0
 10
981.1244431777764703
 20
105.4279328950927948
 30
0.0
 40
0.0306776052286878
 50
4.738798493889365
 51
89.3034685275951148
  0
ARC
  5
5E55
  8
0
 10
974.0990670450341895
 20
105.2092048338089967
 30
0.0
 40
7.059417224577845
 50
0.668770486979876
 51
1.7961086950027501
  0
LINE
  5
5E56
  8
0
 10
981.1580033828104206
 20
105.2916022238738947
 30
0.0
 11
981.1616635189102453
 21
104.9709033739035959
 31
0.0
  0
ARC
  5
5E57
  8
0
 10
983.7058404035171861
 20
105.002410543470603
 30
0.0
 40
2.5443719700353249
 50
180.7095165333016098
 51
185.1354085012858945
  0
LINE
  5
5E58
  8
0
 10
981.1248161091060638
 20
105.4586082334737966
 30
0.0
 11
981.1314624513103126
 21
105.4802813816738052
 31
0.0
  0
ARC
  5
5E59
  8
0
 10
981.2100090187768728
 20
105.2847231261684016
 30
0.0
 40
0.2107429584994842
 50
102.6044753017910978
 51
111.8830112890942985
  0
ARC
  5
5E5A
  8
0
 10
981.2989849203216863
 20
105.428069476563806
 30
0.0
 40
0.0303859647891173
 50
90.0709225513631679
 51
175.4740042968165881
  0
ARC
  5
5E5B
  8
0
 10
988.324642581986609
 20
105.2092048338089967
 30
0.0
 40
7.059417224577845
 50
178.2038913049971995
 51
179.3312295130201051
  0
LINE
  5
5E5C
  8
0
 10
981.2657062442103779
 20
105.2916022238738947
 30
0.0
 11
981.2620461081102121
 21
104.9709033739035959
 31
0.0
  0
ARC
  5
5E5D
  8
0
 10
978.7178692235036124
 20
105.002410543470603
 30
0.0
 40
2.5443719700353249
 50
354.8645914987141055
 51
359.2904834666983902
  0
LINE
  5
5E5E
  8
0
 10
981.2989473076107743
 20
105.4584554180737967
 30
0.0
 11
981.2922471757102585
 21
105.4802813816738052
 31
0.0
  0
ARC
  5
5E5F
  8
0
 10
981.2137006082436983
 20
105.2847231261684016
 30
0.0
 40
0.2107429584994842
 50
68.1169887109057299
 51
77.3955246982088738
  0
LINE
  5
5E60
  8
0
 10
981.2596888229104479
 20
105.4903871209738071
 30
0.0
 11
981.1640208024102776
 21
105.4903871203738959
 31
0.0
  0
LINE
  5
5E61
  8
0
 10
981.1716816978102997
 20
104.7746642456036028
 30
0.0
 11
981.2520279292102714
 21
104.7746642456036028
 31
0.0
  0
ARC
  5
5E62
  8
0
 10
959.1748468276389303
 20
-1151.7208172977570939
 30
0.0
 40
1257.373929890529098
 50
88.904613437881153
 51
88.991801109217036
  0
LINE
  5
5E63
  8
0
 10
983.2119856538104159
 20
105.4233333569737994
 30
0.0
 11
984.9565528350102568
 21
105.4232778096738059
 31
0.0
  0
ARC
  5
5E64
  8
0
 10
984.9565287647283185
 20
105.3922570437873958
 30
0.0
 40
0.0310207752250099
 50
1.706733300839167
 51
89.9555418682171535
  0
LINE
  5
5E65
  8
0
 10
984.9875357781105549
 20
105.3931809575738043
 30
0.0
 11
985.0052094368104463
 21
105.4505168892737998
 31
0.0
  0
ARC
  5
5E66
  8
0
 10
984.5713218683043806
 20
105.4983338855623032
 30
0.0
 40
0.4365144754048897
 50
353.7110421783414722
 51
358.9568701935352806
  0
ARC
  5
5E67
  8
0
 10
987.6049339064503556
 20
105.3094764171216013
 30
0.0
 40
2.6187362242751151
 50
178.1683019949661002
 51
180.726629722800709
  0
ARC
  5
5E68
  8
0
 10
3567.5593171324048853
 20
137.3733571125065964
 30
0.0
 40
2582.7723579170578887
 50
180.7120546932366949
 51
180.7452028188787949
  0
ARC
  5
5E69
  8
0
 10
988.5968017836413537
 20
103.8638927863532047
 30
0.0
 40
3.5923220995526681
 50
181.3040319331938974
 51
184.4779017041134068
  0
ARC
  5
5E6A
  8
0
 10
985.1546791041796496
 20
105.3922518543241011
 30
0.0
 40
0.031032708322962
 50
91.855274386144643
 51
178.2843375940524027
  0
LINE
  5
5E6B
  8
0
 10
985.123660307410205
 20
105.3931809575738043
 30
0.0
 11
985.1059866487103136
 21
105.4505168892737998
 31
0.0
  0
ARC
  5
5E6C
  8
0
 10
985.5398742172161519
 20
105.4983338855623032
 30
0.0
 40
0.4365144754048897
 50
181.043129806464691
 51
186.2889578216584994
  0
ARC
  5
5E6D
  8
0
 10
982.5062621790702906
 20
105.3094764171216013
 30
0.0
 40
2.6187362242751151
 50
359.2733702771992057
 51
1.831698005033858
  0
ARC
  5
5E6E
  8
0
 10
-1597.448121046948927
 20
137.3733571125270885
 30
0.0
 40
2582.7723579171238271
 50
359.2547971811179082
 51
359.2879453067633904
  0
ARC
  5
5E6F
  8
0
 10
981.5143943018794062
 20
103.8638927863532047
 30
0.0
 40
3.5923220995526681
 50
355.5220982958865079
 51
358.6959680668060173
  0
LINE
  5
5E70
  8
0
 10
985.0154451743103436
 20
103.5834237083121963
 30
0.0
 11
985.0957509112104162
 21
103.5834237083121963
 31
0.0
  0
LINE
  5
5E71
  8
0
 10
985.0077640021105481
 20
105.4903871203738959
 30
0.0
 11
985.1034320834102118
 21
105.4903871203738959
 31
0.0
  0
LINE
  5
5E72
  8
0
 10
985.1536744206104004
 20
105.4232682950738962
 30
0.0
 11
988.9044070823490529
 21
105.4230403695737976
 31
0.0
  0
ARC
  5
5E73
  8
0
 10
988.9043830120671146
 20
105.3920196036874017
 30
0.0
 40
0.0310207752250099
 50
1.706733300839167
 51
89.9555418682171535
  0
LINE
  5
5E74
  8
0
 10
988.9353900254491236
 20
105.3929435174737961
 30
0.0
 11
988.9530636841492424
 21
105.4502794491738058
 31
0.0
  0
ARC
  5
5E75
  8
0
 10
988.5191761156431767
 20
105.4980964454622949
 30
0.0
 40
0.4365144754048897
 50
353.7110421783414722
 51
358.9568701935352806
  0
ARC
  5
5E76
  8
0
 10
991.5527881537893791
 20
105.3092389770215931
 30
0.0
 40
2.6187362242751151
 50
178.1683019949661002
 51
180.726629722800709
  0
ARC
  5
5E77
  8
0
 10
3647.7887515600800725
 20
137.8436589456620993
 30
0.0
 40
2659.0539378552798553
 50
180.7017662871874961
 51
180.7344354847813008
  0
ARC
  5
5E78
  8
0
 10
992.5446560309799224
 20
103.8417480445558994
 30
0.0
 40
3.5923220995526681
 50
181.3040319331938974
 51
184.4779017041134068
  0
ARC
  5
5E79
  8
0
 10
989.1025777361816154
 20
105.3919952781086948
 30
0.0
 40
0.0310776511114371
 50
93.4442910398760205
 51
178.2515233548691072
  0
LINE
  5
5E7A
  8
0
 10
989.0715145547492284
 20
105.3929435174737961
 30
0.0
 11
989.0538408960493371
 21
105.4502794491738058
 31
0.0
  0
ARC
  5
5E7B
  8
0
 10
989.487728464554948
 20
105.4980964454622949
 30
0.0
 40
0.4365144754048897
 50
181.043129806464691
 51
186.2889578216584994
  0
ARC
  5
5E7C
  8
0
 10
986.4541164264090867
 20
105.3092389770215931
 30
0.0
 40
2.6187362242751151
 50
359.2733702771992057
 51
1.831698005033858
  0
ARC
  5
5E7D
  8
0
 10
-1669.7818469800060939
 20
137.8436589456831882
 30
0.0
 40
2659.0539378554049108
 50
359.2655645152187276
 51
359.2982337128124186
  0
ARC
  5
5E7E
  8
0
 10
985.4622485492184296
 20
103.8417480445558994
 30
0.0
 40
3.5923220995526681
 50
355.5220982958865079
 51
358.6959680668060173
  0
LINE
  5
5E7F
  8
0
 10
988.9632994216492534
 20
103.5612789665148057
 30
0.0
 11
989.0436051585489849
 21
103.5612789665148057
 31
0.0
  0
LINE
  5
5E80
  8
0
 10
988.9556182494491168
 20
105.4901496802739018
 30
0.0
 11
989.0512863307492353
 21
105.4901496802739018
 31
0.0
  0
ARC
  5
5E81
  8
0
 10
992.852653634983767
 20
105.3913984537874029
 30
0.0
 40
0.0310207752250099
 50
1.706733300839167
 51
89.9555418682171535
  0
LINE
  5
5E82
  8
0
 10
992.8836606483657761
 20
105.3923223675737972
 30
0.0
 11
992.9013343070658948
 21
105.449658299273807
 31
0.0
  0
ARC
  5
5E83
  8
0
 10
992.4674467385599428
 20
105.4974752955622961
 30
0.0
 40
0.4365144754048897
 50
353.7110421783414722
 51
358.9568701935352806
  0
ARC
  5
5E84
  8
0
 10
995.5010587767061452
 20
105.3086178271215942
 30
0.0
 40
2.6187362242751151
 50
178.1683019949661002
 51
180.726629722800709
  0
ARC
  5
5E85
  8
0
 10
3872.8591694441029176
 20
139.8188539060132882
 30
0.0
 40
2880.1837919344529837
 50
180.6871926491618865
 51
180.7185826942863116
  0
ARC
  5
5E86
  8
0
 10
996.4932820390965844
 20
103.7793429308676991
 30
0.0
 40
3.5923220995526681
 50
181.3040319331938974
 51
184.4779017041134068
  0
ARC
  5
5E87
  8
0
 10
993.0507009473205926
 20
105.3914376836934963
 30
0.0
 40
0.0309284250959244
 50
90.6431674932258744
 51
178.3608745935100046
  0
LINE
  5
5E88
  8
0
 10
993.0197851776658808
 20
105.3923223675737972
 30
0.0
 11
993.0021115189657621
 21
105.449658299273807
 31
0.0
  0
ARC
  5
5E89
  8
0
 10
993.4359990874717141
 20
105.4974752955622961
 30
0.0
 40
0.4365144754048897
 50
181.043129806464691
 51
186.2889578216584994
  0
ARC
  5
5E8A
  8
0
 10
990.4023870493258528
 20
105.3086178271215942
 30
0.0
 40
2.6187362242751151
 50
359.2733702771992057
 51
1.831698005033858
  0
ARC
  5
5E8B
  8
0
 10
-1886.939746353827104
 20
138.5213107499492935
 30
0.0
 40
2880.1525459036929533
 50
359.3072239014297224
 51
359.3386141168253971
  0
ARC
  5
5E8C
  8
0
 10
989.4108745573350916
 20
103.7793429308676991
 30
0.0
 40
3.5923220995526681
 50
355.5220982958865079
 51
358.6959680668060173
  0
LINE
  5
5E8D
  8
0
 10
992.9119254297658017
 20
103.4988738528266055
 30
0.0
 11
992.9922311666657606
 21
103.4988738528266055
 31
0.0
  0
LINE
  5
5E8E
  8
0
 10
992.9038888723657692
 20
105.489528530373903
 30
0.0
 11
992.9995569536658877
 21
105.489528530373903
 31
0.0
  0
ARC
  5
5E8F
  8
0
 10
996.6958987303568165
 20
105.3903408288874033
 30
0.0
 40
0.0310207752250099
 50
1.706733300839167
 51
89.9555418682171535
  0
LINE
  5
5E90
  8
0
 10
996.7269057437389392
 20
105.3912647426737976
 30
0.0
 11
996.7445794024389443
 21
105.4486006743737931
 31
0.0
  0
ARC
  5
5E91
  8
0
 10
996.310691833933106
 20
105.4964176706622965
 30
0.0
 40
0.4365144754048897
 50
353.7110421783414722
 51
358.9568701935352806
  0
ARC
  5
5E92
  8
0
 10
999.344303872079081
 20
105.3075602022215946
 30
0.0
 40
2.6187362242751151
 50
178.1683019949661002
 51
180.726629722800709
  0
ARC
  5
5E93
  8
0
 10
4482.0126108964223022
 20
142.0806010191128053
 30
0.0
 40
3485.4811728103218229
 50
180.6050476045745938
 51
180.6335821310698861
  0
ARC
  5
5E94
  8
0
 10
1000.3359324836700353
 20
103.6203600819203956
 30
0.0
 40
3.5923220995526681
 50
181.3040319331938974
 51
184.4779017041134068
  0
ARC
  5
5E95
  8
0
 10
996.8938620802524611
 20
105.3904162585716051
 30
0.0
 40
0.0308434800456836
 50
91.1233685231645154
 51
178.4236314550749967
  0
LINE
  5
5E96
  8
0
 10
996.8630302730389303
 20
105.3912647426737976
 30
0.0
 11
996.845356614339039
 21
105.4486006743737931
 31
0.0
  0
ARC
  5
5E97
  8
0
 10
997.2792441828448773
 20
105.4964176706622965
 30
0.0
 40
0.4365144754048897
 50
181.043129806464691
 51
186.2889578216584994
  0
ARC
  5
5E98
  8
0
 10
994.2456321446987886
 20
105.3075602022215946
 30
0.0
 40
2.6187362242751151
 50
359.2733702771992057
 51
1.831698005033858
  0
ARC
  5
5E99
  8
0
 10
-2488.4334317969660333
 20
143.0415822500885099
 30
0.0
 40
3485.5022094001251389
 50
359.3506237917312092
 51
359.3791582321179021
  0
ARC
  5
5E9A
  8
0
 10
993.2535250019082014
 20
103.6203600819203956
 30
0.0
 40
3.5923220995526681
 50
355.5220982958865079
 51
358.6959680668060173
  0
LINE
  5
5E9B
  8
0
 10
996.7545758743389115
 20
103.3398910038792025
 30
0.0
 11
996.8348816112387567
 21
103.3398910038792025
 31
0.0
  0
LINE
  5
5E9C
  8
0
 10
996.7471339677389324
 20
105.4884709054739034
 30
0.0
 11
996.8428020490389372
 21
105.4884709054739034
 31
0.0
  0
LINE
  5
5E9D
  8
0
 10
989.1007106524491519
 20
105.4230167931738009
 30
0.0
 11
992.8526777052660464
 21
105.4224192196737988
 31
0.0
  0
LINE
  5
5E9E
  8
0
 10
993.0503537709658985
 20
105.4223641601737995
 30
0.0
 11
996.6959228006388685
 21
105.4213615947737992
 31
0.0
  0
LINE
  5
5E9F
  8
0
 10
996.8932573869388989
 20
105.4212538104738002
 30
0.0
 11
999.868498520834919
 21
105.4101406647693011
 31
0.0
  0
LINE
  5
5EA0
  8
0
 10
1000.3379648935100477
 20
105.4896257596962954
 30
0.0
 11
1000.3379648935100477
 21
41.8145019032243113
 31
0.0
  0
LINE
  5
5EA1
  8
0
 10
1000.3379648935100477
 20
40.2745695382034725
 30
0.0
 11
1000.3379648935100477
 21
35.4205393701369076
 31
0.0
  0
ARC
  5
5EA2
  8
0
 10
1000.7645049888260473
 20
98.0716303652515649
 30
0.0
 40
7.4302484564728219
 50
89.8593173405930798
 51
93.290924950733455
  0
ARC
  5
5EA3
  8
0
 10
1000.7847411947659566
 20
105.4718394171710969
 30
0.0
 40
0.030083042370172
 50
93.7970469290944067
 51
179.8112038939314061
  0
LINE
  5
5EA4
  8
0
 10
1000.7546583157129589
 20
105.4719385440357939
 30
0.0
 11
1000.760428557092041
 21
35.4205393701369076
 31
0.0
  0
LINE
  5
5EA5
  8
0
 10
1000.7827490213099964
 20
105.5018564237368963
 30
0.0
 11
1001.6138442367099515
 21
105.5446705206369984
 31
0.0
  0
ARC
  5
5EA6
  8
0
 10
1002.24039166454304
 20
93.3823079532399873
 30
0.0
 40
12.1784902553699794
 50
92.0639349736551225
 51
92.9490008571245454
  0
LINE
  5
5EA7
  8
0
 10
1001.801787347410027
 20
105.552897550836903
 30
0.0
 11
1001.7977720161100024
 21
105.5476646480368998
 31
0.0
  0
ARC
  5
5EA8
  8
0
 10
1001.8237580462309779
 20
105.0474743434154021
 30
0.0
 40
0.5008648666045661
 50
92.9739730640690141
 51
141.8605903360372906
  0
LINE
  5
5EA9
  8
0
 10
1001.4298226091100332
 20
105.3567969678368996
 30
0.0
 11
1000.8594381326099665
 21
104.6134563969368969
 31
0.0
  0
ARC
  5
5EAA
  8
0
 10
1001.308062928034019
 20
104.2799951768307949
 30
0.0
 40
0.5589817460203655
 50
143.376708633399403
 51
171.8332146855204883
  0
LINE
  5
5EAB
  8
0
 10
1000.3562372070190349
 20
105.508880749820193
 30
0.0
 11
1007.8113681070100256
 21
105.8927612538368948
 31
0.0
  0
ARC
  5
5EAC
  8
0
 10
1007.8026781289810287
 20
106.0558896236973965
 30
0.0
 40
0.1633596669055417
 50
273.0493095115689925
 51
356.8775287801859122
  0
LINE
  5
5EAD
  8
0
 10
1001.6108024934269451
 20
105.5008125693888985
 30
0.0
 11
1007.8113260304099867
 21
105.8138841413368993
 31
0.0
  0
ARC
  5
5EAE
  8
0
 10
1007.8026116057229729
 20
105.9770591408971967
 30
0.0
 40
0.1634075325042381
 50
273.056999400797622
 51
357.0005067135491004
  0
ARC
  5
5EAF
  8
0
 10
1007.2262529922910517
 20
105.0306824513310033
 30
0.0
 40
0.7534588945878899
 50
95.4591476824239038
 51
179.8989500615612087
  0
LINE
  5
5EB0
  8
0
 10
1006.4727952695100157
 20
105.0320112915369037
 30
0.0
 11
1006.4727952695100157
 21
101.6215679462369934
 31
0.0
  0
ARC
  5
5EB1
  8
0
 10
1005.0877960571559697
 20
101.6215679462369934
 30
0.0
 40
1.384999212354511
 50
326.834102914029188
 51
0.0
  0
ARC
  5
5EB2
  8
0
 10
1006.6656958129050281
 20
100.5903601065178066
 30
0.0
 40
0.4999828161783243
 50
146.8341029140291027
 51
203.4687043052553008
  0
ARC
  5
5EB3
  8
0
 10
998.2686279114226409
 20
96.9451281440108801
 30
0.0
 40
8.654167358091712
 50
0.0000539640220334
 51
23.4658826188364706
  0
LINE
  5
5EB4
  8
0
 10
1006.9227952695099475
 20
96.9451362949369155
 30
0.0
 11
1006.9227952695099475
 21
67.9905393701369007
 31
0.0
  0
LINE
  5
5EB5
  8
0
 10
1006.9227952695099475
 20
58.9905393701369007
 30
0.0
 11
1006.9227952695099475
 21
35.4205393701369076
 31
0.0
  0
LINE
  5
5EB6
  8
0
 10
1005.8769015323099438
 20
103.2632392055005965
 30
0.0
 11
1005.8769015323099438
 21
101.6427694203369043
 31
0.0
  0
ARC
  5
5EB7
  8
0
 10
1005.0871874338920406
 20
101.6427694203369043
 30
0.0
 40
0.7897140984186706
 50
302.3087083789806115
 51
0.0
  0
ARC
  5
5EB8
  8
0
 10
1005.6348857245269528
 20
100.7766878672291
 30
0.0
 40
0.2350154630746979
 50
122.3087083789805973
 51
207.3658478067760029
  0
ARC
  5
5EB9
  8
0
 10
997.8583009272216486
 20
96.933324916347317
 30
0.0
 40
8.439512507281826
 50
0.0744693991627496
 51
26.2699275508644305
  0
LINE
  5
5EBA
  8
0
 10
1006.2978063060099885
 20
96.9442940532369448
 30
0.0
 11
1006.2978063060099885
 21
96.7436765766889835
 31
0.0
  0
LINE
  5
5EBB
  8
0
 10
1006.2978063060099885
 20
95.3043212153356336
 30
0.0
 11
1006.2978063060099885
 21
68.1509489772763004
 31
0.0
  0
LINE
  5
5EBC
  8
0
 10
1006.2978063060099885
 20
68.0887177661123246
 30
0.0
 11
1006.2978063060099885
 21
59.2443207408138619
 31
0.0
  0
LINE
  5
5EBD
  8
0
 10
1006.2978063060099885
 20
57.9165767833254108
 30
0.0
 11
1006.2978063060099885
 21
52.9703818391996606
 31
0.0
  0
LINE
  5
5EBE
  8
0
 10
1006.2978063060099885
 20
51.6426378817112592
 30
0.0
 11
1006.2978063060099885
 21
35.9850251722064698
 31
0.0
  0
LINE
  5
5EBF
  8
0
 10
1006.2978063060099885
 20
35.8058411463935613
 30
0.0
 11
1006.2978063060099885
 21
35.4205393701369076
 31
0.0
  0
LINE
  5
5EC0
  8
0
 10
988.5858666067106242
 20
42.9940617558369169
 30
0.0
 11
987.634188381010631
 21
43.9419159874369072
 31
0.0
  0
LINE
  5
5EC1
  8
0
 10
987.634188381010631
 20
43.9419159874369072
 30
0.0
 11
987.3324715660570519
 21
44.2245526817164816
 31
0.0
  0
LINE
  5
5EC2
  8
0
 10
988.5066198386105043
 20
42.9147948846369331
 30
0.0
 11
987.5625441508125277
 21
43.8693815950109069
 31
0.0
  0
LINE
  5
5EC3
  8
0
 10
987.5625441508125277
 20
43.8693815950109069
 30
0.0
 11
987.2762035316221727
 21
44.1675855305660434
 31
0.0
  0
LINE
  5
5EC4
  8
0
 10
987.3324715660570519
 20
44.2245526817164816
 30
0.0
 11
987.2762035316221727
 21
44.1675855305660434
 31
0.0
  0
LINE
  5
5EC5
  8
0
 10
988.6283037388104731
 20
42.9940617558369169
 30
0.0
 11
989.5799819645103526
 21
43.9419159874369072
 31
0.0
  0
LINE
  5
5EC6
  8
0
 10
989.5799819645103526
 20
43.9419159874369072
 30
0.0
 11
989.8816987794639317
 21
44.2245526817164816
 31
0.0
  0
LINE
  5
5EC7
  8
0
 10
988.7075505069103656
 20
42.9147948846369331
 30
0.0
 11
989.6516261947082285
 21
43.8693815950109069
 31
0.0
  0
LINE
  5
5EC8
  8
0
 10
989.6516261947082285
 20
43.8693815950109069
 30
0.0
 11
989.9379668138986972
 21
44.1675855305660434
 31
0.0
  0
LINE
  5
5EC9
  8
0
 10
989.8816987794639317
 20
44.2245526817164816
 30
0.0
 11
989.9379668138986972
 21
44.1675855305660434
 31
0.0
  0
ARC
  5
5ECA
  8
0
 10
988.6070851727604349
 20
43.0153000443343103
 30
0.0
 40
0.0300215329974018
 50
225.026615559009997
 51
314.9733844409876724
  0
LINE
  5
5ECB
  8
0
 10
988.5858666067106242
 20
42.8048423521178734
 30
0.0
 11
987.634188381010631
 21
41.8569881205178831
 31
0.0
  0
LINE
  5
5ECC
  8
0
 10
987.634188381010631
 20
41.8569881205178831
 30
0.0
 11
987.3324715660570519
 21
41.5743514262383584
 31
0.0
  0
LINE
  5
5ECD
  8
0
 10
988.5066317284104116
 20
42.8723821786368831
 30
0.0
 11
987.5625441508125277
 21
41.9295225129438265
 31
0.0
  0
LINE
  5
5ECE
  8
0
 10
987.5625441508125277
 20
41.9295225129438265
 30
0.0
 11
987.2762035316221727
 21
41.6313185773887469
 31
0.0
  0
LINE
  5
5ECF
  8
0
 10
987.3324715660570519
 20
41.5743514262383584
 30
0.0
 11
987.2762035316221727
 21
41.6313185773887469
 31
0.0
  0
LINE
  5
5ED0
  8
0
 10
988.6283037388104731
 20
42.8048423521178734
 30
0.0
 11
989.5799819645103526
 21
41.8569881205178831
 31
0.0
  0
LINE
  5
5ED1
  8
0
 10
989.5799819645103526
 20
41.8569881205178831
 30
0.0
 11
989.8816987794639317
 21
41.5743514262383584
 31
0.0
  0
LINE
  5
5ED2
  8
0
 10
988.7075280298105326
 20
42.8723822514369317
 30
0.0
 11
989.6516261947082285
 21
41.9295225129438265
 31
0.0
  0
LINE
  5
5ED3
  8
0
 10
989.6516261947082285
 20
41.9295225129438265
 30
0.0
 11
989.9379668138986972
 21
41.6313185773887469
 31
0.0
  0
LINE
  5
5ED4
  8
0
 10
989.8816987794639317
 20
41.5743514262383584
 30
0.0
 11
989.9379668138986972
 21
41.6313185773887469
 31
0.0
  0
ARC
  5
5ED5
  8
0
 10
988.6070851727604349
 20
42.7836040636205368
 30
0.0
 40
0.0300215329974018
 50
45.0266155590122708
 51
134.973384440990003
  0
ARC
  5
5ED6
  8
0
 10
988.4854152038647044
 20
42.8935825855519894
 30
0.0
 40
0.0299933020384013
 50
315.0217713100435049
 51
45.010352805846388
  0
ARC
  5
5ED7
  8
0
 10
988.7287239924847881
 20
42.8935773409301575
 30
0.0
 40
0.0299750004556466
 50
134.940450982845789
 51
224.998819807832092
  0
LINE
  5
5ED8
  8
0
 10
988.5510593179543548
 20
96.9807985438332594
 30
0.0
 11
988.551062147854509
 21
94.7169623437333144
 31
0.0
  0
ARC
  5
5ED9
  8
0
 10
1004.642670139363986
 20
94.7169824589878289
 30
0.0
 40
16.0916079915216486
 50
180.0000716223769075
 51
182.5438129522042061
  0
ARC
  5
5EDA
  8
0
 10
1003.2041736103169569
 20
96.99655095858094
 30
0.0
 40
14.6531227594531597
 50
177.3345970896905897
 51
180.061594178310088
  0
LINE
  5
5EDB
  8
0
 10
988.6631231016335732
 20
96.9807985438332594
 30
0.0
 11
988.6631202717336464
 21
94.7169623437333144
 31
0.0
  0
ARC
  5
5EDC
  8
0
 10
972.5715122802245105
 20
94.7169824589878289
 30
0.0
 40
16.0916079915216486
 50
357.4561870477957086
 51
359.9999283776231209
  0
ARC
  5
5EDD
  8
0
 10
974.0100088092713122
 20
96.99655095858094
 30
0.0
 40
14.6531227594531597
 50
359.9384058216897984
 51
2.6654029103093348
  0
LINE
  5
5EDE
  8
0
 10
988.5669192269149335
 20
94.002783359499233
 30
0.0
 11
988.6472631926729946
 21
94.002783359499233
 31
0.0
  0
LINE
  5
5EDF
  8
0
 10
988.5669035179502089
 20
97.6779692197897731
 30
0.0
 11
988.6472789016379465
 21
97.6779692197897731
 31
0.0
  0
ARC
  5
5EE0
  8
0
 10
978.1339060953705484
 20
62.2500316694182629
 30
0.0
 40
0.0300363936453368
 50
91.1928970280594768
 51
179.6137848173956115
  0
ARC
  5
5EE1
  8
0
 10
978.3735494223318483
 20
242.3386667003260868
 30
0.0
 40
180.0587654531103112
 50
269.9235450548031849
 51
270.1599038673983841
  0
LINE
  5
5EE2
  8
0
 10
978.8760655906102102
 20
62.2806024710369002
 30
0.0
 11
981.4017679425104461
 21
62.2806025242369401
 31
0.0
  0
LINE
  5
5EE3
  8
0
 10
981.4017679425104461
 20
62.2806025242369401
 30
0.0
 11
983.2120343174098025
 21
62.2694275767182077
 31
0.0
  0
LINE
  5
5EE4
  8
0
 10
983.2120343174098025
 20
62.2694275767182077
 30
0.0
 11
988.9614739397098901
 21
62.2694041477182623
 31
0.0
  0
ARC
  5
5EE5
  8
0
 10
988.9614738174768718
 20
62.2394083669157112
 30
0.0
 40
0.0299957808027291
 50
0.0352281148453742
 51
89.9997665193601932
  0
LINE
  5
5EE6
  8
0
 10
988.9914695926098602
 20
62.2394268097182817
 30
0.0
 11
989.0015932711098685
 21
61.0327380007182114
 31
0.0
  0
ARC
  5
5EE7
  8
0
 10
994.0210817269822883
 20
61.0748496760588111
 30
0.0
 40
5.0196651035537361
 50
180.4806793917861967
 51
183.6675951047342892
  0
ARC
  5
5EE8
  8
0
 10
978.133874251189809
 20
62.4356743478525118
 30
0.0
 40
0.0300038671593786
 50
180.0041798122186094
 51
268.8665828220911749
  0
ARC
  5
5EE9
  8
0
 10
978.8306854089797753
 20
119.4589632581013063
 30
0.0
 40
57.0575491950161435
 50
269.2996660614275015
 51
270.0455696606625793
  0
LINE
  5
5EEA
  8
0
 10
978.8760655906102102
 20
62.4014321094369393
 30
0.0
 11
981.4017679426103768
 21
62.4014321094369393
 31
0.0
  0
LINE
  5
5EEB
  8
0
 10
981.4017679426103768
 20
62.4014321094369393
 30
0.0
 11
988.9624411547871432
 21
62.3902561863187017
 31
0.0
  0
ARC
  5
5EEC
  8
0
 10
988.9614764890098968
 20
62.4202346375182628
 30
0.0
 40
0.0299939679999937
 50
271.8430642684884901
 51
0.0023560787072838
  0
LINE
  5
5EED
  8
0
 10
988.9914727885100092
 20
62.4202411143182303
 30
0.0
 11
988.9914689838097956
 21
74.3414168064182945
 31
0.0
  0
ARC
  5
5EEE
  8
0
 10
988.9614869153590462
 20
74.3414167968492734
 30
0.0
 40
0.0299820684508161
 50
0.0000182862210367
 51
90.0246818264726869
  0
LINE
  5
5EEF
  8
0
 10
988.9614739997099377
 20
74.3713988625182196
 30
0.0
 11
978.8760655906102102
 21
74.3824456403369254
 31
0.0
  0
ARC
  5
5EF0
  8
0
 10
978.6815157237458607
 20
-168.7420677304376113
 30
0.0
 40
243.1245912108165044
 50
89.9541515425885194
 51
90.1291995000850932
  0
ARC
  5
5EF1
  8
0
 10
978.1356554603901259
 20
74.3478286933167283
 30
0.0
 40
0.034159305720309
 50
93.9863093055692786
 51
158.5121683323042134
  0
ARC
  5
5EF2
  8
0
 10
978.1349034885251967
 20
74.5390819066125232
 30
0.0
 40
0.0316040737866854
 50
190.9075828730136095
 51
267.0568181233809923
  0
LINE
  5
5EF3
  8
0
 10
978.1332807575603283
 20
74.5075195203888825
 30
0.0
 11
978.8760655906102102
 21
74.5032752788369521
 31
0.0
  0
LINE
  5
5EF4
  8
0
 10
978.8760655906102102
 20
74.5032752788369521
 30
0.0
 11
988.9622491036471956
 21
74.4922394609226899
 31
0.0
  0
ARC
  5
5EF5
  8
0
 10
988.9614745160099574
 20
74.5222187533182137
 30
0.0
 40
0.0299892974000001
 50
271.48004596297028
 51
0.0016072025996796
  0
LINE
  5
5EF6
  8
0
 10
988.99146874560995
 20
74.522229302418225
 30
0.0
 11
988.9914689419098295
 21
86.5461523027181983
 31
0.0
  0
LINE
  5
5EF7
  8
0
 10
988.9914689419098295
 20
86.5461523027181983
 30
0.0
 11
989.0016887204099021
 21
87.7297462557182257
 31
0.0
  0
ARC
  5
5EF8
  8
0
 10
994.1307062682411697
 20
87.6854595954758338
 30
0.0
 40
5.1292087415348124
 50
176.3883044275472116
 51
179.505290118410187
  0
ARC
  5
5EF9
  8
0
 10
989.1422656537923785
 20
62.2394085548610931
 30
0.0
 40
0.0299953275374379
 50
90.0237655655247835
 51
179.9651303580054957
  0
LINE
  5
5EFA
  8
0
 10
989.1122703318098957
 20
62.2394268097182817
 30
0.0
 11
989.1021466533100011
 21
61.0327380007182114
 31
0.0
  0
ARC
  5
5EFB
  8
0
 10
984.082658197437695
 20
61.0748496760588111
 30
0.0
 40
5.0196651035537361
 50
356.3324048952657108
 51
359.5193206082137181
  0
ARC
  5
5EFC
  8
0
 10
989.1422918274947733
 20
62.4202461302676781
 30
0.0
 40
0.0300223618123969
 50
180.0195793356764113
 51
268.1033214487882219
  0
LINE
  5
5EFD
  8
0
 10
989.1122671359098604
 20
62.4202411143182303
 30
0.0
 11
989.1122709406098465
 21
74.3414168064182945
 31
0.0
  0
ARC
  5
5EFE
  8
0
 10
989.1422579866588194
 20
74.3414147344312255
 30
0.0
 40
0.0299870461204316
 50
90.0027058134334936
 51
179.9960410868908127
  0
ARC
  5
5EFF
  8
0
 10
989.1422654084099122
 20
74.5222187533182137
 30
0.0
 40
0.0299892974000001
 50
179.9983927974002995
 51
269.1819812308445989
  0
LINE
  5
5F00
  8
0
 10
989.1122711788099195
 20
74.522229302418225
 30
0.0
 11
989.1122709825099264
 21
86.5461523027181983
 31
0.0
  0
LINE
  5
5F01
  8
0
 10
989.1122709825099264
 20
86.5461523027181983
 30
0.0
 11
989.1020512040099675
 21
87.7297462557182257
 31
0.0
  0
ARC
  5
5F02
  8
0
 10
983.9730336561784725
 20
87.6854595954758338
 30
0.0
 40
5.1292087415348124
 50
0.4947098815898042
 51
3.611695572452815
  0
LINE
  5
5F03
  8
0
 10
989.0116971167099109
 20
60.7537522170181816
 30
0.0
 11
989.0920428077099587
 21
60.7537522170181816
 31
0.0
  0
LINE
  5
5F04
  8
0
 10
989.0116846972099438
 20
88.0085702105182435
 30
0.0
 11
989.0920552272101531
 21
88.0085702105182435
 31
0.0
  0
LINE
  5
5F05
  8
0
 10
988.99152163570227
 20
86.5522549843071261
 30
0.0
 11
983.3018659595098825
 21
86.5522517643182141
 31
0.0
  0
ARC
  5
5F06
  8
0
 10
983.3018660274185549
 20
86.432258623082646
 30
0.0
 40
0.119993141235598
 50
90.0000324258243865
 51
180.0136935499365052
  0
LINE
  5
5F07
  8
0
 10
983.1818728896098492
 20
86.4322299450182641
 30
0.0
 11
983.1818706682482798
 21
74.4984471949241538
 31
0.0
  0
LINE
  5
5F08
  8
0
 10
983.1818706457561348
 20
74.3776123970143885
 30
0.0
 11
983.1818684159736677
 21
62.3985914693994914
 31
0.0
  0
LINE
  5
5F09
  8
0
 10
988.9914689410293249
 20
86.4922086628061351
 30
0.0
 11
983.3018660622100242
 21
86.4922050951181944
 31
0.0
  0
ARC
  5
5F0A
  8
0
 10
983.3018660998379801
 20
86.4321975189271257
 30
0.0
 40
0.0600075761911392
 50
90.000035927539173
 51
179.9690354525359055
  0
LINE
  5
5F0B
  8
0
 10
983.2418585324099922
 20
86.4322299490182218
 30
0.0
 11
983.2418585324099922
 21
74.4983827720307659
 31
0.0
  0
LINE
  5
5F0C
  8
0
 10
983.2418585324099922
 20
74.3775479052525839
 30
0.0
 11
983.2418585324099922
 21
62.398504966794178
 31
0.0
  0
LINE
  5
5F0D
  8
0
 10
989.1418372621316166
 20
74.4922325123182532
 30
0.0
 11
999.6761662464103892
 21
74.4922325122593634
 31
0.0
  0
LINE
  5
5F0E
  8
0
 10
989.1422565705098577
 20
74.3714017805182834
 30
0.0
 11
999.6761662464103892
 21
74.3714017804593936
 31
0.0
  0
LINE
  5
5F0F
  8
0
 10
992.7543616594681453
 20
86.4552918614139685
 30
0.0
 11
992.7543616594681453
 21
74.4922301803873097
 31
0.0
  0
LINE
  5
5F10
  8
0
 10
992.7543616594681453
 20
74.37139944858734
 30
0.0
 11
992.7543616594681453
 21
68.1985328128436095
 31
0.0
  0
LINE
  5
5F11
  8
0
 10
992.7543616594681453
 20
68.1385344579281309
 30
0.0
 11
992.7543616594681453
 21
67.9478893701369202
 31
0.0
  0
LINE
  5
5F12
  8
0
 10
992.7543616594681453
 20
62.4478893701369202
 30
0.0
 11
992.7543616594681453
 21
62.3902378846873376
 31
0.0
  0
LINE
  5
5F13
  8
0
 10
992.7543616594681453
 20
62.2694015478872984
 30
0.0
 11
992.7543616594681453
 21
35.4205393701369076
 31
0.0
  0
LINE
  5
5F14
  8
0
 10
992.814361341368226
 20
86.4552917827139709
 30
0.0
 11
992.814361341368226
 21
74.4922301803873097
 31
0.0
  0
LINE
  5
5F15
  8
0
 10
992.814361341368226
 20
74.37139944858734
 30
0.0
 11
992.814361341368226
 21
68.1985327137929858
 31
0.0
  0
LINE
  5
5F16
  8
0
 10
992.814361341368226
 20
68.1385343573822411
 30
0.0
 11
992.814361341368226
 21
67.9478893701369202
 31
0.0
  0
LINE
  5
5F17
  8
0
 10
992.814361341368226
 20
62.4478893701369202
 30
0.0
 11
992.814361341368226
 21
62.3902378846873376
 31
0.0
  0
LINE
  5
5F18
  8
0
 10
992.814361341368226
 20
62.2694015478872984
 30
0.0
 11
992.814361341368226
 21
35.4205393701369076
 31
0.0
  0
LINE
  5
5F19
  8
0
 10
992.8893619445683498
 20
86.4552917772139864
 30
0.0
 11
992.8893619445683498
 21
74.4922301803873097
 31
0.0
  0
LINE
  5
5F1A
  8
0
 10
992.8893619445683498
 20
74.37139944858734
 30
0.0
 11
992.8893619445683498
 21
68.198532589977944
 31
0.0
  0
LINE
  5
5F1B
  8
0
 10
992.8893619445683498
 20
68.1385342316982019
 30
0.0
 11
992.8893619445683498
 21
67.9478893701369202
 31
0.0
  0
LINE
  5
5F1C
  8
0
 10
992.8893619445683498
 20
62.4478893701369202
 30
0.0
 11
992.8893619445683498
 21
62.3902378846873376
 31
0.0
  0
LINE
  5
5F1D
  8
0
 10
992.8893619445683498
 20
62.2694015478872984
 30
0.0
 11
992.8893619445683498
 21
35.4205393701369076
 31
0.0
  0
LINE
  5
5F1E
  8
0
 10
992.9493615482683708
 20
86.4552918483139337
 30
0.0
 11
992.9493615482683708
 21
74.4922301803873097
 31
0.0
  0
LINE
  5
5F1F
  8
0
 10
992.9493615482683708
 20
74.37139944858734
 30
0.0
 11
992.9493615482683708
 21
68.198532490927434
 31
0.0
  0
LINE
  5
5F20
  8
0
 10
992.9493615482683708
 20
68.1385341311524257
 30
0.0
 11
992.9493615482683708
 21
67.9478893701369202
 31
0.0
  0
LINE
  5
5F21
  8
0
 10
992.9493615482683708
 20
62.4478893701369202
 30
0.0
 11
992.9493615482683708
 21
62.3902378846873376
 31
0.0
  0
LINE
  5
5F22
  8
0
 10
992.9493615482683708
 20
62.2694015478872984
 30
0.0
 11
992.9493615482683708
 21
35.4205393701369076
 31
0.0
  0
ARC
  5
5F23
  8
0
 10
992.8518616037003994
 20
86.4527918994844384
 30
0.0
 40
0.0975319892901957
 50
1.4687714985333951
 51
178.5312208032626984
  0
ARC
  5
5F24
  8
0
 10
992.8518616428923451
 20
86.4542547696813699
 30
0.0
 40
0.0375146372822293
 50
1.584014366323778
 51
178.41597723036449
  0
LINE
  5
5F25
  8
0
 10
989.112268980083627
 20
68.1985464703522553
 30
0.0
 11
992.7543616594681453
 21
68.1985328128436095
 31
0.0
  0
LINE
  5
5F26
  8
0
 10
992.814361341368226
 20
68.1985327137929858
 30
0.0
 11
992.8893619445683498
 21
68.198532589977944
 31
0.0
  0
LINE
  5
5F27
  8
0
 10
992.9493615482683708
 20
68.198532490927434
 30
0.0
 11
998.3022528244058549
 21
68.1985428116906292
 31
0.0
  0
ARC
  5
5F28
  8
0
 10
998.3022526262791416
 20
68.078528115188476
 30
0.0
 40
0.1200146965023193
 50
359.9930786113346244
 51
89.9999054130810805
  0
LINE
  5
5F29
  8
0
 10
998.4222673219057924
 20
68.0785136172906249
 30
0.0
 11
998.4222673219057924
 21
62.3902562691906226
 31
0.0
  0
LINE
  5
5F2A
  8
0
 10
989.1122689609347844
 20
68.1385482864033634
 30
0.0
 11
992.7543616594681453
 21
68.1385344579281309
 31
0.0
  0
LINE
  5
5F2B
  8
0
 10
992.814361341368226
 20
68.1385343573822411
 30
0.0
 11
992.8893619445683498
 21
68.1385342316982019
 31
0.0
  0
LINE
  5
5F2C
  8
0
 10
992.9493615482683708
 20
68.1385341311524257
 30
0.0
 11
998.3021321677057358
 21
68.13854433039063
 31
0.0
  0
ARC
  5
5F2D
  8
0
 10
998.3021320670831074
 20
68.0784988670617963
 30
0.0
 40
0.0600454633289286
 50
0.1287102061600018
 51
89.9999039852353349
  0
LINE
  5
5F2E
  8
0
 10
998.3621773789056988
 20
68.0786337540906175
 30
0.0
 11
998.3621773789056988
 21
62.3902562691906226
 31
0.0
  0
LINE
  5
5F2F
  8
0
 10
989.142253212110063
 20
62.2694038798181921
 30
0.0
 11
999.6761662464103892
 21
62.2694038797592881
 31
0.0
  0
LINE
  5
5F30
  8
0
 10
989.1412981701807894
 20
62.3902402166182313
 30
0.0
 11
999.6761662464103892
 21
62.3902402165593273
 31
0.0
  0
ARC
  5
5F31
  8
0
 10
1002.8974539351030444
 20
88.3114769833444484
 30
0.0
 40
2.1443754703084581
 50
183.0324661622352096
 51
217.8783777314588974
  0
ARC
  5
5F32
  8
0
 10
999.6527672016969746
 20
85.7330823721407569
 30
0.0
 40
2.0002705382235471
 50
0.0006013236987601
 51
39.1093357519556406
  0
LINE
  5
5F33
  8
0
 10
1001.6530377398099745
 20
85.7331033651368983
 30
0.0
 11
1001.6530377398099745
 21
82.4440572012369444
 31
0.0
  0
ARC
  5
5F34
  8
0
 10
999.6527027818751776
 20
82.4440572012369444
 30
0.0
 40
2.0003349579352072
 50
320.6593373180799063
 51
0.0
  0
ARC
  5
5F35
  8
0
 10
1002.7581484441569728
 20
79.9196131732006734
 30
0.0
 40
2.0017737879112918
 50
141.1245678033203887
 51
178.8759506586370094
  0
ARC
  5
5F36
  8
0
 10
1005.6696918398979506
 20
85.4518395974986333
 30
0.0
 40
0.6752099664656991
 50
275.6002109614386768
 51
338.4739102921706149
  0
ARC
  5
5F37
  8
0
 10
1004.4789860960220267
 20
104.8718306419509929
 30
0.0
 40
20.13123510575425
 50
269.361887159763512
 51
273.5787446654774726
  0
ARC
  5
5F38
  8
0
 10
1002.2710674193050409
 20
163.0409545142561001
 30
0.0
 40
78.3242353384207917
 50
269.5478939620172127
 51
271.4512856952753168
  0
ARC
  5
5F39
  8
0
 10
1005.6684478592239884
 20
82.8675782400387106
 30
0.0
 40
0.6738748062327659
 50
20.9424812732794585
 51
86.0594514652805742
  0
ARC
  5
5F3A
  8
0
 10
1005.5729004904360409
 20
68.512492772029475
 30
0.0
 40
15.0280367061931006
 50
89.4591492345437729
 51
94.8870255148548267
  0
ARC
  5
5F3B
  8
0
 10
1003.2347361482900396
 20
104.8162871032196932
 30
0.0
 40
21.3566083083510208
 50
268.7902893296572984
 51
272.8393265209821834
  0
ARC
  5
5F3C
  8
0
 10
1002.6204455163469902
 20
-140.8077961178327087
 30
0.0
 40
224.2722944135686873
 50
89.9582522489972121
 51
90.2471484705639426
  0
ARC
  5
5F3D
  8
0
 10
1012.3465997068279876
 20
83.4499012161078184
 30
0.0
 40
6.6324523696975417
 50
179.2228496067621109
 51
190.9595331104879961
  0
ARC
  5
5F3E
  8
0
 10
1005.6406975897799612
 20
82.132105458708395
 30
0.0
 40
0.2025594492394806
 50
266.516991536313185
 51
16.3032746526870902
  0
ARC
  5
5F3F
  8
0
 10
1005.9106766577509688
 20
84.9693066343774035
 30
0.0
 40
3.0524670297040251
 50
242.9514502096103001
 51
264.6938377069674857
  0
ARC
  5
5F40
  8
0
 10
1012.5468346025170376
 20
98.0336818119787949
 30
0.0
 40
17.7056690347532886
 50
239.2864684010534972
 51
243.0506619699507098
  0
ARC
  5
5F41
  8
0
 10
1000.7609072243469654
 20
77.8984669684621736
 30
0.0
 40
5.626860902381039
 50
60.8267123130919103
 51
80.8773423427435318
  0
ARC
  5
5F42
  8
0
 10
1004.8978448559370236
 20
86.9256061208640034
 30
0.0
 40
2.0256376667716198
 50
325.6944002793620143
 51
358.5074550730936949
  0
ARC
  5
5F43
  8
0
 10
1006.607485201761051
 20
85.7615207086905116
 30
0.0
 40
0.0427314754449347
 50
148.3502547594513032
 51
180.6538693272410967
  0
LINE
  5
5F44
  8
0
 10
1006.5647565089100226
 20
85.7610330603008606
 30
0.0
 11
1006.5647565089100226
 21
82.5855330906988456
 31
0.0
  0
ARC
  5
5F45
  8
0
 10
1006.60818884088701
 20
82.5855330906988456
 30
0.0
 40
0.0434323319772361
 50
180.0000000000032117
 51
211.5333189228215929
  0
ARC
  5
5F46
  8
0
 10
1004.9698153381419843
 20
81.4459488357132955
 30
0.0
 40
1.952366167278335
 50
10.98207465967198
 51
34.8939582727807718
  0
ARC
  5
5F47
  8
0
 10
1004.8891209208940154
 20
81.434719352768866
 30
0.0
 40
2.0337267008189932
 50
0.4111116167076451
 51
10.8595622496317805
  0
ARC
  5
5F48
  8
0
 10
1006.5870198209420323
 20
73.4703533148849033
 30
0.0
 40
0.2893247396033334
 50
138.3677750329910907
 51
178.4112362395844968
  0
ARC
  5
5F49
  8
0
 10
1006.7182784538910028
 20
73.3536843645856607
 30
0.0
 40
0.4649392967668453
 50
113.3838762479987992
 51
138.3677750329910907
  0
ARC
  5
5F4A
  8
0
 10
1006.0945959151019906
 20
74.5743591094853144
 30
0.0
 40
0.9072863023662577
 50
298.9488806386544866
 51
318.9123502594260913
  0
ARC
  5
5F4B
  8
0
 10
1006.3441838466029594
 20
74.3628062634022626
 30
0.0
 40
0.5801534837907698
 50
318.4596381003046872
 51
355.8215695053086165
  0
ARC
  5
5F4C
  8
0
 10
1006.5698804451450314
 20
73.4158981371970754
 30
0.0
 40
0.2725305238062106
 50
147.3107038096125052
 51
176.6836817232565977
  0
ARC
  5
5F4D
  8
0
 10
1006.7008497663599655
 20
73.3183434717329732
 30
0.0
 40
0.4355918493725615
 50
113.5238036894427012
 51
145.8151295849183953
  0
ARC
  5
5F4E
  8
0
 10
1006.0378191591159975
 20
74.5951697158503748
 30
0.0
 40
1.004580225302576
 50
299.1398191538374931
 51
312.107976864069883
  0
ARC
  5
5F4F
  8
0
 10
1006.2972630782919623
 20
74.3261248755801489
 30
0.0
 40
0.6311311678233535
 50
311.0117736597172211
 51
352.3624559070702844
  0
ARC
  5
5F50
  8
0
 10
1004.9072729489929543
 20
72.3667655635791789
 30
0.0
 40
2.015772708272352
 50
334.4807736588755915
 51
359.0969165393258891
  0
ARC
  5
5F51
  8
0
 10
1004.8828590588580028
 20
72.3784204496557777
 30
0.0
 40
2.0428258855534152
 50
325.7336133385761059
 51
334.4807736588755915
  0
ARC
  5
5F52
  8
0
 10
1006.6074369449170263
 20
71.2058161855017602
 30
0.0
 40
0.0426833767196471
 50
148.3315548705481888
 51
180.6725693449427865
  0
LINE
  5
5F53
  8
0
 10
1006.5647565089100226
 20
71.2053151560772335
 30
0.0
 11
1006.5647565089100226
 21
68.02306820510438
 31
0.0
  0
ARC
  5
5F54
  8
0
 10
1006.6081888395359556
 20
68.02306820510438
 30
0.0
 40
0.0434323306256275
 50
179.9999999999967031
 51
211.5333229576046108
  0
ARC
  5
5F55
  8
0
 10
1004.9305084928689666
 20
66.8610285563044613
 30
0.0
 40
1.9974560820548981
 50
34.4352595611546306
 51
34.7772797882495865
  0
LINE
  5
5F56
  8
0
 10
1006.2652828684100541
 20
68.1506555732369037
 30
0.0
 11
1006.2812572594100402
 21
68.0884248866369148
 31
0.0
  0
LINE
  5
5F57
  8
0
 10
1006.2812572594100402
 20
68.0884248866369148
 30
0.0
 11
1006.2977952268099671
 21
68.088711363036893
 31
0.0
  0
ARC
  5
5F58
  8
0
 10
1006.2827810977489662
 20
68.1147030001507119
 30
0.0
 40
0.0300164833267842
 50
300.0129772877949108
 51
359.288927973518696
  0
LINE
  5
5F59
  8
0
 10
1006.3127952695100475
 20
68.1251607738369103
 30
0.0
 11
1006.3127952630250093
 21
64.093596660495507
 31
0.0
  0
LINE
  5
5F5A
  8
0
 10
1006.3127952590209588
 20
61.6048371862802284
 30
0.0
 11
1006.3127952535860459
 21
59.2324748559171326
 31
0.0
  0
ARC
  5
5F5B
  8
0
 10
1006.8041597071689921
 20
64.2200630314957266
 30
0.0
 40
0.5073783203521325
 50
183.6424166660744106
 51
234.9022764899038123
  0
ARC
  5
5F5C
  8
0
 10
1006.3483576584419552
 20
63.5250648694208166
 30
0.0
 40
0.3244228054394812
 50
359.9692668795264012
 51
59.6195628887385993
  0
LINE
  5
5F5D
  8
0
 10
1006.6727804172099923
 20
63.524890850936913
 30
0.0
 11
1006.6727804172099923
 21
62.1746852080369123
 31
0.0
  0
ARC
  5
5F5E
  8
0
 10
1006.3477630269329666
 20
62.1746852080369123
 30
0.0
 40
0.3250173902770967
 50
303.0605177334542191
 51
0.0
  0
ARC
  5
5F5F
  8
0
 10
1006.7979207197249707
 20
61.4831034492207706
 30
0.0
 40
0.5001657878760958
 50
123.0605177334541054
 51
179.1787852732556132
  0
ARC
  5
5F60
  8
0
 10
1006.2827824305510376
 20
68.1249664556872858
 30
0.0
 40
0.0300134680091733
 50
0.3709563865184772
 51
61.0062917933855005
  0
LINE
  5
5F61
  8
0
 10
1006.2973303658719715
 20
68.1512184239912813
 30
0.0
 11
1006.2652828684100541
 21
68.1506555732369037
 31
0.0
  0
ARC
  5
5F62
  8
0
 10
1006.2579202707109971
 20
68.1215890843929941
 30
0.0
 40
0.0299844729584849
 50
14.7970606317777698
 51
75.7858373504407439
  0
LINE
  5
5F63
  8
0
 10
1006.2869110132099877
 20
68.1292471778369304
 30
0.0
 11
1006.2899197670100193
 21
68.1176102678369375
 31
0.0
  0
ARC
  5
5F64
  8
0
 10
1006.261328980765029
 20
68.1102180445783461
 30
0.0
 40
0.0295309671838921
 50
312.440676854718788
 51
14.4965121710187805
  0
ARC
  5
5F65
  8
0
 10
1002.8974539351030444
 20
73.7631305916821702
 30
0.0
 40
2.1443754703084581
 50
183.0324661622352096
 51
217.8783777314588974
  0
ARC
  5
5F66
  8
0
 10
999.6527672016969746
 20
71.1847359804785356
 30
0.0
 40
2.0002705382235471
 50
0.0006013236987601
 51
39.1093357519556406
  0
LINE
  5
5F67
  8
0
 10
1001.6530377398099745
 20
71.1847569734746912
 30
0.0
 11
1001.6530377398099745
 21
67.8957108095746662
 31
0.0
  0
ARC
  5
5F68
  8
0
 10
999.6527027818751776
 20
67.8957108095746662
 30
0.0
 40
2.0003349579352072
 50
320.6593373180799063
 51
0.0
  0
ARC
  5
5F69
  8
0
 10
1002.7581484441569728
 20
65.3712667815384521
 30
0.0
 40
2.0017737879112918
 50
141.1245678033203887
 51
178.8759506586370094
  0
ARC
  5
5F6A
  8
0
 10
1005.6696918398979506
 20
70.9034932058363552
 30
0.0
 40
0.6752099664656991
 50
275.6002109614386768
 51
338.4739102921706149
  0
ARC
  5
5F6B
  8
0
 10
1004.4789860960220267
 20
90.3234842502888
 30
0.0
 40
20.13123510575425
 50
269.361887159763512
 51
273.5787446654774726
  0
ARC
  5
5F6C
  8
0
 10
1002.2710674193050409
 20
148.4926081225939072
 30
0.0
 40
78.3242353384207917
 50
269.5478939620172127
 51
271.4512856952753168
  0
ARC
  5
5F6D
  8
0
 10
1005.6684478592239884
 20
68.3192318483764325
 30
0.0
 40
0.6738748062327659
 50
20.9424812732794585
 51
86.0594514652805742
  0
ARC
  5
5F6E
  8
0
 10
1005.5729004904360409
 20
53.9641463803672465
 30
0.0
 40
15.0280367061931006
 50
89.4591492345437729
 51
94.8870255148548267
  0
ARC
  5
5F6F
  8
0
 10
1003.2347361482900396
 20
90.2679407115575714
 30
0.0
 40
21.3566083083510208
 50
268.7902893296572984
 51
272.8393265209821834
  0
ARC
  5
5F70
  8
0
 10
1002.6204455163469902
 20
-155.3561425094949868
 30
0.0
 40
224.2722944135686873
 50
89.9582522489972121
 51
90.2471484705639426
  0
ARC
  5
5F71
  8
0
 10
1012.3465997068279876
 20
68.9015548244456113
 30
0.0
 40
6.6324523696975417
 50
179.2228496067621109
 51
190.9595331104879961
  0
ARC
  5
5F72
  8
0
 10
1005.6406975897799612
 20
67.5837590670461736
 30
0.0
 40
0.2025594492394806
 50
266.516991536313185
 51
16.3032746526870902
  0
ARC
  5
5F73
  8
0
 10
1005.9106766577509688
 20
70.4209602427151253
 30
0.0
 40
3.0524670297040251
 50
242.9514502096103001
 51
264.6938377069674857
  0
ARC
  5
5F74
  8
0
 10
1012.5468346025170376
 20
83.4853354203165168
 30
0.0
 40
17.7056690347532886
 50
239.2864684010534972
 51
243.0506619699507098
  0
ARC
  5
5F75
  8
0
 10
1000.7609072243469654
 20
63.3501205767998883
 30
0.0
 40
5.626860902381039
 50
60.8267123130919103
 51
80.8773423427435318
  0
ARC
  5
5F76
  8
0
 10
1002.8974539351030444
 20
50.8066291874034803
 30
0.0
 40
2.1443754703084581
 50
183.0324661622352096
 51
217.8783777314588974
  0
ARC
  5
5F77
  8
0
 10
999.6527672016969746
 20
48.2282345761997817
 30
0.0
 40
2.0002705382235471
 50
0.0006013236987601
 51
39.1093357519556406
  0
LINE
  5
5F78
  8
0
 10
1001.6530377398099745
 20
48.2282555691959303
 30
0.0
 11
1001.6530377398099745
 21
44.9392094052959123
 31
0.0
  0
ARC
  5
5F79
  8
0
 10
999.6527027818751776
 20
44.9392094052959123
 30
0.0
 40
2.0003349579352072
 50
320.6593373180799063
 51
0.0
  0
ARC
  5
5F7A
  8
0
 10
1002.7581484441569728
 20
42.4147653772596911
 30
0.0
 40
2.0017737879112918
 50
141.1245678033203887
 51
178.8759506586370094
  0
ARC
  5
5F7B
  8
0
 10
1005.6696918398979506
 20
47.9469918015576582
 30
0.0
 40
0.6752099664656991
 50
275.6002109614386768
 51
338.4739102921706149
  0
ARC
  5
5F7C
  8
0
 10
1004.4789860960220267
 20
67.3669828460100462
 30
0.0
 40
20.13123510575425
 50
269.361887159763512
 51
273.5787446654774726
  0
ARC
  5
5F7D
  8
0
 10
1002.2710674193050409
 20
125.536106718315196
 30
0.0
 40
78.3242353384207917
 50
269.5478939620172127
 51
271.4512856952753168
  0
ARC
  5
5F7E
  8
0
 10
1005.6684478592239884
 20
45.3627304440977426
 30
0.0
 40
0.6738748062327659
 50
20.9424812732794585
 51
86.0594514652805742
  0
ARC
  5
5F7F
  8
0
 10
1005.5729004904360409
 20
31.0076449760885602
 30
0.0
 40
15.0280367061931006
 50
89.4591492345437729
 51
94.8870255148548267
  0
ARC
  5
5F80
  8
0
 10
1003.2347361482900396
 20
67.3114393072788033
 30
0.0
 40
21.3566083083510208
 50
268.7902893296572984
 51
272.8393265209821834
  0
ARC
  5
5F81
  8
0
 10
1002.6204455163469902
 20
-178.3126439137737123
 30
0.0
 40
224.2722944135686873
 50
89.9582522489972121
 51
90.2471484705639426
  0
ARC
  5
5F82
  8
0
 10
1012.3465997068279876
 20
45.9450534201668503
 30
0.0
 40
6.6324523696975417
 50
179.2228496067588139
 51
190.9595331104879961
  0
ARC
  5
5F83
  8
0
 10
1005.6406975897799612
 20
44.6272576627674695
 30
0.0
 40
0.2025594492394806
 50
266.516991536313185
 51
16.3032746526870902
  0
ARC
  5
5F84
  8
0
 10
1005.9106766577509688
 20
47.4644588384364283
 30
0.0
 40
3.0524670297040251
 50
242.9514502096103001
 51
264.6938377069674857
  0
ARC
  5
5F85
  8
0
 10
1012.5468346025170376
 20
60.5288340160378198
 30
0.0
 40
17.7056690347532886
 50
239.2864684010534972
 51
243.0506619699507098
  0
ARC
  5
5F86
  8
0
 10
1000.7609072243469654
 20
40.3936191725211984
 30
0.0
 40
5.626860902381039
 50
60.8267123130919103
 51
80.8773423427435318
  0
ARC
  5
5F87
  8
0
 10
1006.4331060551220389
 20
60.0105817441387401
 30
0.0
 40
0.7153911464894889
 50
214.2815746097510043
 51
240.8474287400838136
  0
ARC
  5
5F88
  8
0
 10
1005.2756953285210102
 20
57.9356076507859825
 30
0.0
 40
1.6605543659615249
 50
23.6675383417810998
 51
60.8474287400837426
  0
ARC
  5
5F89
  8
0
 10
1005.3058218637600021
 20
57.9758713347292201
 30
0.0
 40
1.616988698772196
 50
0.2491903010030016
 51
22.7893363661086106
  0
LINE
  5
5F8A
  8
0
 10
1005.8419930359100363
 20
59.6076302694005378
 30
0.0
 11
1005.8419930359100363
 21
59.4939031137005827
 31
0.0
  0
ARC
  5
5F8B
  8
0
 10
1006.3704708599379956
 20
59.8061847404484297
 30
0.0
 40
0.6138473954439611
 50
210.5791687083570878
 51
241.5511636266919879
  0
ARC
  5
5F8C
  8
0
 10
1005.2901665683790497
 20
57.8122677620806869
 30
0.0
 40
1.65391852699653
 50
33.8267639584498667
 51
61.5511636266919879
  0
ARC
  5
5F8D
  8
0
 10
1005.2185280665969458
 20
57.8251722141003484
 30
0.0
 40
1.706996814942392
 50
3.240631326623304
 51
32.1281122466900229
  0
ARC
  5
5F8E
  8
0
 10
1010.3036111940200499
 20
61.4125840986295586
 30
0.0
 40
4.856683365291607
 50
203.2697117246929963
 51
206.6004472747032139
  0
ARC
  5
5F8F
  8
0
 10
1002.8795441821570193
 20
57.7488859379476978
 30
0.0
 40
3.4223728854395699
 50
2.8085269279501999
 51
25.7910195191239211
  0
ARC
  5
5F90
  8
0
 10
1006.4331060551220389
 20
50.8763768783864023
 30
0.0
 40
0.7153911464894889
 50
119.1525712599162006
 51
145.7184253902489957
  0
ARC
  5
5F91
  8
0
 10
1005.2756953285210102
 20
52.9513509717391528
 30
0.0
 40
1.6605543659615249
 50
299.1525712599162148
 51
336.3324616582189037
  0
ARC
  5
5F92
  8
0
 10
1005.3058218637600021
 20
52.9110872877959011
 30
0.0
 40
1.616988698772196
 50
337.2106636338913859
 51
359.7508096989969886
  0
LINE
  5
5F93
  8
0
 10
1005.8419930359100363
 20
51.2793283531245834
 30
0.0
 11
1005.8419930359100363
 21
51.3930555088246024
 31
0.0
  0
ARC
  5
5F94
  8
0
 10
1006.3704708599379956
 20
51.0807738820766986
 30
0.0
 40
0.6138473954439611
 50
118.4488363733079979
 51
149.4208312916427985
  0
ARC
  5
5F95
  8
0
 10
1005.2901665683790497
 20
53.0746908604444272
 30
0.0
 40
1.65391852699653
 50
298.4488363733079836
 51
326.1732360415501262
  0
ARC
  5
5F96
  8
0
 10
1005.2185280665969458
 20
53.0617864084247799
 30
0.0
 40
1.706996814942392
 50
327.8718877533099771
 51
356.7593686733766845
  0
ARC
  5
5F97
  8
0
 10
1010.3036111940200499
 20
49.4743745238954986
 30
0.0
 40
4.856683365291607
 50
153.3995527252967861
 51
156.7302882753070037
  0
ARC
  5
5F98
  8
0
 10
1002.8795441821570193
 20
53.1380726845774802
 30
0.0
 40
3.4223728854395699
 50
334.2089804808761073
 51
357.1914730720498028
  0
LINE
  5
5F99
  8
0
 10
1006.2978063060099885
 20
53.0555644656860821
 30
0.0
 11
1006.9227952695099475
 21
53.0510445675004689
 31
0.0
  0
LINE
  5
5F9A
  8
0
 10
1006.9227952695099475
 20
57.8481376005156633
 30
0.0
 11
1006.2978063060099885
 21
57.8217926068881525
 31
0.0
  0
ARC
  5
5F9B
  8
0
 10
1006.1883212309170403
 20
51.4255310280132605
 30
0.0
 40
0.7514535680118116
 50
295.2262030805866857
 51
347.7968893314846923
  0
ARC
  5
5F9C
  8
0
 10
1006.6661868848019594
 20
50.3983735190575928
 30
0.0
 40
0.3814485373375481
 50
114.403840471839402
 51
164.9591889547853896
  0
ARC
  5
5F9D
  8
0
 10
1006.6813596422680348
 20
50.4444547395028167
 30
0.0
 40
0.3999113919260917
 50
115.9874754924205007
 51
163.5557835735041863
  0
ARC
  5
5F9E
  8
0
 10
1006.2192787694959861
 20
51.4560435349520091
 30
0.0
 40
0.7124138857715701
 50
293.7436296975523078
 51
350.935253037983216
  0
ARC
  5
5F9F
  8
0
 10
1004.9009588005990281
 20
49.424289511840982
 30
0.0
 40
2.0222828181205719
 50
325.6771770489453957
 51
358.796178605370983
  0
ARC
  5
5FA0
  8
0
 10
1006.6081687754830227
 20
48.2614032655529783
 30
0.0
 40
0.0434132900671266
 50
148.6106886348237879
 51
180.3934321183672864
  0
LINE
  5
5FA1
  8
0
 10
1006.5647565089100226
 20
48.2611051624710896
 30
0.0
 11
1006.5647565089100226
 21
45.0696773061837277
 31
0.0
  0
ARC
  5
5FA2
  8
0
 10
1006.60818884088701
 20
45.0696773061837277
 30
0.0
 40
0.0434323319772396
 50
180.0
 51
211.5333189228188076
  0
ARC
  5
5FA3
  8
0
 10
1004.8905441132189935
 20
43.8988089277303786
 30
0.0
 40
2.035376994268141
 50
3.1758064588113291
 51
34.3397267990231114
  0
ARC
  5
5FA4
  8
0
 10
1000.1474970161390274
 20
42.0801686548023781
 30
0.0
 40
0.1923014491705533
 50
275.3392533543525929
 51
352.0815351013037002
  0
LINE
  5
5FA5
  8
0
 10
1000.1653911923100395
 20
41.8887015667369269
 30
0.0
 11
999.9398836916102482
 21
41.8768796186368988
 31
0.0
  0
ARC
  5
5FA6
  8
0
 10
999.9481171522728573
 20
41.8451137141055867
 30
0.0
 40
0.0328155841814759
 50
104.5308311072118954
 51
159.2884159317808042
  0
ARC
  5
5FA7
  8
0
 10
999.9936413673664219
 20
41.82403995214883
 30
0.0
 40
0.0829293933845666
 50
156.7924168280277968
 51
179.8926241193784108
  0
LINE
  5
5FA8
  8
0
 10
999.9107121196103662
 20
41.8241953669369195
 30
0.0
 11
999.9107121196103662
 21
41.4772294843369309
 31
0.0
  0
ARC
  5
5FA9
  8
0
 10
1000.3037621264669497
 20
41.4772294843369309
 30
0.0
 40
0.393050006856896
 50
180.0
 51
202.8357695610150131
  0
LINE
  5
5FAA
  8
0
 10
999.9415189675103193
 20
41.3246903035368902
 30
0.0
 11
1000.2841583022100167
 21
40.511293725136909
 31
0.0
  0
ARC
  5
5FAB
  8
0
 10
999.5309599462997312
 20
40.2156172166045778
 30
0.0
 40
0.8091553380190361
 50
4.1780785791455957
 51
21.4330494827952585
  0
ARC
  5
5FAC
  8
0
 10
1000.1286756934970299
 20
41.7779128069699865
 30
0.0
 40
0.1952387360361391
 50
273.5337266811339987
 51
323.353728432106891
  0
LINE
  5
5FAD
  8
0
 10
1000.1407094424099569
 20
41.5830452803369326
 30
0.0
 11
999.9107121196103662
 21
41.5733070741118809
 31
0.0
  0
ARC
  5
5FAE
  8
0
 10
1000.0815559834189798
 20
41.8170435322301088
 30
0.0
 40
0.2564215066099695
 50
322.6227137423293243
 51
359.432079618980822
  0
ARC
  5
5FAF
  8
0
 10
1006.6069139709829869
 20
80.3442738716339449
 30
0.0
 40
0.3135262476309292
 50
189.6306043656927045
 51
230.2735080330679978
  0
ARC
  5
5FB0
  8
0
 10
1006.7527969317909537
 20
80.5198255250773656
 30
0.0
 40
0.5417809765647413
 50
230.2735080330679978
 51
243.4807583362639889
  0
ARC
  5
5FB1
  8
0
 10
1006.1350414686260137
 20
79.2672110419787259
 30
0.0
 40
0.8548907451541312
 50
39.63438923677883
 51
63.9185642436871717
  0
ARC
  5
5FB2
  8
0
 10
1006.3697019576869707
 20
79.4560826444824215
 30
0.0
 40
0.5537090902302627
 50
2.702397857914367
 51
40.0721951442114133
  0
ARC
  5
5FB3
  8
0
 10
1006.5782173912459712
 20
80.2488215958430828
 30
0.0
 40
0.2806473178148247
 50
182.3510266210041948
 51
230.1115404164654876
  0
ARC
  5
5FB4
  8
0
 10
1006.8546824227360048
 20
80.6029072882820969
 30
0.0
 40
0.729783942769077
 50
231.2848351281805037
 51
244.5932578310269889
  0
ARC
  5
5FB5
  8
0
 10
1006.1493748922059694
 20
79.2188646571003119
 30
0.0
 40
0.8241442100171468
 50
39.1794303671218671
 51
61.5828446609109577
  0
ARC
  5
5FB6
  8
0
 10
1006.265015615422044
 20
79.3356943935029904
 30
0.0
 40
0.6609274324855977
 50
5.5941658004652437
 51
37.6615788786132768
  0
ARC
  5
5FB7
  8
0
 10
1006.6058467562839951
 20
79.5813052075642418
 30
0.0
 40
0.3131973774488366
 50
190.4117032517594907
 51
226.384981793328393
  0
ARC
  5
5FB8
  8
0
 10
1006.7171115780099626
 20
79.6986836182554725
 30
0.0
 40
0.4749299926785155
 50
226.4349252456063084
 51
244.9570836175167869
  0
ARC
  5
5FB9
  8
0
 10
1006.146076161928022
 20
78.5198391890172047
 30
0.0
 40
0.8350116891198232
 50
36.0967358015025681
 51
63.6977533080887213
  0
ARC
  5
5FBA
  8
0
 10
1006.3615512858909824
 20
78.6870106744738536
 30
0.0
 40
0.5624723779422693
 50
3.7873461600482812
 51
35.2684248494919714
  0
ARC
  5
5FBB
  8
0
 10
1006.6447291816809866
 20
79.5404927270352005
 30
0.0
 40
0.3547375582744777
 50
192.0487010502154135
 51
247.0011265814123931
  0
ARC
  5
5FBC
  8
0
 10
1006.1244901277259487
 20
78.4264030033529025
 30
0.0
 40
0.8751467909756803
 50
41.6290753873805386
 51
64.1456399720503896
  0
ARC
  5
5FBD
  8
0
 10
1006.3409443759210262
 20
78.6211934838955813
 30
0.0
 40
0.5839580515984805
 50
4.8688459702427798
 51
41.4518249426194885
  0
LINE
  5
5FBF
  8
0
 10
977.8545684017102531
 20
30.4205393701369111
 30
0.0
 11
978.0195746846103475
 21
30.4205393701369111
 31
0.0
  0
LINE
  5
5FC0
  8
0
 10
983.6117640282103594
 20
30.4205393701369111
 30
0.0
 11
984.2367640282103594
 21
30.4205393701369111
 31
0.0
  0
LINE
  5
5FC1
  8
0
 10
985.6167640282103548
 20
30.4205393701369111
 30
0.0
 11
986.2417640282103548
 21
30.4205393701369111
 31
0.0
  0
LINE
  5
5FC2
  8
0
 10
987.1705971857097666
 20
30.4205393701369111
 30
0.0
 11
1000.7612803279009768
 21
30.4205393701369111
 31
0.0
  0
LINE
  5
5FC3
  8
0
 10
1003.6616478244100108
 20
30.4205393701369111
 30
0.0
 11
1004.2866478244100108
 21
30.4205393701369111
 31
0.0
  0
ARC
  5
5FC4
  8
0
 10
1000.0303929947999677
 20
105.5641287624785036
 30
0.0
 40
0.145276848873748
 50
359.9176399653965746
 51
45.1564053270392378
  0
LINE
  5
5FC5
  8
0
 10
1000.1756696936099615
 20
105.5639199338369991
 30
0.0
 11
1000.1756696936099615
 21
105.3954965856368062
 31
0.0
  0
ARC
  5
5FC6
  8
0
 10
999.5308725983810518
 20
105.3954965856368062
 30
0.0
 40
0.6447970952293663
 50
354.4043227411746102
 51
0.0
  0
LINE
  5
5FC7
  8
0
 10
1000.1725970803099699
 20
105.3326238307369067
 30
0.0
 11
1000.1725970803099699
 21
105.2978256947559004
 31
0.0
  0
LINE
  5
5FC8
  8
0
 10
1000.1949908178099804
 20
105.2977847115369059
 30
0.0
 11
1000.0906530494099798
 21
105.2979756621369063
 31
0.0
  0
ARC
  5
5FC9
  8
0
 10
1000.0907747523369835
 20
105.3644756461409031
 30
0.0
 40
0.066500095369314
 50
185.7924274634729045
 51
269.8951419852206755
  0
LINE
  5
5FCA
  8
0
 10
1000.0246142027100404
 20
105.3577641368369058
 30
0.0
 11
1000.0246142027100404
 21
105.0729166543103048
 31
0.0
  0
ARC
  5
5FCB
  8
0
 10
999.850252248381139
 20
105.3068056682893996
 30
0.0
 40
0.1049335406624806
 50
5.7105494035273336
 51
79.9862748403095623
  0
LINE
  5
5FCC
  8
0
 10
1000.1725970803099699
 20
105.3326238307369067
 30
0.0
 11
1000.1377455971739892
 21
105.2978894771399041
 31
0.0
  0
LINE
  5
5FCD
  8
0
 10
999.9487574664102567
 20
105.1389892613369028
 30
0.0
 11
999.9487574664102567
 21
104.9971624402188013
 31
0.0
  0
ARC
  5
5FCE
  8
0
 10
1001.9373257025119983
 20
105.1623135935386983
 30
0.0
 40
1.9887050193794751
 50
175.5317521129186105
 51
180.6720033498417024
  0
LINE
  5
5FCF
  8
0
 10
1000.3562372070190349
 20
105.508880749820193
 30
0.0
 11
1000.3379648935100477
 21
105.4896257596962954
 31
0.0
  0
LINE
  5
5FD0
  8
0
 10
1000.2268279147890553
 20
105.5871636905475981
 30
0.0
 11
1000.2121549196100432
 21
105.5717015799368994
 31
0.0
  0
ARC
  5
5FD1
  8
0
 10
1000.2574908173289714
 20
105.5286794191604969
 30
0.0
 40
0.0624999995185615
 50
136.4999998395437046
 51
180.0000002049625039
  0
LINE
  5
5FD2
  8
0
 10
1000.1949908178099804
 20
105.5286794189368038
 30
0.0
 11
1000.1949908178099804
 21
105.2435929058358965
 31
0.0
  0
ARC
  5
5FD3
  8
0
 10
1000.2401908996860129
 20
105.498240721064505
 30
0.0
 40
0.0710522202861412
 50
121.9671336971426996
 51
137.4085230501628132
  0
ARC
  5
5FD4
  8
0
 10
1000.0842156929919611
 20
105.6520000025982
 30
0.0
 40
0.1480327064023262
 50
308.1553582172809911
 51
314.4507615875705255
  0
ARC
  5
5FD5
  8
0
 10
1000.2388752886899965
 20
105.5034030209077969
 30
0.0
 40
0.0666535574411106
 50
139.9108676051077111
 51
161.4903847606271086
  0
ARC
  5
5FD6
  8
0
 10
1005.4573456387470287
 20
102.5762602268314936
 30
0.0
 40
3.1701797976105071
 50
103.6155940605938071
 51
105.4176832773868995
  0
ARC
  5
5FD7
  8
0
 10
1004.6647778275589644
 20
105.3992239412911971
 30
0.0
 40
0.2384831944921949
 50
102.1603458444785986
 51
118.5442691221340965
  0
ARC
  5
5FD8
  8
0
 10
1004.5876406365739513
 20
105.5410315779565025
 30
0.0
 40
0.0770534820797417
 50
118.5442691221340965
 51
144.6988051848815076
  0
ARC
  5
5FD9
  8
0
 10
1004.5734031266810007
 20
105.5520967728175066
 30
0.0
 40
0.059045052920296
 50
145.478128915004902
 51
207.467882023357987
  0
ARC
  5
5FDA
  8
0
 10
1004.7125877729449712
 20
105.620169456279001
 30
0.0
 40
0.2139717142580709
 50
206.450216586108013
 51
226.4966124946597859
  0
ARC
  5
5FDB
  8
0
 10
1004.9651640352240065
 20
105.8851807798738065
 30
0.0
 40
0.5800667180388036
 50
226.4206602895588105
 51
236.1416014992676082
  0
ARC
  5
5FDC
  8
0
 10
1002.8530138299299779
 20
102.777515231719704
 30
0.0
 40
3.1774399699925739
 50
44.7194313616206571
 51
55.7349108479140227
  0
ARC
  5
5FDD
  8
0
 10
1003.3875620067759655
 20
103.2161803087387
 30
0.0
 40
2.4897842904861771
 50
1.0830001399664879
 51
46.2022582004994575
  0
ARC
  5
5FDE
  8
0
 10
1003.5822486551470547
 20
103.4185599290993025
 30
0.0
 40
2.891012700129246
 50
7.1736229676659198
 51
32.7907421768085428
  0
ARC
  5
5FDF
  8
0
 10
1006.9862153295430289
 20
105.611488391413701
 30
0.0
 40
1.1581754112363669
 50
202.3256611654643109
 51
212.790742176808493
  0
ARC
  5
5FE0
  8
0
 10
1006.5589371059969608
 20
105.4269773681734961
 30
0.0
 40
0.6928863586231567
 50
193.0227176695765081
 51
201.6335477650214898
  0
ARC
  5
5FE1
  8
0
 10
1006.2569298651179679
 20
105.3660941072653969
 30
0.0
 40
0.3850263524109559
 50
158.7555329849913903
 51
194.3228523760645032
  0
ARC
  5
5FE2
  8
0
 10
1006.2147001237359518
 20
105.3489763642729002
 30
0.0
 40
0.3532545176365501
 50
112.5552714074161003
 51
153.679303412622005
  0
ARC
  5
5FE3
  8
0
 10
1006.4851655469279876
 20
104.6814126347329932
 30
0.0
 40
1.0735182806416941
 50
100.4627654535493946
 51
112.2199381842089991
  0
LINE
  5
5FE4
  8
0
 10
1005.839189358322983
 20
97.1047287020893037
 30
0.0
 11
1005.8418068438529644
 21
96.9809367467748302
 31
0.0
  0
ARC
  5
5FE5
  8
0
 10
1006.3886043790630538
 20
97.3343979379813504
 30
0.0
 40
0.6510932023914778
 50
212.8794598119764032
 51
241.5146924513828139
  0
ARC
  5
5FE6
  8
0
 10
1005.3355989768419931
 20
95.356686256213095
 30
0.0
 40
1.5895076844019049
 50
50.3832100982993865
 51
62.1530396243905514
  0
ARC
  5
5FE7
  8
0
 10
1005.3411683375429675
 20
95.363414441504645
 30
0.0
 40
1.5807734840413801
 50
24.1522281894944193
 51
50.3832100982993865
  0
ARC
  5
5FE8
  8
0
 10
1005.3039535990500326
 20
95.3502866410004231
 30
0.0
 40
1.620105161765365
 50
2.2629782771239242
 51
24.0373519560529409
  0
ARC
  5
5FE9
  8
0
 10
1006.4568788839660556
 20
97.5250815340292547
 30
0.0
 40
0.7471524967556196
 50
214.2362451539896142
 51
230.7813252792500123
  0
ARC
  5
5FEA
  8
0
 10
1006.4311808876990426
 20
97.5211495796333452
 30
0.0
 40
0.728066387291131
 50
232.1525830348498118
 51
243.4704086180996967
  0
ARC
  5
5FEB
  8
0
 10
1005.3312894106479689
 20
95.482022176913631
 30
0.0
 40
1.58931643592253
 50
48.5857242261060591
 51
60.8276663967922175
  0
ARC
  5
5FEC
  8
0
 10
1005.3289178394929877
 20
95.4801972455073269
 30
0.0
 40
1.592253930279699
 50
25.5666220799963213
 51
48.5651643261069168
  0
ARC
  5
5FED
  8
0
 10
1005.2485153328440219
 20
95.454923563768304
 30
0.0
 40
1.675733120418168
 50
2.3863099930045402
 51
25.1597557365665914
  0
ARC
  5
5FEE
  8
0
 10
1008.5963993818850213
 20
98.1563007146227307
 30
0.0
 40
2.9948723691495491
 50
203.1075788809899905
 51
208.3625759295713067
  0
ARC
  5
5FEF
  8
0
 10
1002.7787818405489588
 20
95.2025099030014985
 30
0.0
 40
3.5314205302470012
 50
19.6773560753429493
 51
25.693616441704819
  0
ARC
  5
5FF0
  8
0
 10
1002.9760873481360477
 20
95.2731059113335164
 30
0.0
 40
3.3218656249623648
 50
0.5384117541077993
 51
19.6767329064359515
  0
LINE
  5
5FF1
  8
0
 10
1006.7642672199100389
 20
86.1359313046369266
 30
0.0
 11
1006.7713597447609573
 21
85.9597223755363871
 31
0.0
  0
ARC
  5
5FF2
  8
0
 10
1005.5616311381660353
 20
86.0779435016234515
 30
0.0
 40
1.2123465007370049
 50
1.455565915954468
 51
3.6789594943372781
  0
ARC
  5
5FF3
  8
0
 10
1005.9742888062270367
 20
86.0618827512118401
 30
0.0
 40
0.8006698678708016
 50
356.4294208781270754
 51
3.3549513009538932
  0
ARC
  5
5FF4
  8
0
 10
1007.7427670687610544
 20
85.9595954619938993
 30
0.0
 40
0.9707791108762384
 50
176.904458867089005
 51
181.7266902724446993
  0
ARC
  5
5FF5
  8
0
 10
810.5623575254088564
 20
78.2596582572671764
 30
0.0
 40
196.3599538444009909
 50
1.0319873036285989
 51
2.238795500170315
  0
ARC
  5
5FF6
  8
0
 10
811.0719408817574276
 20
93.6114372236964556
 30
0.0
 40
195.8489501718991903
 50
356.7508294858698719
 51
357.7609143342140214
  0
ARC
  5
5FF7
  8
0
 10
809.7093026217573879
 20
78.110617854121017
 30
0.0
 40
197.2037729148532037
 50
1.0899153170590019
 51
2.227489105534203
  0
LINE
  5
5FF8
  8
0
 10
1006.7508394060170076
 20
86.1073035152112993
 30
0.0
 11
1006.7560121530100332
 21
85.9796707171369121
 31
0.0
  0
ARC
  5
5FF9
  8
0
 10
1006.2984506564330331
 20
85.961126503647904
 30
0.0
 40
0.4579371256016269
 50
357.0118916420000232
 51
2.3208333952049038
  0
ARC
  5
5FFA
  8
0
 10
809.0917386933045918
 20
93.8203027367762274
 30
0.0
 40
197.8211561056064909
 50
356.7294100282750264
 51
357.7161947325971028
  0
LINE
  5
5FFB
  8
0
 10
1006.9227952695099475
 20
84.6150990667397878
 30
0.0
 11
1006.9001647751759947
 21
86.6191376917224147
 31
0.0
  0
LINE
  5
5FFC
  8
0
 10
1006.9127337911099858
 20
81.6372909330157768
 30
0.0
 11
1006.9227952695099475
 21
82.2448977820457117
 31
0.0
  0
ARC
  5
5FFD
  8
0
 10
978.0601566643008482
 20
34.5321610998820532
 30
0.0
 40
0.1118814248754725
 50
227.1802824070614122
 51
266.09541770750468
  0
LINE
  5
5FFE
  8
0
 10
977.9841115571075534
 20
34.4500965222366133
 30
0.0
 11
976.7483271476104392
 21
35.684067036236911
 31
0.0
  0
ARC
  5
5FFF
  8
0
 10
976.8363402201705412
 20
35.7721029139516418
 30
0.0
 40
0.1244854076045885
 50
179.992578021803098
 51
225.0074220215423964
  0
LINE
  5
6000
  8
0
 10
1006.5711698932100262
 20
82.562818228298795
 30
0.0
 11
1006.2978063060099885
 21
82.562818228298795
 31
0.0
  0
LINE
  5
6001
  8
0
 10
1006.5711091069099439
 20
85.7839429904009307
 30
0.0
 11
1006.2978063060099885
 21
85.7839429904009307
 31
0.0
  0
LINE
  5
6002
  8
0
 10
1006.9136954751760413
 20
72.1728370771689356
 30
0.0
 11
1006.9227952695099475
 21
70.9330755135107438
 31
0.0
  0
LINE
  5
6003
  8
0
 10
1006.9112507555679485
 20
67.9905393701369007
 30
0.0
 11
1006.9227952695099475
 21
68.8407293134386435
 31
0.0
  0
ARC
  5
6004
  8
0
 10
802.2978302796813068
 20
78.3738057450256633
 30
0.0
 40
204.629534322932102
 50
357.4923224006565761
 51
358.1391007992231152
  0
ARC
  5
6005
  8
0
 10
1007.5146734599439924
 20
69.3923327530200709
 30
0.0
 40
0.7837785042267307
 50
177.9333958589778035
 51
182.0637994600687932
  0
ARC
  5
6006
  8
0
 10
810.7659098483419484
 20
60.7175122248902994
 30
0.0
 40
196.1561578142693918
 50
2.1248851100201391
 51
2.5264257555624652
  0
ARC
  5
6007
  8
0
 10
809.1520178239958341
 20
78.2409537493290941
 30
0.0
 40
197.7608865561142863
 50
357.4852511747661765
 51
358.1002028694030059
  0
ARC
  5
6008
  8
0
 10
814.8553017220525589
 20
60.9320605779217317
 30
0.0
 40
192.0612196134636065
 50
2.575917579610874
 51
3.102849701014696
  0
ARC
  5
6009
  8
0
 10
809.9927833541898963
 20
60.5685909590376426
 30
0.0
 40
196.9200903547204859
 50
2.5743608152979882
 51
3.1249937480846599
  0
ARC
  5
600A
  8
0
 10
1006.3384600356559986
 20
69.394425142431885
 30
0.0
 40
0.376157015847486
 50
356.4353904743425119
 51
2.8983307100668472
  0
ARC
  5
600B
  8
0
 10
808.9762352796357163
 20
78.2478042110063257
 30
0.0
 40
197.9368000157739118
 50
357.0295501507338258
 51
357.4296246014984035
  0
ARC
  5
600C
  8
0
 10
784.2484454736353428
 20
79.3452348009317916
 30
0.0
 40
222.7044803997459894
 50
357.077479900186006
 51
357.3944523235347788
  0
ARC
  5
600D
  8
0
 10
809.8933201094010883
 20
60.5642225789027933
 30
0.0
 40
197.0196499840099023
 50
2.1601775781681538
 51
2.518354468367769
  0
LINE
  5
600E
  8
0
 10
1006.5647565089100226
 20
71.2053151560772335
 30
0.0
 11
1006.2978063060099885
 21
71.2053151560772335
 31
0.0
  0
LINE
  5
600F
  8
0
 10
1006.5647565089100226
 20
68.02306820510438
 30
0.0
 11
1006.3127952693459974
 21
68.02306820510438
 31
0.0
  0
LINE
  5
6010
  8
0
 10
1006.9227952695099475
 20
51.3888094760368972
 30
0.0
 11
1006.2978063060099885
 21
51.3888094760368972
 31
0.0
  0
ARC
  5
6011
  8
0
 10
804.737516949165979
 20
45.0720016747546879
 30
0.0
 40
202.1859783821375913
 50
0.1507753782647282
 51
1.1221105492077841
  0
ARC
  5
6012
  8
0
 10
814.1953973871743528
 20
55.4047523078775725
 30
0.0
 40
192.7230410189808083
 50
357.3258757394312966
 51
358.017482714827679
  0
ARC
  5
6013
  8
0
 10
1007.3178568907410408
 20
46.3847377772551681
 30
0.0
 40
0.6099489926555707
 50
177.3258757394312966
 51
183.0809830847337025
  0
ARC
  5
6014
  8
0
 10
1005.8060797185170259
 20
46.2910034548305518
 30
0.0
 40
0.9047651990422944
 50
358.529590059285681
 51
3.8627601411258592
  0
ARC
  5
6015
  8
0
 10
1005.8090198022180175
 20
46.2786224634567702
 30
0.0
 40
0.9015923043681583
 50
348.9939770861632269
 51
359.3113671156775126
  0
ARC
  5
6016
  8
0
 10
818.2545682166294227
 20
55.1480575402329123
 30
0.0
 40
188.6562489661066877
 50
356.9005875225349769
 51
357.2769313474893806
  0
ARC
  5
6017
  8
0
 10
1012.4775233171569653
 20
45.9671125478357112
 30
0.0
 40
5.7838468389172837
 50
175.9664054899112955
 51
177.8384934095437018
  0
ARC
  5
6018
  8
0
 10
808.9519539847667602
 20
55.7455747166149607
 30
0.0
 40
197.9611107248479982
 50
356.8804046993665224
 51
357.2835746813967148
  0
ARC
  5
6019
  8
0
 10
1006.3331398445340028
 20
46.3869259272613021
 30
0.0
 40
0.3582392989087122
 50
356.2734266428532806
 51
3.0597727637171919
  0
ARC
  5
601A
  8
0
 10
810.0201371764667329
 20
37.059456439663343
 30
0.0
 40
196.8926999819454977
 50
2.7208808508009339
 51
3.2767457123955901
  0
ARC
  5
601B
  8
0
 10
810.3488000524509971
 20
37.190428989622319
 30
0.0
 40
196.573654443633103
 50
2.729493278664942
 51
3.250699827809262
  0
ARC
  5
601C
  8
0
 10
809.1380414867995796
 20
55.7377599988105317
 30
0.0
 40
197.7748614119101092
 50
357.3377319997979953
 51
357.9595181279304938
  0
LINE
  5
601D
  8
0
 10
1006.5647565089100226
 20
48.2611051624710896
 30
0.0
 11
1006.2978063060099885
 21
48.2611051624710896
 31
0.0
  0
LINE
  5
601E
  8
0
 10
1006.5647565089100226
 20
45.0696773061837277
 30
0.0
 11
1006.2978063060099885
 21
45.0696773061837277
 31
0.0
  0
LINE
  5
601F
  8
0
 10
1007.8632939141100451
 20
35.4205393701369076
 30
0.0
 11
978.8957548059103146
 21
35.4205393701369076
 31
0.0
  0
ARC
  5
6020
  8
0
 10
978.8957548059103146
 20
34.9205393701369076
 30
0.0
 40
0.5000000000000023
 50
90.0
 51
180.0
  0
LINE
  5
6021
  8
0
 10
978.3957548059104283
 20
34.9205393701369076
 30
0.0
 11
978.3957548059104283
 21
34.1705393701369076
 31
0.0
  0
ARC
  5
6022
  8
0
 10
978.3854622482429022
 20
33.9412039571804485
 30
0.0
 40
0.5001504432536237
 50
88.8208313033210004
 51
179.5145099299842002
  0
LINE
  5
6023
  8
0
 10
978.0525380895736589
 20
34.4205393701369076
 30
0.0
 11
978.2426671817547685
 21
34.4205393701369076
 31
0.0
  0
LINE
  5
6024
  8
0
 10
977.8853297599104053
 20
33.9454418814369205
 30
0.0
 11
977.8545684017102531
 21
30.4205393701369111
 31
0.0
  0
LINE
  5
6025
  8
0
 10
978.0195746846103475
 20
30.4205393701369111
 30
0.0
 11
978.0503203684103255
 21
33.9436457731369003
 31
0.0
  0
ARC
  5
6026
  8
0
 10
978.6734460992745426
 20
33.8558424143563528
 30
0.0
 40
0.6292814205727569
 50
116.1857804415333959
 51
171.9793752520672001
  0
LINE
  5
6027
  8
0
 10
978.0220178178526567
 20
30.7004947103827099
 30
0.0
 11
980.3846634099779749
 21
33.0631822718003718
 31
0.0
  0
ARC
  5
6028
  8
0
 10
983.2212957653871399
 20
30.2266003045402307
 30
0.0
 40
4.0115683188422411
 50
100.5260660562291974
 51
135.0005088875788033
  0
LINE
  5
6029
  8
0
 10
978.1285048801503308
 20
34.1705393701369076
 30
0.0
 11
986.3360376383103585
 21
34.1705393701369076
 31
0.0
  0
LINE
  5
602A
  8
0
 10
986.3360376383103585
 20
34.1705393701369076
 30
0.0
 11
986.3769472113102665
 21
34.099681911236928
 31
0.0
  0
ARC
  5
602B
  8
0
 10
986.7016391878670447
 20
34.2871429114431407
 30
0.0
 40
0.3749220002062348
 50
210.000000018192992
 51
269.9999999760489118
  0
LINE
  5
602C
  8
0
 10
986.7016391877103842
 20
33.9122209112369433
 30
0.0
 11
987.2299513512102749
 21
33.9122209112369433
 31
0.0
  0
ARC
  5
602D
  8
0
 10
987.2299513512102749
 20
34.2871429112369199
 30
0.0
 40
0.3749220000000122
 50
270.0
 51
329.9999999999965894
  0
LINE
  5
602E
  8
0
 10
987.5546433276103926
 20
34.099681911236928
 30
0.0
 11
987.5955529006104143
 21
34.1705393701369573
 31
0.0
  0
LINE
  5
602F
  8
0
 10
987.5955529006104143
 20
34.1705393701369573
 30
0.0
 11
998.3360376383481025
 21
34.1705393701369573
 31
0.0
  0
LINE
  5
6030
  8
0
 10
998.3360376383479888
 20
34.1705393701369573
 30
0.0
 11
998.3769472112727499
 21
34.099681911236928
 31
0.0
  0
ARC
  5
6031
  8
0
 10
998.701639187530418
 20
34.2871429109252972
 30
0.0
 40
0.3749219996883682
 50
209.999999972504213
 51
270.0000000274945933
  0
LINE
  5
6032
  8
0
 10
998.7016391877102706
 20
33.9122209112369433
 30
0.0
 11
999.2299513512103886
 21
33.9122209112369433
 31
0.0
  0
ARC
  5
6033
  8
0
 10
999.2299513512103886
 20
34.2871429111716566
 30
0.0
 40
0.3749219999347559
 50
270.0
 51
330.000000005757272
  0
LINE
  5
6034
  8
0
 10
999.5546433276102789
 20
34.099681911236928
 30
0.0
 11
999.595552900610528
 21
34.1705393701369076
 31
0.0
  0
LINE
  5
6035
  8
0
 10
999.595552900610528
 20
34.1705393701369076
 30
0.0
 11
1007.7472176495100484
 21
34.1705393701369076
 31
0.0
  0
LINE
  5
6036
  8
0
 10
1007.8632939141100451
 20
35.4205393701369076
 30
0.0
 11
1007.8158447740099746
 21
34.0617349629369031
 31
0.0
  0
ARC
  5
6037
  8
0
 10
1007.6610185954449435
 20
34.0671414577929568
 30
0.0
 40
0.1549205465903185
 50
270.0
 51
358.0000570821185875
  0
LINE
  5
6038
  8
0
 10
1007.6610185954449435
 20
33.9122209112026667
 30
0.0
 11
1007.5557075011099641
 21
33.9122209112369433
 31
0.0
  0
ARC
  5
6039
  8
0
 10
1007.5557075011599864
 20
34.0671429139583779
 30
0.0
 40
0.1549220027214631
 50
186.0000120947530888
 51
269.9999999813641125
  0
LINE
  5
603A
  8
0
 10
1007.4016341807980552
 20
34.0509491225637433
 30
0.0
 11
1007.3890647393189965
 21
34.1705393701369573
 31
0.0
  0
ARC
  5
603B
  8
0
 10
1007.7472176495100484
 20
34.2455393701369033
 30
0.0
 40
0.0749999999999436
 50
270.0
 51
357.8743168259534855
  0
LINE
  5
603C
  8
0
 10
979.5837710259146434
 20
32.2622756609369503
 30
0.0
 11
981.9440015099102084
 21
32.2622756609369503
 31
0.0
  0
ARC
  5
603D
  8
0
 10
981.9440015099102084
 20
31.5187684677959012
 30
0.0
 40
0.7435071931410278
 50
53.0796063985365834
 51
90.0
  0
ARC
  5
603E
  8
0
 10
982.9525000433898185
 20
32.8609671578876714
 30
0.0
 40
0.9353515310267075
 50
233.0796063985366118
 51
246.7754447595785052
  0
ARC
  5
603F
  8
0
 10
982.3820548380972468
 20
31.5417289098510913
 30
0.0
 40
0.5019469975613609
 50
35.6820631188671982
 51
66.3191784420701396
  0
LINE
  5
6040
  8
0
 10
982.7897694029104514
 20
31.8345080450368982
 30
0.0
 11
983.5866901956802621
 21
30.6963872032305289
 31
0.0
  0
LINE
  5
6041
  8
0
 10
983.5866901956802621
 20
30.6963872032305289
 30
0.0
 11
983.3695130014103825
 21
32.9159238999368995
 31
0.0
  0
LINE
  5
6042
  8
0
 10
981.617161599412043
 20
33.9034785938354801
 30
0.0
 11
981.6865034690104039
 21
33.6254338224369533
 31
0.0
  0
ARC
  5
6043
  8
0
 10
982.5938776641437471
 20
33.8570157461114718
 30
0.0
 40
0.9364604195409157
 50
194.3174982396276107
 51
265.3008005918559888
  0
LINE
  5
6044
  8
0
 10
982.7138847911102175
 20
32.9197085529369318
 30
0.0
 11
983.3695130014103825
 21
32.9159238999368995
 31
0.0
  0
ARC
  5
6045
  8
0
 10
983.6083696901155236
 20
28.7968668059082802
 30
0.0
 40
4.1259767160766669
 50
89.7522480255956054
 51
93.3187622785964948
  0
LINE
  5
6046
  8
0
 10
982.5171585351102976
 20
32.9237032086369368
 30
0.0
 11
982.6505960487104403
 21
32.9201319602369225
 31
0.0
  0
LINE
  5
6047
  8
0
 10
982.6505960487104403
 20
32.9201319602369225
 30
0.0
 11
982.7138847911102175
 21
32.9197085529369318
 31
0.0
  0
LINE
  5
6048
  8
0
 10
983.6262107196104125
 20
32.9228049488369265
 30
0.0
 11
983.8540818359103923
 21
30.7145373711369416
 31
0.0
  0
LINE
  5
6049
  8
0
 10
983.8540818359103923
 20
30.7145373711369416
 30
0.0
 11
983.9543124845102966
 21
30.7142229602368992
 31
0.0
  0
LINE
  5
604A
  8
0
 10
983.9543124845102966
 20
30.7142229602368992
 30
0.0
 11
983.8730293178102784
 21
32.921033634636899
 31
0.0
  0
LINE
  5
604B
  8
0
 10
983.8540818359103923
 20
30.7145373711369416
 30
0.0
 11
983.7325578087104532
 21
32.4519702218369233
 31
0.0
  0
LINE
  5
604C
  8
0
 10
983.7325578087104532
 20
32.4519702218369233
 30
0.0
 11
983.6804897932104268
 21
33.1966840203369316
 31
0.0
  0
LINE
  5
604D
  8
0
 10
983.6804897932104268
 20
33.1966840203369316
 30
0.0
 11
983.7806265201104452
 21
33.1978992621369002
 31
0.0
  0
LINE
  5
604E
  8
0
 10
983.7806265201104452
 20
33.1978992621369002
 30
0.0
 11
983.8334850530103495
 21
32.4421285886369404
 31
0.0
  0
LINE
  5
604F
  8
0
 10
983.8334850530103495
 20
32.4421285886369404
 30
0.0
 11
983.9543124845102966
 21
30.7142229602368992
 31
0.0
  0
LINE
  5
6050
  8
0
 10
983.6804897932104268
 20
33.1966840203369316
 30
0.0
 11
983.6705612425104164
 21
33.188594849136912
 31
0.0
  0
ARC
  5
6051
  8
0
 10
984.0461862639817809
 20
33.1140095565097567
 30
0.0
 40
0.3829583823755349
 50
168.7692476773063959
 51
180.3719282055205895
  0
ARC
  5
6052
  8
0
 10
982.8989933451023262
 20
33.1086570274051226
 30
0.0
 40
0.764247981238753
 50
346.5719601410501127
 51
0.2149115116350182
  0
LINE
  5
6053
  8
0
 10
983.6423485803104541
 20
32.9311803497369695
 30
0.0
 11
983.6262107196104125
 21
32.9228049488369265
 31
0.0
  0
LINE
  5
6054
  8
0
 10
983.7806265201104452
 20
33.1978992621369002
 30
0.0
 11
983.7916942505103179
 21
33.1900374514369219
 31
0.0
  0
ARC
  5
6055
  8
0
 10
983.4139187883697559
 20
33.0605192036139783
 30
0.0
 40
0.3993610851280798
 50
7.1814771303164457
 51
18.9239973653171489
  0
ARC
  5
6056
  8
0
 10
984.6039439017472432
 20
33.2150400096740626
 30
0.0
 40
0.8006583870922156
 50
187.5064088619346023
 51
200.8859845797055073
  0
LINE
  5
6057
  8
0
 10
983.8558954082103583
 20
32.9295977140369018
 30
0.0
 11
983.8730293178102784
 21
32.921033634636899
 31
0.0
  0
ARC
  5
6058
  8
0
 10
983.830019416155551
 20
28.7303754837024599
 30
0.0
 40
4.1908788564731667
 50
85.9010570825718958
 51
89.4119779677338897
  0
LINE
  5
6059
  8
0
 10
984.1295794218102628
 20
32.9105344989368973
 30
0.0
 11
985.6711373755102841
 21
32.8992468586369
 31
0.0
  0
LINE
  5
605A
  8
0
 10
985.841320065910395
 20
32.8982566909369325
 30
0.0
 11
987.6767517178104754
 21
32.8888537202369093
 31
0.0
  0
LINE
  5
605B
  8
0
 10
983.5843024307878295
 20
30.682032208859539
 30
0.0
 11
982.7694587580103871
 21
31.496875881636921
 31
0.0
  0
ARC
  5
605C
  8
0
 10
982.4414212541322513
 20
31.1688660010069007
 30
0.0
 40
0.4638955547767357
 50
44.9975875286190572
 51
67.4297383507562671
  0
LINE
  5
605D
  8
0
 10
983.5821075802174391
 20
30.7029318563699611
 30
0.0
 11
983.6117640282103594
 21
30.4205393701369111
 31
0.0
  0
ARC
  5
605E
  8
0
 10
984.393664716110834
 20
34.3061705132378805
 30
0.0
 40
3.7865753733010599
 50
241.3270615200011946
 51
257.782781688602995
  0
ARC
  5
605F
  8
0
 10
983.0563703605729415
 20
31.8609991243472983
 30
0.0
 40
0.9996022332086946
 50
185.6458947723440929
 51
241.3322305120723001
  0
LINE
  5
6060
  8
0
 10
982.0616172824104524
 20
31.762658196336929
 30
0.0
 11
982.0094083368934434
 21
32.2593931320061031
 31
0.0
  0
ARC
  5
6061
  8
0
 10
981.5452565661104245
 20
31.7187638593369492
 30
0.0
 40
0.5435118015999997
 50
23.5826055193433888
 51
90.0
  0
ARC
  5
6062
  8
0
 10
980.4429548081758412
 20
31.9838801324744999
 30
0.0
 40
1.586677991683495
 50
6.1666162923333436
 51
10.01197282578676
  0
ARC
  5
6063
  8
0
 10
982.9903029324104864
 20
32.8492469968370031
 30
0.0
 40
1.0000383022000909
 50
219.8856397417509925
 51
256.4177413918088178
  0
ARC
  5
6064
  8
0
 10
982.995649908410428
 20
32.781367208736981
 30
0.0
 40
1.0000898429000591
 50
213.4730156091985123
 51
259.6282627705377877
  0
ARC
  5
6065
  8
0
 10
983.0011184320103439
 20
32.7136479763369223
 30
0.0
 40
1.0001318841999769
 50
208.1863092033383111
 51
262.3676389775013718
  0
ARC
  5
6066
  8
0
 10
983.0066810009104756
 20
32.6461179673369202
 30
0.0
 40
1.000165079500019
 50
203.4587520285988944
 51
264.9767997984274075
  0
ARC
  5
6067
  8
0
 10
983.0121949175846794
 20
32.5787840523120735
 30
0.0
 40
1.0000468991503131
 50
199.071255247122707
 51
267.4776445642817748
  0
ARC
  5
6068
  8
0
 10
983.0178888207103682
 20
32.5149292363369113
 30
0.0
 40
1.000452431499973
 50
195.0946687334848093
 51
246.5320007798036102
  0
ARC
  5
6069
  8
0
 10
983.0228301720103445
 20
32.4547896135368887
 30
0.0
 40
1.0003392264999871
 50
191.4784604088081892
 51
256.1055008939857203
  0
ARC
  5
606A
  8
0
 10
983.0274009338678525
 20
32.3981471151759592
 30
0.0
 40
1.0001488935663629
 50
188.1481680831304004
 51
259.9586642814854258
  0
ARC
  5
606B
  8
0
 10
983.0319786369152553
 20
32.3447517869793231
 30
0.0
 40
1.000238617197736
 50
187.9782297165837122
 51
263.2810716783268958
  0
LINE
  5
606C
  8
0
 10
982.04142145141941
 20
32.2059218420966431
 30
0.0
 11
982.0343078434333393
 21
32.2567709829529008
 31
0.0
  0
ARC
  5
606D
  8
0
 10
983.036243568679879
 20
32.294101176122922
 30
0.0
 40
1.0002419633342989
 50
187.5721038248456978
 51
256.2978192460133755
  0
ARC
  5
606E
  8
0
 10
983.4711097315083634
 20
34.0784928484288798
 30
0.0
 40
2.836859018491722
 50
256.3016179169998168
 51
260.0773163545896978
  0
LINE
  5
606F
  8
0
 10
982.0447238995412818
 20
32.1622955202279286
 30
0.0
 11
982.0346384289060779
 21
32.2544079082228521
 31
0.0
  0
ARC
  5
6070
  8
0
 10
983.5572145486836462
 20
34.1058063600772812
 30
0.0
 40
2.9305815078496571
 50
254.4631264364844014
 51
259.9581182930904788
  0
ARC
  5
6071
  8
0
 10
983.04009682475305
 20
32.2457892810463704
 30
0.0
 40
1.000018306426377
 50
185.9855528785165859
 51
254.4631264364844014
  0
LINE
  5
6072
  8
0
 10
982.0455303975419383
 20
32.1415096806812315
 30
0.0
 11
982.0442244665103999
 21
32.1543104127369475
 31
0.0
  0
LINE
  5
6073
  8
0
 10
982.0442244665103999
 20
32.1543104127369475
 30
0.0
 11
982.0378933342102528
 21
32.2055505865369014
 31
0.0
  0
LINE
  5
6074
  8
0
 10
982.0378933342102528
 20
32.2055505865369014
 30
0.0
 11
982.0297603291534188
 21
32.2573132336527166
 31
0.0
  0
ARC
  5
6075
  8
0
 10
982.8616198035105072
 20
30.6953072896698096
 30
0.0
 40
0.5016541365134427
 50
45.5971987836578307
 51
77.1753712691484424
  0
ARC
  5
6076
  8
0
 10
983.6422731013541352
 20
34.1294607120333424
 30
0.0
 40
3.0201109745879009
 50
252.7718934199139937
 51
257.1960844751902755
  0
ARC
  5
6077
  8
0
 10
983.044152845104577
 20
32.2001590714911572
 30
0.0
 40
1.0002217176086969
 50
185.9953051669205024
 51
252.7644724681018999
  0
LINE
  5
6078
  8
0
 10
982.0494018830671621
 20
32.0956889422591303
 30
0.0
 11
982.0381311950602594
 21
32.2036254915129803
 31
0.0
  0
ARC
  5
6079
  8
0
 10
983.7240510542097809
 20
34.1444090580348529
 30
0.0
 40
3.0999590155978649
 50
251.2112751439985061
 51
259.5956914984279251
  0
ARC
  5
607A
  8
0
 10
983.0478355536047275
 20
32.1565282563191772
 30
0.0
 40
1.000212014584851
 50
185.9960496651067103
 51
251.2070545171278013
  0
LINE
  5
607B
  8
0
 10
982.0530955990700477
 20
32.0520462149339096
 30
0.0
 11
982.0352969454861523
 21
32.2220753461265303
 31
0.0
  0
ARC
  5
607C
  8
0
 10
983.8065389221104624
 20
34.1658223040377109
 30
0.0
 40
3.1856468470008119
 50
249.7802056167977014
 51
259.6511096310953235
  0
ARC
  5
607D
  8
0
 10
983.0511136091377011
 20
32.1148232555028201
 30
0.0
 40
0.9999514197806284
 50
185.9876666753399945
 51
249.7802056167977014
  0
LINE
  5
607E
  8
0
 10
982.0566175514978795
 20
32.010513940192773
 30
0.0
 11
982.0327457811536078
 21
32.2383122743160015
 31
0.0
  0
LINE
  5
607F
  8
0
 10
982.0302342683103234
 20
32.2542968399370125
 30
0.0
 11
982.0598025326104334
 21
31.9729735967369493
 31
0.0
  0
ARC
  5
6080
  8
0
 10
983.0546151321636899
 20
32.075456363057981
 30
0.0
 40
1.000077409815181
 50
185.8817003209186112
 51
248.4543928877401129
  0
ARC
  5
6081
  8
0
 10
983.8868850164103605
 20
34.184140842336781
 30
0.0
 40
3.2670629344998359
 50
248.4593285110962881
 51
259.5664875062582837
  0
LINE
  5
6082
  8
0
 10
982.0399938255104644
 20
32.1543104209369517
 30
0.0
 11
982.0629964756103618
 21
31.9354548248369383
 31
0.0
  0
ARC
  5
6083
  8
0
 10
983.0577862754521448
 20
32.0380500537216903
 30
0.0
 40
1.0000662612341931
 50
185.8882434614340866
 51
247.2430946904711107
  0
ARC
  5
6084
  8
0
 10
983.9658988589106912
 20
34.2035355377382189
 30
0.0
 40
3.348256166001319
 50
247.2471617607997985
 51
259.484204749545313
  0
ARC
  5
6085
  8
0
 10
980.5482390413170606
 20
31.9975218895523916
 30
0.0
 40
1.499971659644719
 50
5.999953866118596
 51
9.9926732553585662
  0
LINE
  5
6086
  8
0
 10
982.0345192985899985
 20
32.1997247000616724
 30
0.0
 11
982.0660145568102735
 21
31.9000673341369101
 31
0.0
  0
ARC
  5
6087
  8
0
 10
983.0607806964573001
 20
32.0027814641851478
 30
0.0
 40
1.000054931041201
 50
185.8951587446184135
 51
246.1339383842679922
  0
ARC
  5
6088
  8
0
 10
984.0426117311109238
 20
34.2223959410383216
 30
0.0
 40
3.4271273645014668
 50
246.1369072352019884
 51
259.4082916456740122
  0
ARC
  5
6089
  8
0
 10
980.546898136139248
 20
31.9975230058673787
 30
0.0
 40
1.4999607317705419
 50
5.9999549665297867
 51
9.9985455250603774
  0
LINE
  5
608A
  8
0
 10
982.0386420493103969
 20
32.1543104236369004
 30
0.0
 11
982.0689791751489111
 21
31.8653990652794015
 31
0.0
  0
ARC
  5
608B
  8
0
 10
983.0635286441306562
 20
31.9698316932125408
 30
0.0
 40
1.000017409863138
 50
185.9943740783284056
 51
245.1280201497816051
  0
ARC
  5
608C
  8
0
 10
984.1164159789651649
 20
34.2409909863490114
 30
0.0
 40
3.5033624269662682
 50
245.1280201497816051
 51
259.3376156247314839
  0
ARC
  5
608D
  8
0
 10
980.5457428378102804
 20
31.9975193039254009
 30
0.0
 40
1.4999898553519679
 50
5.9999803319003417
 51
10.00328231226238
  0
LINE
  5
608E
  8
0
 10
982.0336497149396564
 20
32.1961481296265788
 30
0.0
 11
982.0714500760103647
 21
31.8365017177369012
 31
0.0
  0
ARC
  5
608F
  8
0
 10
983.0687615846791232
 20
31.9413233811300792
 30
0.0
 40
1.0028049792655149
 50
185.9999999973196054
 51
244.1308452720608955
  0
ARC
  5
6090
  8
0
 10
984.1707537807151311
 20
34.2138995814838083
 30
0.0
 40
3.528471106555215
 50
244.1308452720608955
 51
259.3798193325305874
  0
LINE
  5
6091
  8
0
 10
982.0375156456104833
 20
32.1543104263369131
 30
0.0
 11
982.0738001496104062
 21
31.8090864314369313
 31
0.0
  0
ARC
  5
6092
  8
0
 10
983.0708096862333605
 20
31.9138763563959813
 30
0.0
 40
1.0025013438845061
 50
186.0000000033948027
 51
243.3457189920777921
  0
ARC
  5
6093
  8
0
 10
984.2367023032157931
 20
34.2366112326412235
 30
0.0
 40
3.601424755541756
 50
243.3457189920777921
 51
259.3098104222136158
  0
LINE
  5
6094
  8
0
 10
982.03321121918475
 20
32.1909291810530434
 30
0.0
 11
982.07583031881029
 21
31.7854355345369299
 31
0.0
  0
ARC
  5
6095
  8
0
 10
983.0724406066560732
 20
31.8901834967077811
 30
0.0
 40
1.00209989592805
 50
186.0000000005059064
 51
242.687621269563806
  0
ARC
  5
6096
  8
0
 10
984.2939832746520779
 20
34.2556249986185435
 30
0.0
 40
3.6643320399561312
 50
242.687621269563806
 51
258.8693111646455804
  0
ARC
  5
6097
  8
0
 10
980.5449200542152539
 20
31.9975186065246895
 30
0.0
 40
1.4999943721715481
 50
5.9999890952407986
 51
10.0067137597556393
  0
LINE
  5
6098
  8
0
 10
982.0366973301103144
 20
32.1543104292369435
 30
0.0
 11
982.0774562368103489
 21
31.7665153369369513
 31
0.0
  0
ARC
  5
6099
  8
0
 10
983.0735471714011737
 20
31.8712087130879809
 30
0.0
 40
1.0015776819518969
 50
186.0000000122790027
 51
242.1785813014022892
  0
ARC
  5
609A
  8
0
 10
984.3411268736215334
 20
34.2732106107484924
 30
0.0
 40
3.7175252915064561
 50
242.1785813014022892
 51
258.3353868015818193
  0
ARC
  5
609B
  8
0
 10
983.0561530731423545
 20
31.8671864167275203
 30
0.0
 40
1.000013793857272
 50
185.9999029418546002
 51
241.488823118389206
  0
ARC
  5
609C
  8
0
 10
984.3736854295477769
 20
34.281725491866041
 30
0.0
 40
3.7506288531671581
 50
241.4091580591158106
 51
257.9626208829574239
  0
ARC
  5
609D
  8
0
 10
982.9343777461106129
 20
32.7103635762870226
 30
0.0
 40
0.8076440973135171
 50
204.1382783779984891
 51
227.6814573341665096
  0
ARC
  5
609E
  8
0
 10
984.200716796748452
 20
33.3313465116791576
 30
0.0
 40
2.2177384339623911
 50
194.3836167375027912
 51
205.3998615280864897
  0
ARC
  5
609F
  8
0
 10
985.2548663693714843
 20
33.6219434810982989
 30
0.0
 40
3.3110910717922311
 50
188.1558074076507125
 51
194.7231896246005931
  0
LINE
  5
60A0
  8
0
 10
984.2367640282103594
 20
30.4205393701369111
 30
0.0
 11
984.2277772070102628
 21
30.6785213077366201
 31
0.0
  0
LINE
  5
60A1
  8
0
 10
985.3050172007102674
 20
31.7557613013369213
 30
0.0
 11
984.2240204090103362
 21
30.6747645097369208
 31
0.0
  0
LINE
  5
60A2
  8
0
 10
984.2240204090103362
 20
30.6747645097369208
 30
0.0
 11
984.1295794218102628
 21
32.9105344989368973
 31
0.0
  0
LINE
  5
60A3
  8
0
 10
985.6110598682962518
 20
30.4748551095526601
 30
0.0
 11
984.2331989299071893
 21
30.522881560718421
 31
0.0
  0
LINE
  5
60A4
  8
0
 10
985.6098316297843667
 20
30.4865505535738599
 30
0.0
 11
984.232848148614039
 21
30.5329513324108994
 31
0.0
  0
LINE
  5
60A5
  8
0
 10
985.6070714879325578
 20
30.5128329768968491
 30
0.0
 11
984.2320377912210461
 21
30.5562140151445796
 31
0.0
  0
LINE
  5
60A6
  8
0
 10
985.6030348924334703
 20
30.5512699549217892
 30
0.0
 11
984.2308511956215398
 21
30.5902772534278213
 31
0.0
  0
LINE
  5
60A7
  8
0
 10
985.5981853974673186
 20
30.5974474655181403
 30
0.0
 11
984.2293778222931451
 21
30.6325729325732183
 31
0.0
  0
LINE
  5
60A8
  8
0
 10
985.5926797110888629
 20
30.6498733145729716
 30
0.0
 11
984.23029779395074
 21
30.6810418946767491
 31
0.0
  0
LINE
  5
60A9
  8
0
 10
985.5645707502662844
 20
30.7067638893809693
 30
0.0
 11
984.2823942728144857
 21
30.7331383735356702
 31
0.0
  0
LINE
  5
60AA
  8
0
 10
985.5033754276322497
 20
30.7670696031609694
 30
0.0
 11
984.3379556841481417
 21
30.7886997848642707
 31
0.0
  0
LINE
  5
60AB
  8
0
 10
985.4170483608212407
 20
30.8297193378649013
 30
0.0
 11
984.3961935290761858
 21
30.8469376297867406
 31
0.0
  0
LINE
  5
60AC
  8
0
 10
985.175279249510254
 20
30.8961495978369385
 30
0.0
 11
984.4565551441722846
 21
30.9072992448774393
 31
0.0
  0
LINE
  5
60AD
  8
0
 10
985.3135404853589989
 20
30.9577941542883117
 30
0.0
 11
984.5199140436538983
 21
30.9691929449022609
 31
0.0
  0
LINE
  5
60AE
  8
0
 10
985.2478577546035012
 20
31.0234768850438094
 30
0.0
 11
984.6092476444152908
 21
31.0318039767249196
 31
0.0
  0
LINE
  5
60AF
  8
0
 10
985.1816206739816835
 20
31.0897139656656805
 30
0.0
 11
984.856376357310296
 21
31.0936168760369505
 31
0.0
  0
LINE
  5
60B0
  8
0
 10
985.1148687357840572
 20
31.1564659038631895
 30
0.0
 11
984.7102968667112464
 21
31.1610409673926405
 31
0.0
  0
LINE
  5
60B1
  8
0
 10
985.0250607432294601
 20
31.2238682267880598
 30
0.0
 11
984.7757734001586414
 21
31.2265175008341203
 31
0.0
  0
ARC
  5
60B2
  8
0
 10
984.7694281970940438
 20
30.7883015008134784
 30
0.0
 40
0.5050409601406937
 50
47.4082758173047907
 51
82.2044797136896364
  0
LINE
  5
60B3
  8
0
 10
984.9102952694921669
 20
31.3610393701552006
 30
0.0
 11
985.5936796526102626
 21
30.6776549870369308
 31
0.0
  0
LINE
  5
60B4
  8
0
 10
985.5936796526102626
 20
30.6776549870369308
 30
0.0
 11
985.4857721433247661
 21
31.7627172122425314
 31
0.0
  0
ARC
  5
60B5
  8
0
 10
984.8503616252611437
 20
30.5927456180290314
 30
0.0
 40
0.5009073707782873
 50
89.3119944656526172
 51
134.4736666105872018
  0
LINE
  5
60B6
  8
0
 10
985.589302430810335
 20
30.6820322088369188
 30
0.0
 11
985.6167640282103548
 21
30.4205393701369111
 31
0.0
  0
ARC
  5
60B7
  8
0
 10
985.1676713332841473
 20
30.3952935049820816
 30
0.0
 40
0.5009138709789429
 50
45.5219021636094823
 51
89.1297540826523687
  0
ARC
  5
60B8
  8
0
 10
985.7777773954168197
 20
32.9091690736708031
 30
0.0
 40
0.1071006265006145
 50
175.5527549182122868
 51
185.3157245695140887
  0
ARC
  5
60B9
  8
0
 10
988.6186685722533412
 20
33.0331443199721093
 30
0.0
 40
2.9499380009969118
 50
176.7175376834580049
 51
182.2472110381962125
  0
LINE
  5
60BA
  8
0
 10
985.6735702701104174
 20
33.2020531724369405
 30
0.0
 11
985.6843977824103149
 21
33.2104962755369115
 31
0.0
  0
LINE
  5
60BB
  8
0
 10
985.6843977824103149
 20
33.2104962755369115
 30
0.0
 11
985.7846098733102735
 21
33.2106942046369227
 31
0.0
  0
LINE
  5
60BC
  8
0
 10
985.7846098733102735
 20
33.2106942046369227
 30
0.0
 11
985.7966075016104242
 21
33.2022804966368881
 31
0.0
  0
ARC
  5
60BD
  8
0
 10
981.8535978504919512
 20
32.4723284180294627
 30
0.0
 40
4.010006876038644
 50
6.359019037258256
 51
10.4881769115647696
  0
ARC
  5
60BE
  8
0
 10
985.7140106656255512
 20
32.8908314218973032
 30
0.0
 40
0.1275257543445471
 50
3.3379714947730919
 51
11.5977798225974205
  0
LINE
  5
60BF
  8
0
 10
985.6711373755102841
 20
32.8992468586369
 30
0.0
 11
985.775168538710318
 21
31.9126208137369112
 31
0.0
  0
LINE
  5
60C0
  8
0
 10
985.775168538710318
 20
31.9126208137369112
 30
0.0
 11
985.7759286167103028
 21
31.9018262388369216
 31
0.0
  0
LINE
  5
60C1
  8
0
 10
985.7759286167103028
 20
31.9018262388369216
 30
0.0
 11
985.8616253632103508
 21
30.6760231880369396
 31
0.0
  0
LINE
  5
60C2
  8
0
 10
985.8616253632103508
 20
30.6760231880369396
 30
0.0
 11
985.748692199302468
 21
31.7609880138981602
 31
0.0
  0
ARC
  5
60C3
  8
0
 10
985.6558316681616816
 20
31.39805373932262
 30
0.0
 40
0.5010244410159334
 50
89.6735649308305653
 51
134.4425963484897864
  0
LINE
  5
60C4
  8
0
 10
985.6586861727103042
 20
31.8990700487369203
 30
0.0
 11
985.7761694402361172
 21
31.8983815081483115
 31
0.0
  0
LINE
  5
60C5
  8
0
 10
985.7809829815034846
 20
31.8295287942277092
 30
0.0
 11
985.4051520458320965
 21
31.8318569406064285
 31
0.0
  0
LINE
  5
60C6
  8
0
 10
985.7857917734936564
 20
31.7607440137893491
 30
0.0
 11
985.3134601923610489
 21
31.7638504903380294
 31
0.0
  0
LINE
  5
60C7
  8
0
 10
985.6843977824103149
 20
33.2104962755369115
 30
0.0
 11
985.775168538710318
 21
31.9126208137369112
 31
0.0
  0
LINE
  5
60C8
  8
0
 10
985.841320065910395
 20
32.8982566909369325
 30
0.0
 11
985.8761783672104002
 21
31.9012473852368998
 31
0.0
  0
LINE
  5
60C9
  8
0
 10
985.8761783672104002
 20
31.9012473852368998
 30
0.0
 11
985.8860544841104456
 21
31.7601331022369209
 31
0.0
  0
LINE
  5
60CA
  8
0
 10
985.8860544841104456
 20
31.7601331022369209
 30
0.0
 11
985.9618713704103357
 21
30.67591013053692
 31
0.0
  0
LINE
  5
60CB
  8
0
 10
985.9618713704103357
 20
30.67591013053692
 30
0.0
 11
985.9229225565477464
 21
31.7599194937069988
 31
0.0
  0
LINE
  5
60CC
  8
0
 10
985.8616253632103508
 20
30.6760231880369396
 30
0.0
 11
985.9618713705102664
 21
30.67591013053692
 31
0.0
  0
LINE
  5
60CD
  8
0
 10
985.8860544841104456
 20
31.7601331022369209
 30
0.0
 11
987.7915013799065491
 21
31.7490932055625912
 31
0.0
  0
LINE
  5
60CE
  8
0
 10
985.8764270358625481
 20
31.8976942986450389
 30
0.0
 11
987.7817855480579965
 21
31.8878470540959214
 31
0.0
  0
LINE
  5
60CF
  8
0
 10
985.7846098733102735
 20
33.2106942046369227
 30
0.0
 11
985.8079679416102863
 21
32.8769186879369002
 31
0.0
  0
LINE
  5
60D0
  8
0
 10
985.8079679416102863
 20
32.8769186879369002
 30
0.0
 11
985.8761783672104002
 21
31.9012473852368998
 31
0.0
  0
LINE
  5
60D1
  8
0
 10
986.1851527146859553
 20
31.7584001683156316
 30
0.0
 11
986.2290145732428073
 21
30.6747586739016391
 31
0.0
  0
LINE
  5
60D2
  8
0
 10
986.2290145732428073
 20
30.6747586739016391
 30
0.0
 11
987.0931909769102504
 21
31.5389350776369497
 31
0.0
  0
ARC
  5
60D3
  8
0
 10
987.4439987321260332
 20
31.1812101097038408
 30
0.0
 40
0.5010321684303479
 50
89.7080385466892523
 51
134.4406546217875871
  0
LINE
  5
60D4
  8
0
 10
987.4465518250102605
 20
31.6822357732369291
 30
0.0
 11
987.7963092901089794
 21
31.6804304235803897
 31
0.0
  0
LINE
  5
60D5
  8
0
 10
986.2327772070126457
 20
30.678521307671641
 30
0.0
 11
986.2417640282103548
 21
30.4205393701369111
 31
0.0
  0
LINE
  5
60D6
  8
0
 10
986.2406360058288328
 20
30.4529211648979903
 30
0.0
 11
987.1705971857097666
 21
30.4205393701369111
 31
0.0
  0
LINE
  5
60D7
  8
0
 10
986.240198770881193
 20
30.4654727352974497
 30
0.0
 11
987.5973355558852518
 21
30.4205393701369111
 31
0.0
  0
LINE
  5
60D8
  8
0
 10
986.239216826029633
 20
30.4936611269196192
 30
0.0
 11
987.8828171280940751
 21
30.4449937017682792
 31
0.0
  0
LINE
  5
60D9
  8
0
 10
987.6894488497104021
 20
33.2081041640369108
 30
0.0
 11
987.6783571893104181
 21
33.1994616797369417
 31
0.0
  0
ARC
  5
60DA
  8
0
 10
990.5358236585409486
 20
33.0352488950292127
 30
0.0
 40
2.8621810672001651
 50
176.7109457057823079
 51
182.5726414699389011
  0
ARC
  5
60DB
  8
0
 10
987.7898339649766513
 20
32.8992324830639973
 30
0.0
 40
0.1135575331802913
 50
176.190536622682913
 51
185.243952685333312
  0
LINE
  5
60DC
  8
0
 10
987.6767517178104754
 20
32.8888537202369093
 30
0.0
 11
987.7807644928103628
 21
31.9024289599369091
 31
0.0
  0
LINE
  5
60DD
  8
0
 10
987.7807644928103628
 20
31.9024289599369091
 30
0.0
 11
987.8845294710424696
 21
30.4205393701369111
 31
0.0
  0
LINE
  5
60DE
  8
0
 10
985.8812505688918009
 20
31.8287735465057082
 30
0.0
 11
987.7866305689004776
 21
31.8186542872183509
 31
0.0
  0
LINE
  5
60DF
  8
0
 10
986.2361336227380662
 20
30.5821697042533209
 30
0.0
 11
987.8757514516621541
 21
30.5459001205602512
 31
0.0
  0
LINE
  5
60E0
  8
0
 10
986.2378228298389331
 20
30.5336781507708714
 30
0.0
 11
987.8795473957476361
 21
30.491689440622789
 31
0.0
  0
LINE
  5
60E1
  8
0
 10
986.2342592047052676
 20
30.6359780515270508
 30
0.0
 11
987.8716537190094868
 21
30.604420706822971
 31
0.0
  0
LINE
  5
60E2
  8
0
 10
986.2477348857565858
 20
30.6934789864168884
 30
0.0
 11
987.8673299444321856
 21
30.6661694455951306
 31
0.0
  0
LINE
  5
60E3
  8
0
 10
986.3092092358325544
 20
30.753166678246199
 30
0.0
 11
987.8628703641097673
 21
30.7298576549261497
 31
0.0
  0
LINE
  5
60E4
  8
0
 10
986.3977043085584455
 20
30.8145561593118487
 30
0.0
 11
987.8583153234226302
 21
30.7949091539036885
 31
0.0
  0
LINE
  5
60E5
  8
0
 10
987.8536954386123625
 20
30.8608867055093015
 30
0.0
 11
986.6437444282103115
 21
30.8756404282369203
 31
0.0
  0
ARC
  5
60E6
  8
0
 10
986.6376302266186258
 20
30.3742154976950509
 30
0.0
 40
0.5014622063825378
 50
89.3013897711133779
 51
134.6172494546399889
  0
LINE
  5
60E7
  8
0
 10
987.849025673189999
 20
30.9275766126840495
 30
0.0
 11
986.4968908251408948
 21
30.9426349258206415
 31
0.0
  0
LINE
  5
60E8
  8
0
 10
987.84431381525917
 20
30.9948676518685602
 30
0.0
 11
986.5620743538873967
 21
31.0078184545721989
 31
0.0
  0
LINE
  5
60E9
  8
0
 10
987.8395772162577941
 20
31.0625120235167707
 30
0.0
 11
986.6280089585043243
 21
31.0737530591943596
 31
0.0
  0
LINE
  5
60EA
  8
0
 10
987.8348196505737633
 20
31.1304558247874716
 30
0.0
 11
986.695098879694342
 21
31.140263002889931
 31
0.0
  0
LINE
  5
60EB
  8
0
 10
987.8300408987595347
 20
31.1987021896629315
 30
0.0
 11
986.7862799650896477
 21
31.2070098862637906
 31
0.0
  0
LINE
  5
60EC
  8
0
 10
987.8252436273586454
 20
31.2672130366685792
 30
0.0
 11
987.0385146983103368
 21
31.2729765720369492
 31
0.0
  0
ARC
  5
60ED
  8
0
 10
987.0348431132191536
 20
30.7718011610863904
 30
0.0
 40
0.5011888596911716
 50
89.5802615971195877
 51
134.8628763350874067
  0
LINE
  5
60EE
  8
0
 10
987.8204476257652686
 20
31.3357057492879107
 30
0.0
 11
986.8964378673680358
 21
31.3421819680791103
 31
0.0
  0
LINE
  5
60EF
  8
0
 10
987.8156297640258572
 20
31.4045106512734797
 30
0.0
 11
986.9643399603387479
 21
31.4100840610551018
 31
0.0
  0
LINE
  5
60F0
  8
0
 10
987.8108093829175687
 20
31.4733515328987892
 30
0.0
 11
987.0324106523014507
 21
31.4781547530232118
 31
0.0
  0
LINE
  5
60F1
  8
0
 10
987.8059818519852797
 20
31.5422945226714013
 30
0.0
 11
987.1009747035260489
 21
31.5464056047544013
 31
0.0
  0
LINE
  5
60F2
  8
0
 10
987.8011482054989756
 20
31.6113248499619317
 30
0.0
 11
987.1927276247594136
 21
31.6146799061198216
 31
0.0
  0
LINE
  5
60F3
  8
0
 10
987.6894488497104021
 20
33.2081041640369108
 30
0.0
 11
987.7896961130104501
 21
33.2077636036369199
 31
0.0
  0
LINE
  5
60F4
  8
0
 10
987.7896961130104501
 20
33.2077636036369199
 30
0.0
 11
987.8019606603103284
 21
33.1990152407369123
 31
0.0
  0
ARC
  5
60F5
  8
0
 10
983.4765142808892051
 20
32.4191521528885573
 30
0.0
 40
4.3951874609663601
 50
6.359903715564279
 51
10.2204310648398007
  0
ARC
  5
60F6
  8
0
 10
987.7293925671419856
 20
32.8824555115531894
 30
0.0
 40
0.1176444314235489
 50
2.7506174958410692
 51
11.5557743758498308
  0
LINE
  5
60F7
  8
0
 10
987.8469014568104285
 20
32.8881011376369088
 30
0.0
 11
987.8810113487103308
 21
31.9019946061369488
 31
0.0
  0
LINE
  5
60F8
  8
0
 10
987.8810113487103308
 20
31.9019946061369488
 30
0.0
 11
987.9847062721041766
 21
30.4205393701369111
 31
0.0
  0
LINE
  5
60F9
  8
0
 10
987.6894488497104021
 20
33.2081041640369108
 30
0.0
 11
987.713302878310401
 21
32.8669756617369515
 31
0.0
  0
LINE
  5
60FA
  8
0
 10
987.713302878310401
 20
32.8669756617369515
 30
0.0
 11
987.7807644928103628
 21
31.9024289599369091
 31
0.0
  0
LINE
  5
60FB
  8
0
 10
987.7896961130104501
 20
33.2077636036369199
 30
0.0
 11
987.8135644383103227
 21
32.8667260223369269
 31
0.0
  0
LINE
  5
60FC
  8
0
 10
987.8135644383103227
 20
32.8667260223369269
 30
0.0
 11
987.8810113487103308
 21
31.9019946061369488
 31
0.0
  0
LINE
  5
60FD
  8
0
 10
987.8820141835117283
 20
31.8876674354469891
 30
0.0
 11
988.189626570110363
 21
31.8863624179369403
 31
0.0
  0
ARC
  5
60FE
  8
0
 10
988.1875013530240039
 20
31.3854165724682197
 30
0.0
 40
0.500950353468306
 50
45.5619132741139268
 51
89.7569293364081773
  0
LINE
  5
60FF
  8
0
 10
988.5382357935104665
 20
31.7430988461368884
 30
0.0
 11
989.6033360973090112
 21
30.6779985423383508
 31
0.0
  0
LINE
  5
6100
  8
0
 10
989.6033360973090112
 20
30.6779985423383508
 30
0.0
 11
989.3843596096168085
 21
32.8862480113946276
 31
0.0
  0
ARC
  5
6101
  8
0
 10
989.6232162983219496
 20
28.7671909173660083
 30
0.0
 40
4.1259767160766669
 50
89.7522480255956054
 51
93.3187622785964948
  0
LINE
  5
6102
  8
0
 10
989.6410573278167249
 20
32.8931290602945978
 30
0.0
 11
989.8689284441168184
 21
30.7145373711369416
 31
0.0
  0
LINE
  5
6103
  8
0
 10
989.8689284441168184
 20
30.7145373711369416
 30
0.0
 11
989.96915909271695
 21
30.7142229602368992
 31
0.0
  0
LINE
  5
6104
  8
0
 10
989.96915909271695
 20
30.7142229602368992
 30
0.0
 11
989.8878759260167044
 21
32.8913577460946271
 31
0.0
  0
LINE
  5
6105
  8
0
 10
989.8689284441168184
 20
30.7145373711369416
 30
0.0
 11
989.7474044169167655
 21
32.4519702218369233
 31
0.0
  0
LINE
  5
6106
  8
0
 10
989.7474044169167655
 20
32.4519702218369233
 30
0.0
 11
989.6953364014168528
 21
33.1966840203369316
 31
0.0
  0
LINE
  5
6107
  8
0
 10
989.6953364014168528
 20
33.1966840203369316
 30
0.0
 11
989.7954731283166439
 21
33.1978992621369002
 31
0.0
  0
LINE
  5
6108
  8
0
 10
989.7954731283166439
 20
33.1978992621369002
 30
0.0
 11
989.8483316612167755
 21
32.4421285886369404
 31
0.0
  0
LINE
  5
6109
  8
0
 10
989.8483316612167755
 20
32.4421285886369404
 30
0.0
 11
989.96915909271695
 21
30.7142229602368992
 31
0.0
  0
LINE
  5
610A
  8
0
 10
989.6953364014168528
 20
33.1966840203369316
 30
0.0
 11
989.6854078507168424
 21
33.188594849136912
 31
0.0
  0
ARC
  5
610B
  8
0
 10
990.061032872188207
 20
33.1140095565097567
 30
0.0
 40
0.3829583823755349
 50
168.7692476773063959
 51
180.3719282055205895
  0
ARC
  5
610C
  8
0
 10
988.6461829026668511
 20
33.1081025281197867
 30
0.0
 40
1.0319053267605689
 50
348.4507433898955924
 51
0.1899555381369652
  0
LINE
  5
610D
  8
0
 10
989.6571951885166527
 20
32.9015044611946408
 30
0.0
 11
989.6410573278167249
 21
32.8931290602945978
 31
0.0
  0
LINE
  5
610E
  8
0
 10
989.7954731283166439
 20
33.1978992621369002
 30
0.0
 11
989.806540858716744
 21
33.1900374514369219
 31
0.0
  0
ARC
  5
610F
  8
0
 10
989.4287653965760683
 20
33.0605192036139783
 30
0.0
 40
0.3993610851280798
 50
7.1814771303164457
 51
18.9239973653171489
  0
ARC
  5
6110
  8
0
 10
990.8851805889454454
 20
33.2306005871985803
 30
0.0
 40
1.0669742550203629
 50
186.4660243880468897
 51
198.0545280288957031
  0
LINE
  5
6111
  8
0
 10
989.8707420164167843
 20
32.89992182549463
 30
0.0
 11
989.8878759260167044
 21
32.8913577460946271
 31
0.0
  0
ARC
  5
6112
  8
0
 10
989.8448660243620907
 20
28.7006995951601915
 30
0.0
 40
4.1908788564731667
 50
85.9010570825718958
 51
89.4119779677338897
  0
LINE
  5
6113
  8
0
 10
990.1444260300168025
 20
32.8808586103946183
 30
0.0
 11
991.6859839837169375
 21
32.8992468586369
 31
0.0
  0
LINE
  5
6114
  8
0
 10
991.8561666741167073
 20
32.8982566909369325
 30
0.0
 11
993.691598326016674
 21
32.8888537202369093
 31
0.0
  0
LINE
  5
6115
  8
0
 10
989.5991310397575944
 20
30.6822035998897604
 30
0.0
 11
989.6266106364166717
 21
30.4205393701369111
 31
0.0
  0
LINE
  5
6116
  8
0
 10
990.2516106364166717
 20
30.4205393701369111
 30
0.0
 11
990.2426238152168025
 21
30.6785213077366201
 31
0.0
  0
LINE
  5
6117
  8
0
 10
991.2973038695104151
 20
31.7330479702368997
 30
0.0
 11
990.2388670172167622
 21
30.6747645097369208
 31
0.0
  0
LINE
  5
6118
  8
0
 10
990.2388670172167622
 20
30.6747645097369208
 30
0.0
 11
990.1444260300168025
 21
32.8808586103946183
 31
0.0
  0
LINE
  5
6119
  8
0
 10
991.2446275227376873
 20
31.0415537251158788
 30
0.0
 11
990.8172289543103943
 21
31.0433329869369494
 31
0.0
  0
LINE
  5
611A
  8
0
 10
991.0821576073143433
 20
31.1810558268543403
 30
0.0
 11
990.7464088381087777
 21
31.1823063305819801
 31
0.0
  0
ARC
  5
611B
  8
0
 10
990.8235625017815664
 20
30.7413291545736413
 30
0.0
 40
0.510128390623857
 50
46.1323962921284405
 51
89.5833858034288681
  0
LINE
  5
611C
  8
0
 10
990.9251418776984792
 20
31.3610393701552006
 30
0.0
 11
991.6085262608168023
 21
30.6776549870369308
 31
0.0
  0
LINE
  5
611D
  8
0
 10
991.6085262608168023
 20
30.6776549870369308
 30
0.0
 11
991.5031661339778566
 21
31.7371020489968103
 31
0.0
  0
ARC
  5
611E
  8
0
 10
990.8112142222613556
 20
30.5424617289290303
 30
0.0
 40
0.5009073707782873
 50
89.3119944656526172
 51
129.1098121663480924
  0
LINE
  5
611F
  8
0
 10
991.6041490390166473
 20
30.6820322088369188
 30
0.0
 11
991.6316106364166671
 21
30.4205393701369111
 31
0.0
  0
ARC
  5
6120
  8
0
 10
991.7926240036232457
 20
32.9091690736708031
 30
0.0
 40
0.1071006265006145
 50
175.5527549182122868
 51
185.3157245695140887
  0
ARC
  5
6121
  8
0
 10
994.0889772145040979
 20
33.0030572929634403
 30
0.0
 40
2.404654847773239
 50
175.9148711371053082
 51
182.0396315594381065
  0
LINE
  5
6122
  8
0
 10
991.690431857630756
 20
33.1743614316771414
 30
0.0
 11
991.7012593699307672
 21
33.1828045347771834
 31
0.0
  0
LINE
  5
6123
  8
0
 10
991.7012593699307672
 20
33.1828045347771834
 30
0.0
 11
991.8014714608307258
 21
33.1830024638771306
 31
0.0
  0
LINE
  5
6124
  8
0
 10
991.8014714608307258
 20
33.1830024638771306
 30
0.0
 11
991.8134690891306491
 21
33.1745887558771528
 31
0.0
  0
ARC
  5
6125
  8
0
 10
988.5967494819393551
 20
32.5400297716801674
 30
0.0
 40
3.2787116579100011
 50
6.5928516382231299
 51
11.1593959440615809
  0
ARC
  5
6126
  8
0
 10
991.7288572738320909
 20
32.8908314218973032
 30
0.0
 40
0.1275257543445471
 50
3.3379714947730919
 51
11.5977798225974205
  0
LINE
  5
6127
  8
0
 10
991.6859839837169375
 20
32.8992468586369
 30
0.0
 11
991.7900151469168577
 21
31.9126208137369112
 31
0.0
  0
LINE
  5
6128
  8
0
 10
991.7900151469168577
 20
31.9126208137369112
 30
0.0
 11
991.7907752249169562
 21
31.9018262388369216
 31
0.0
  0
LINE
  5
6129
  8
0
 10
991.7907752249169562
 20
31.9018262388369216
 30
0.0
 11
991.8764719714167768
 21
30.6760231880369396
 31
0.0
  0
LINE
  5
612A
  8
0
 10
991.8764719714167768
 20
30.6760231880369396
 30
0.0
 11
991.7660769647395682
 21
31.736603579576979
 31
0.0
  0
ARC
  5
612B
  8
0
 10
991.6480845911916049
 20
31.3752493570036108
 30
0.0
 40
0.5010658263490528
 50
89.9164280942932521
 51
134.4325513030933905
  0
LINE
  5
612C
  8
0
 10
991.6488154480103958
 20
31.8763146503369512
 30
0.0
 11
991.7925750043935977
 21
31.8760822606373608
 31
0.0
  0
LINE
  5
612D
  8
0
 10
991.7012593699307672
 20
33.1828045347771834
 30
0.0
 11
991.7900151469168577
 21
31.9126208137369112
 31
0.0
  0
LINE
  5
612E
  8
0
 10
991.8561666741167073
 20
32.8982566909369325
 30
0.0
 11
991.8910249754167126
 21
31.9012473852368998
 31
0.0
  0
LINE
  5
612F
  8
0
 10
991.8910249754167126
 20
31.9012473852368998
 30
0.0
 11
991.9009010923166443
 21
31.7601331022369209
 31
0.0
  0
LINE
  5
6130
  8
0
 10
991.9009010923166443
 20
31.7601331022369209
 30
0.0
 11
991.9767179786167617
 21
30.67591013053692
 31
0.0
  0
LINE
  5
6131
  8
0
 10
991.9767179786167617
 20
30.67591013053692
 30
0.0
 11
991.9386178691013356
 21
31.7362986599102292
 31
0.0
  0
LINE
  5
6132
  8
0
 10
991.8764719714167768
 20
30.6760231880369396
 30
0.0
 11
991.9767179787168061
 21
30.67591013053692
 31
0.0
  0
LINE
  5
6133
  8
0
 10
991.902565295286081
 20
31.7363340888909384
 30
0.0
 11
993.8073724794141981
 21
31.7344622287172911
 31
0.0
  0
LINE
  5
6134
  8
0
 10
991.8927992343940332
 20
31.8758959960242692
 30
0.0
 11
993.7975818314863545
 21
31.8742845414924503
 31
0.0
  0
LINE
  5
6135
  8
0
 10
991.8014714608307258
 20
33.1830024638771306
 30
0.0
 11
991.8228145498167123
 21
32.8769186879369002
 31
0.0
  0
LINE
  5
6136
  8
0
 10
991.8228145498167123
 20
32.8769186879369002
 30
0.0
 11
991.8910249754167126
 21
31.9012473852368998
 31
0.0
  0
LINE
  5
6137
  8
0
 10
992.2009043441788663
 20
31.7360409101437995
 30
0.0
 11
992.243947429710488
 21
30.6766915304369299
 31
0.0
  0
LINE
  5
6138
  8
0
 10
992.243947429710488
 20
30.6766915304369299
 30
0.0
 11
993.0889654305102567
 21
31.5217095312369189
 31
0.0
  0
ARC
  5
6139
  8
0
 10
993.4396639232827511
 20
31.1640896490222303
 30
0.0
 40
0.5008806374656575
 50
89.9782916976908353
 51
134.4401475434551969
  0
LINE
  5
613A
  8
0
 10
993.4398536976103742
 20
31.6649702505369
 30
0.0
 11
993.8120139208103865
 21
31.664866205836919
 31
0.0
  0
LINE
  5
613B
  8
0
 10
992.2475616538691838
 20
30.6803057545958495
 30
0.0
 11
992.2566106364167808
 21
30.4205393701369111
 31
0.0
  0
LINE
  5
613C
  8
0
 10
993.7064586474103862
 20
33.1744080801369066
 30
0.0
 11
993.6953669870105159
 21
33.1657655958369375
 31
0.0
  0
ARC
  5
613D
  8
0
 10
995.9312969129233579
 20
33.0017673605726216
 30
0.0
 40
2.2419362289688021
 50
175.805051536117702
 51
182.4283343885450108
  0
ARC
  5
613E
  8
0
 10
993.8046805731830773
 20
32.8992324830639973
 30
0.0
 40
0.1135575331802913
 50
176.190536622682913
 51
185.243952685333312
  0
LINE
  5
613F
  8
0
 10
993.691598326016674
 20
32.8888537202369093
 30
0.0
 11
993.7956111010166751
 21
31.9024289599369091
 31
0.0
  0
LINE
  5
6140
  8
0
 10
993.7956111010166751
 20
31.9024289599369091
 30
0.0
 11
993.8993760792487819
 21
30.4205393701369111
 31
0.0
  0
LINE
  5
6141
  8
0
 10
991.8976827228285629
 20
31.8061185748017614
 30
0.0
 11
993.8024757118299704
 21
31.8043940017499303
 31
0.0
  0
LINE
  5
6142
  8
0
 10
993.7064586474103862
 20
33.1744080801369066
 30
0.0
 11
993.8067059107105479
 21
33.1740675197369228
 31
0.0
  0
LINE
  5
6143
  8
0
 10
993.8067059107105479
 20
33.1740675197369228
 30
0.0
 11
993.8189704580103125
 21
33.1653191568369223
 31
0.0
  0
ARC
  5
6144
  8
0
 10
990.4297038617639828
 20
32.5027556519060568
 30
0.0
 40
3.453421268611359
 50
6.7059034928309256
 51
11.0611842555639797
  0
ARC
  5
6145
  8
0
 10
993.744239175348298
 20
32.8824555115531894
 30
0.0
 40
0.1176444314235489
 50
2.7506174958410692
 51
11.5557743758498308
  0
LINE
  5
6146
  8
0
 10
993.8617480650168545
 20
32.8881011376369088
 30
0.0
 11
993.8958579569166432
 21
31.9019946061369488
 31
0.0
  0
LINE
  5
6147
  8
0
 10
993.8958579569166432
 20
31.9019946061369488
 30
0.0
 11
993.9995528803104889
 21
30.4205393701369111
 31
0.0
  0
LINE
  5
6148
  8
0
 10
993.7064586474103862
 20
33.1744080801369066
 30
0.0
 11
993.7281494865167133
 21
32.8669756617369515
 31
0.0
  0
LINE
  5
6149
  8
0
 10
993.7281494865167133
 20
32.8669756617369515
 30
0.0
 11
993.7956111010166751
 21
31.9024289599369091
 31
0.0
  0
LINE
  5
614A
  8
0
 10
993.8067059107105479
 20
33.1740675197369228
 30
0.0
 11
993.8284110465167487
 21
32.8667260223369269
 31
0.0
  0
LINE
  5
614B
  8
0
 10
993.8284110465167487
 20
32.8667260223369269
 30
0.0
 11
993.8958579569166432
 21
31.9019946061369488
 31
0.0
  0
LINE
  5
614C
  8
0
 10
988.4435906714774092
 20
31.8159621770377612
 30
0.0
 11
987.8868645928057504
 21
31.8183712345315897
 31
0.0
  0
LINE
  5
614D
  8
0
 10
988.5350030226137505
 20
31.7462404162930589
 30
0.0
 11
987.8917116097341022
 21
31.7491234992263003
 31
0.0
  0
LINE
  5
614E
  8
0
 10
988.6047031538748797
 20
31.6766314857724716
 30
0.0
 11
987.8965547635193616
 21
31.6799309553761113
 31
0.0
  0
LINE
  5
614F
  8
0
 10
988.6742846360536987
 20
31.6070500035935389
 30
0.0
 11
987.9013934919222493
 21
31.6108016355079293
 31
0.0
  0
LINE
  5
6150
  8
0
 10
988.7438878240454869
 20
31.5374468156019283
 30
0.0
 11
987.9062259148068961
 21
31.5417624005015114
 31
0.0
  0
LINE
  5
6151
  8
0
 10
987.9110548284935476
 20
31.4727733002550885
 30
0.0
 11
988.6074492099103281
 21
31.4690119924369505
 31
0.0
  0
ARC
  5
6152
  8
0
 10
988.6047413079566013
 20
30.9676524129337807
 30
0.0
 40
0.5013668922980078
 50
45.9571795921322206
 51
89.6905417768713136
  0
LINE
  5
6153
  8
0
 10
988.86124424038087
 20
31.3984365890013883
 30
0.0
 11
987.9158776904137085
 21
31.4038706596032284
 31
0.0
  0
LINE
  5
6154
  8
0
 10
988.9523266227068916
 20
31.3289738898244607
 30
0.0
 11
987.9206929627528098
 21
31.3350764487954088
 31
0.0
  0
LINE
  5
6155
  8
0
 10
989.0217299073976847
 20
31.2596047322496098
 30
0.0
 11
987.9254975773864089
 21
31.2664345011194804
 31
0.0
  0
LINE
  5
6156
  8
0
 10
989.0910488963847911
 20
31.1902857432625105
 30
0.0
 11
987.9302889503602501
 21
31.1979817326778708
 31
0.0
  0
LINE
  5
6157
  8
0
 10
989.160293045191338
 20
31.1210415944560204
 30
0.0
 11
987.9350674738390126
 21
31.1297125407408615
 31
0.0
  0
LINE
  5
6158
  8
0
 10
987.9398460856455131
 20
31.0614420868958483
 30
0.0
 11
989.0238312468103459
 21
31.0535491482369217
 31
0.0
  0
ARC
  5
6159
  8
0
 10
989.020179944380402
 20
30.5520936290756708
 30
0.0
 40
0.5014688122971676
 50
46.0668223040821516
 51
89.582813402541916
  0
LINE
  5
615A
  8
0
 10
989.2764301190951528
 20
30.9831467785426788
 30
0.0
 11
987.9445707820135567
 21
30.9939419051722211
 31
0.0
  0
LINE
  5
615B
  8
0
 10
987.9492838541990523
 20
30.9266077943194695
 30
0.0
 11
989.3671266284328567
 21
30.9141695439496402
 31
0.0
  0
LINE
  5
615C
  8
0
 10
989.4358349679806679
 20
30.8454996716666905
 30
0.0
 11
987.9539509146070486
 21
30.8599310385814682
 31
0.0
  0
LINE
  5
615D
  8
0
 10
987.958577162547499
 20
30.7938373571349189
 30
0.0
 11
989.5040886307109531
 21
30.7772460089364586
 31
0.0
  0
LINE
  5
615E
  8
0
 10
989.5719300313427311
 20
30.7094046083045704
 30
0.0
 11
987.9631414917606662
 21
30.7286282881602801
 31
0.0
  0
LINE
  5
615F
  8
0
 10
987.9676111527630837
 20
30.6647717127544297
 30
0.0
 11
989.60328389431902
 21
30.6426595882513197
 31
0.0
  0
LINE
  5
6160
  8
0
 10
989.6101494469736508
 20
30.5772849188402382
 30
0.0
 11
987.9719479303277012
 21
30.6028135992781394
 31
0.0
  0
LINE
  5
6161
  8
0
 10
987.9760786775235601
 20
30.5437989738581415
 30
0.0
 11
989.6168127411813202
 21
30.5138361801938416
 31
0.0
  0
LINE
  5
6162
  8
0
 10
989.6231454275952046
 20
30.4535355311966818
 30
0.0
 11
987.9798878722060635
 21
30.4893782633503214
 31
0.0
  0
LINE
  5
6163
  8
0
 10
987.9831493395661255
 20
30.4427827527937893
 30
0.0
 11
988.7916821093499493
 21
30.4205393701369111
 31
0.0
  0
LINE
  5
6164
  8
0
 10
990.8272717602757211
 20
31.2514440595920213
 30
0.0
 11
990.8155820993489442
 21
31.2514795918158406
 31
0.0
  0
LINE
  5
6165
  8
0
 10
990.8848526771067782
 20
31.3207501695671908
 30
0.0
 11
990.9657004238868012
 21
31.3204808239668786
 31
0.0
  0
LINE
  5
6166
  8
0
 10
990.5592340048100368
 20
30.9753753047305693
 30
0.0
 11
991.3144675125732874
 21
30.9717137352802716
 31
0.0
  0
LINE
  5
6167
  8
0
 10
991.3839869815003567
 20
30.9021942663534297
 30
0.0
 11
990.4707861752871167
 21
30.9066836677858987
 31
0.0
  0
LINE
  5
6168
  8
0
 10
990.4024984630528934
 20
30.8383959555580383
 30
0.0
 11
991.1717611230103557
 21
30.8341040291369417
 31
0.0
  0
ARC
  5
6169
  8
0
 10
991.167958533208548
 20
30.1525475301198718
 30
0.0
 40
0.681567106777885
 50
50.1367797175729706
 51
89.6803345187727956
  0
LINE
  5
616A
  8
0
 10
991.1749149543268231
 20
31.1112662935267998
 30
0.0
 11
990.6772957598805078
 21
31.1131932523600803
 31
0.0
  0
LINE
  5
616B
  8
0
 10
991.4702810737895788
 20
30.7633951400016485
 30
0.0
 11
990.3342935033200547
 21
30.7701909958315092
 31
0.0
  0
LINE
  5
616C
  8
0
 10
991.5823999105859912
 20
30.6936316878616786
 30
0.0
 11
990.2671306112788443
 21
30.7030281037962709
 31
0.0
  0
LINE
  5
616D
  8
0
 10
991.6101849944950573
 20
30.624557069671539
 30
0.0
 11
990.2441098509037829
 21
30.6358621341125286
 31
0.0
  0
LINE
  5
616E
  8
0
 10
991.6173842023632687
 20
30.5560052926399486
 30
0.0
 11
990.2464266235615469
 21
30.5693552474284012
 31
0.0
  0
LINE
  5
616F
  8
0
 10
991.6245095857427714
 20
30.4881564818230117
 30
0.0
 11
990.2486939064980334
 21
30.5042690470911602
 31
0.0
  0
LINE
  5
6170
  8
0
 10
991.6315303620485793
 20
30.4213037529264589
 30
0.0
 11
990.2508704174612149
 21
30.4417886101212503
 31
0.0
  0
LINE
  5
6171
  8
0
 10
991.3938455777572472
 20
31.8070241668094091
 30
0.0
 11
991.7974531169711554
 21
31.8063059211182804
 31
0.0
  0
LINE
  5
6172
  8
0
 10
991.8023308616851637
 20
31.7365348435004684
 30
0.0
 11
991.3018862866714471
 21
31.7374836683025592
 31
0.0
  0
LINE
  5
6173
  8
0
 10
993.81713620398898
 20
31.5950244140354393
 30
0.0
 11
993.1847955885035617
 21
31.5952781749769009
 31
0.0
  0
LINE
  5
6174
  8
0
 10
993.8220266650521353
 20
31.5251827057607592
 30
0.0
 11
993.0928931233761432
 21
31.5255193452567291
 31
0.0
  0
LINE
  5
6175
  8
0
 10
993.8269171256682739
 20
31.4553410038695915
 30
0.0
 11
993.0230134623327558
 21
31.4557575630593114
 31
0.0
  0
LINE
  5
6176
  8
0
 10
993.8318075859497185
 20
31.3854993067590193
 30
0.0
 11
992.9532657232923611
 21
31.3860098240189203
 31
0.0
  0
LINE
  5
6177
  8
0
 10
993.8367030654037535
 20
31.3155859297830297
 30
0.0
 11
992.8834372474759675
 21
31.3161813482024094
 31
0.0
  0
LINE
  5
6178
  8
0
 10
993.8415885029550054
 20
31.2458159633428103
 30
0.0
 11
993.0215265326102099
 21
31.2463184007369286
 31
0.0
  0
ARC
  5
6179
  8
0
 10
993.0212191299559663
 20
30.744585788170351
 30
0.0
 40
0.5017327067366614
 50
89.9648958986107914
 51
133.7102817633083873
  0
LINE
  5
617A
  8
0
 10
993.8464886621253527
 20
31.1758357543491798
 30
0.0
 11
992.766272054117394
 21
31.1767173624977012
 31
0.0
  0
LINE
  5
617B
  8
0
 10
993.8513806715950523
 20
31.105971932953711
 30
0.0
 11
992.6743234307774628
 21
31.1070675315040184
 31
0.0
  0
LINE
  5
617C
  8
0
 10
993.85626549316612
 20
31.0362107634568893
 30
0.0
 11
992.6043828189718852
 21
31.0371269196984407
 31
0.0
  0
LINE
  5
617D
  8
0
 10
993.8611644777455467
 20
30.9662473290447302
 30
0.0
 11
992.5349566404155439
 21
30.9677007411420995
 31
0.0
  0
LINE
  5
617E
  8
0
 10
993.8660559994980304
 20
30.8963904728435104
 30
0.0
 11
992.4653231602685537
 21
30.8980672609951093
 31
0.0
  0
LINE
  5
617F
  8
0
 10
993.8709781757294195
 20
30.8260958335450788
 30
0.0
 11
992.6790532846058568
 21
30.8283230069677714
 31
0.0
  0
ARC
  5
6180
  8
0
 10
992.6777787723905249
 20
30.1462374458711189
 30
0.0
 40
0.6820867518416472
 50
89.8929399916073777
 51
129.0869991709523106
  0
LINE
  5
6181
  8
0
 10
993.8758574779618584
 20
30.7564134868899295
 30
0.0
 11
992.3785585017739095
 21
30.759188966539849
 31
0.0
  0
LINE
  5
6182
  8
0
 10
993.8807472734772546
 20
30.686581283445431
 30
0.0
 11
992.2658592099943462
 21
30.6898959886656293
 31
0.0
  0
LINE
  5
6183
  8
0
 10
993.8856458728614598
 20
30.6166233500884495
 30
0.0
 11
992.2496397401473587
 21
30.6206507650775315
 31
0.0
  0
LINE
  5
6184
  8
0
 10
993.8905405259960162
 20
30.5467217739537205
 30
0.0
 11
992.2520466538651362
 21
30.5515562264466212
 31
0.0
  0
LINE
  5
6185
  8
0
 10
993.8954409793099103
 20
30.4767373642354187
 30
0.0
 11
992.2544481591319254
 21
30.4826169465756607
 31
0.0
  0
LINE
  5
6186
  8
0
 10
989.3843596096168085
 20
32.8862480113946276
 30
0.0
 11
987.8469014568104285
 21
32.8881011376369088
 31
0.0
  0
LINE
  5
6187
  8
0
 10
993.8977906550353509
 20
31.8743827843277394
 30
0.0
 11
994.2134311338104453
 21
31.8744031953369209
 31
0.0
  0
ARC
  5
6188
  8
0
 10
994.2113059167239726
 20
31.373457349868211
 30
0.0
 40
0.500950353468306
 50
45.5619132741139268
 51
89.7569293364081773
  0
LINE
  5
6189
  8
0
 10
994.5620403572105488
 20
31.7311396235369294
 30
0.0
 11
995.6184980080884088
 21
30.6768187789309685
 31
0.0
  0
LINE
  5
618A
  8
0
 10
995.6184980080881815
 20
30.6768187789309685
 30
0.0
 11
995.3994045315998846
 21
32.8862480113946276
 31
0.0
  0
ARC
  5
618B
  8
0
 10
995.6382612203050257
 20
28.7671909173660083
 30
0.0
 40
4.1259767160766669
 50
89.7522480255956054
 51
93.3187622785964948
  0
LINE
  5
618C
  8
0
 10
995.656102249799801
 20
32.8931290602945978
 30
0.0
 11
995.8839733660996671
 21
30.7145373711369416
 31
0.0
  0
LINE
  5
618D
  8
0
 10
995.8839733660996671
 20
30.7145373711369416
 30
0.0
 11
995.9842040146997988
 21
30.7142229602368992
 31
0.0
  0
LINE
  5
618E
  8
0
 10
995.9842040146997988
 20
30.7142229602368992
 30
0.0
 11
995.9029208479997806
 21
32.8913577460946271
 31
0.0
  0
LINE
  5
618F
  8
0
 10
995.8839733660996671
 20
30.7145373711369416
 30
0.0
 11
995.7624493388998417
 21
32.4519702218369233
 31
0.0
  0
LINE
  5
6190
  8
0
 10
995.7624493388998417
 20
32.4519702218369233
 30
0.0
 11
995.7112620862603762
 21
33.1755794057369329
 31
0.0
  0
LINE
  5
6191
  8
0
 10
995.7112620862603762
 20
33.1755794057369329
 30
0.0
 11
995.8113988131603946
 21
33.1767946475369513
 31
0.0
  0
LINE
  5
6192
  8
0
 10
995.8113988131603946
 20
33.1767946475369513
 30
0.0
 11
995.8633765831998517
 21
32.4421285886369404
 31
0.0
  0
LINE
  5
6193
  8
0
 10
995.8633765831998517
 20
32.4421285886369404
 30
0.0
 11
995.9842040146997988
 21
30.7142229602368992
 31
0.0
  0
LINE
  5
6194
  8
0
 10
995.7112620862603762
 20
33.1755794057369329
 30
0.0
 11
995.7013335355603658
 21
33.1674902345368992
 31
0.0
  0
ARC
  5
6195
  8
0
 10
996.0769585570318441
 20
33.092904941909751
 30
0.0
 40
0.3829583823755349
 50
168.7692476773063959
 51
180.3719282055205895
  0
ARC
  5
6196
  8
0
 10
994.8557648792868804
 20
33.0912961978691484
 30
0.0
 40
0.8382438228190592
 50
346.9138473513031045
 51
359.9400439495025239
  0
LINE
  5
6197
  8
0
 10
995.6722401104999562
 20
32.9015044611946408
 30
0.0
 11
995.656102249799801
 21
32.8931290602945978
 31
0.0
  0
LINE
  5
6198
  8
0
 10
995.8113988131603946
 20
33.1767946475369513
 30
0.0
 11
995.8224665435603811
 21
33.1689328368369232
 31
0.0
  0
ARC
  5
6199
  8
0
 10
995.4446910814195917
 20
33.0394145890139725
 30
0.0
 40
0.3993610851280798
 50
7.1814771303164457
 51
18.9239973653171489
  0
ARC
  5
619A
  8
0
 10
996.7061800074191069
 20
33.1942724154658322
 30
0.0
 40
0.8716002854010657
 50
186.9146603777010114
 51
199.7375878029650949
  0
LINE
  5
619B
  8
0
 10
995.8857869383998604
 20
32.89992182549463
 30
0.0
 11
995.9029208479997806
 21
32.8913577460946271
 31
0.0
  0
ARC
  5
619C
  8
0
 10
995.8599109463450532
 20
28.7006995951601915
 30
0.0
 40
4.1908788564731667
 50
85.9010570825718958
 51
89.4119779677338897
  0
LINE
  5
619D
  8
0
 10
996.159470951999765
 20
32.8808586103946183
 30
0.0
 11
997.7010289056997863
 21
32.8992468586369
 31
0.0
  0
LINE
  5
619E
  8
0
 10
997.8712115960997835
 20
32.8982566909369325
 30
0.0
 11
999.7066432479997502
 21
32.8888537202369093
 31
0.0
  0
LINE
  5
619F
  8
0
 10
995.6143016653471705
 20
30.6810066340894991
 30
0.0
 11
995.6416555583998615
 21
30.4205393701369111
 31
0.0
  0
LINE
  5
61A0
  8
0
 10
996.2666555583997479
 20
30.4205393701369111
 30
0.0
 11
996.2576687371998787
 21
30.6785213077366201
 31
0.0
  0
LINE
  5
61A1
  8
0
 10
997.3123487914933776
 20
31.7330479702368997
 30
0.0
 11
996.2539119391998383
 21
30.6747645097369208
 31
0.0
  0
LINE
  5
61A2
  8
0
 10
996.2539119391998383
 20
30.6747645097369208
 30
0.0
 11
996.159470951999765
 21
32.8808586103946183
 31
0.0
  0
LINE
  5
61A3
  8
0
 10
996.9401867996816691
 20
31.3610393701552006
 30
0.0
 11
997.6235711827997648
 21
30.6776549870369308
 31
0.0
  0
LINE
  5
61A4
  8
0
 10
997.6235711827997648
 20
30.6776549870369308
 30
0.0
 11
997.517964472049357
 21
31.7395815695543284
 31
0.0
  0
LINE
  5
61A5
  8
0
 10
997.6191939609998371
 20
30.6820322088369188
 30
0.0
 11
997.6466555583997433
 21
30.4205393701369111
 31
0.0
  0
ARC
  5
61A6
  8
0
 10
997.8076689256063219
 20
32.9091690736708031
 30
0.0
 40
0.1071006265006145
 50
175.5527549182122868
 51
185.3157245695140887
  0
ARC
  5
61A7
  8
0
 10
1000.1040221364869467
 20
33.0030572929634403
 30
0.0
 40
2.404654847773239
 50
175.9148711371053082
 51
182.0396315594381065
  0
LINE
  5
61A8
  8
0
 10
997.7054767796136048
 20
33.1743614316771414
 30
0.0
 11
997.7163042919137297
 21
33.1828045347771834
 31
0.0
  0
LINE
  5
61A9
  8
0
 10
997.7163042919137297
 20
33.1828045347771834
 30
0.0
 11
997.8165163828136883
 21
33.1830024638771306
 31
0.0
  0
LINE
  5
61AA
  8
0
 10
997.8165163828136883
 20
33.1830024638771306
 30
0.0
 11
997.8285140111138389
 21
33.1745887558771528
 31
0.0
  0
ARC
  5
61AB
  8
0
 10
994.6117944039222039
 20
32.5400297716801674
 30
0.0
 40
3.2787116579100011
 50
6.5928516382231299
 51
11.1593959440615809
  0
ARC
  5
61AC
  8
0
 10
997.7439021958152807
 20
32.8908314218973032
 30
0.0
 40
0.1275257543445471
 50
3.3379714947730919
 51
11.5977798225974205
  0
LINE
  5
61AD
  8
0
 10
997.7010289056997863
 20
32.8992468586369
 30
0.0
 11
997.805820146899805
 21
31.9018262388369216
 31
0.0
  0
LINE
  5
61AE
  8
0
 10
997.805820146899805
 20
31.9018262388369216
 30
0.0
 11
997.891516893399853
 21
30.6760231880369396
 31
0.0
  0
LINE
  5
61AF
  8
0
 10
997.891516893399853
 20
30.6760231880369396
 30
0.0
 11
997.7806855866641627
 21
31.7407951757445517
 31
0.0
  0
ARC
  5
61B0
  8
0
 10
997.6640878331498925
 20
31.383211048345121
 30
0.0
 40
0.4960909446303106
 50
90.0515946420658935
 51
135.1553405094803963
  0
LINE
  5
61B1
  8
0
 10
997.6636411051102868
 20
31.8793017918369017
 30
0.0
 11
997.807367630101453
 21
31.8796910971061109
 31
0.0
  0
LINE
  5
61B2
  8
0
 10
997.7163042919137297
 20
33.1828045347771834
 30
0.0
 11
997.805820146899805
 21
31.9018262388369216
 31
0.0
  0
LINE
  5
61B3
  8
0
 10
997.8712115960997835
 20
32.8982566909369325
 30
0.0
 11
997.9060698973999024
 21
31.9012473852368998
 31
0.0
  0
LINE
  5
61B4
  8
0
 10
997.9060698973999024
 20
31.9012473852368998
 30
0.0
 11
997.9159460142998341
 21
31.7601331022369209
 31
0.0
  0
LINE
  5
61B5
  8
0
 10
997.9159460142998341
 20
31.7601331022369209
 30
0.0
 11
997.9917629005997242
 21
30.67591013053692
 31
0.0
  0
LINE
  5
61B6
  8
0
 10
997.9917629005997242
 20
30.67591013053692
 30
0.0
 11
997.9534725513835838
 21
31.7415933427676613
 31
0.0
  0
LINE
  5
61B7
  8
0
 10
997.891516893399853
 20
30.6760231880369396
 30
0.0
 11
997.9917629006998823
 21
30.67591013053692
 31
0.0
  0
LINE
  5
61B8
  8
0
 10
997.8165163828136883
 20
33.1830024638771306
 30
0.0
 11
997.8378594717997885
 21
32.8769186879369002
 31
0.0
  0
LINE
  5
61B9
  8
0
 10
997.8378594717997885
 20
32.8769186879369002
 30
0.0
 11
997.9060698973999024
 21
31.9012473852368998
 31
0.0
  0
LINE
  5
61BA
  8
0
 10
998.2156744484710771
 20
31.7428045504996703
 30
0.0
 11
998.2589923516934505
 21
30.6766915304369299
 31
0.0
  0
LINE
  5
61BB
  8
0
 10
998.2589923516934505
 20
30.6766915304369299
 30
0.0
 11
999.1162323264104543
 21
31.5339764271369098
 31
0.0
  0
ARC
  5
61BC
  8
0
 10
999.4670188690196255
 20
31.1761769790912311
 30
0.0
 40
0.5010704975326677
 50
90.2688658573093079
 51
134.4329597671824956
  0
LINE
  5
61BD
  8
0
 10
999.4646675570104435
 20
31.6772419597369286
 30
0.0
 11
999.8262808723126227
 21
31.6792871838455916
 31
0.0
  0
LINE
  5
61BE
  8
0
 10
999.9264516988993137
 20
31.6798537331977812
 30
0.0
 11
1001.830462862091963
 21
31.6906225001909014
 31
0.0
  0
LINE
  5
61BF
  8
0
 10
1001.9306339918670119
 20
31.6911890512578793
 30
0.0
 11
1002.4096208761100115
 21
31.6938981205369217
 31
0.0
  0
LINE
  5
61C0
  8
0
 10
998.26260657585226
 20
30.6803057545958495
 30
0.0
 11
998.2716555583997433
 21
30.4205393701369111
 31
0.0
  0
LINE
  5
61C1
  8
0
 10
999.7198216741602437
 20
33.1928394439369185
 30
0.0
 11
999.7087300137604871
 21
33.1841969596369495
 31
0.0
  0
ARC
  5
61C2
  8
0
 10
1002.275426621676047
 20
33.0240945996058599
 30
0.0
 40
2.5716850979029151
 50
176.4306961841188013
 51
182.6146791133768943
  0
ARC
  5
61C3
  8
0
 10
999.8197254951660398
 20
32.8992324830639973
 30
0.0
 40
0.1135575331802913
 50
176.190536622682913
 51
185.243952685333312
  0
LINE
  5
61C4
  8
0
 10
999.7066432479997502
 20
32.8888537202369093
 30
0.0
 11
999.8106560229998649
 21
31.9024289599369091
 31
0.0
  0
LINE
  5
61C5
  8
0
 10
999.8106560229998649
 20
31.9024289599369091
 30
0.0
 11
999.9144210012317444
 21
30.4205393701369111
 31
0.0
  0
LINE
  5
61C6
  8
0
 10
999.7198216741602437
 20
33.1928394439369185
 30
0.0
 11
999.8200689374604053
 21
33.1924988835369277
 31
0.0
  0
LINE
  5
61C7
  8
0
 10
999.8200689374604053
 20
33.1924988835369277
 30
0.0
 11
999.8323334847603974
 21
33.1837505206369201
 31
0.0
  0
ARC
  5
61C8
  8
0
 10
995.9443294677641916
 20
32.4507621142758467
 30
0.0
 40
3.9564943118926261
 50
6.6074633368465321
 51
10.6764132105891107
  0
ARC
  5
61C9
  8
0
 10
999.7592840973314878
 20
32.8824555115531894
 30
0.0
 40
0.1176444314235489
 50
2.7506174958410692
 51
11.5557743758498308
  0
LINE
  5
61CA
  8
0
 10
999.876792986999817
 20
32.8881011376369088
 30
0.0
 11
999.910902878899833
 21
31.9019946061369488
 31
0.0
  0
LINE
  5
61CB
  8
0
 10
999.910902878899833
 20
31.9019946061369488
 30
0.0
 11
1000.0145978022940199
 21
30.4205393701369111
 31
0.0
  0
LINE
  5
61CC
  8
0
 10
999.7198216741602437
 20
33.1928394439369185
 30
0.0
 11
999.7431944084999031
 21
32.8669756617369515
 31
0.0
  0
LINE
  5
61CD
  8
0
 10
999.7431944084999031
 20
32.8669756617369515
 30
0.0
 11
999.8106560229998649
 21
31.9024289599369091
 31
0.0
  0
LINE
  5
61CE
  8
0
 10
999.8200689374604053
 20
33.1924988835369277
 30
0.0
 11
999.8434559685000522
 21
32.8667260223369269
 31
0.0
  0
LINE
  5
61CF
  8
0
 10
999.8434559685000522
 20
32.8667260223369269
 30
0.0
 11
999.910902878899833
 21
31.9019946061369488
 31
0.0
  0
LINE
  5
61D0
  8
0
 10
994.4663310395551434
 20
31.8046341620521993
 30
0.0
 11
993.9026792459643502
 21
31.8045410949591201
 31
0.0
  0
LINE
  5
61D1
  8
0
 10
994.5582301568477988
 20
31.7348364143621815
 30
0.0
 11
993.9075678372770426
 21
31.7346994001169413
 31
0.0
  0
LINE
  5
61D2
  8
0
 10
994.6282763700835403
 20
31.6650375805655315
 30
0.0
 11
993.9124564282487881
 21
31.6648577101374897
 31
0.0
  0
LINE
  5
61D3
  8
0
 10
994.6982082912848
 20
31.5952471046628602
 30
0.0
 11
993.9173450187566914
 21
31.5950160267888691
 31
0.0
  0
LINE
  5
61D4
  8
0
 10
994.768182427114084
 20
31.5254144995160495
 30
0.0
 11
993.9222330541618931
 21
31.5251822740076513
 31
0.0
  0
LINE
  5
61D5
  8
0
 10
994.6320598772102812
 20
31.45554448643691
 30
0.0
 11
993.927122200053077
 21
31.4553326560799817
 31
0.0
  0
LINE
  5
61D6
  8
0
 10
994.8872057056797757
 20
31.3858375495729511
 30
0.0
 11
993.9320144335218856
 21
31.3854389269475291
 31
0.0
  0
LINE
  5
61D7
  8
0
 10
994.9779302870010724
 20
31.3160908786338084
 30
0.0
 11
993.9369037674249512
 21
31.3155866229587296
 31
0.0
  0
LINE
  5
61D8
  8
0
 10
995.0477978037469029
 20
31.2463646769213597
 30
0.0
 11
993.9417937113936432
 21
31.2457256031585189
 31
0.0
  0
LINE
  5
61D9
  8
0
 10
995.1176778899623514
 20
31.1766259311621106
 30
0.0
 11
993.9466823423581445
 21
31.1758833418218195
 31
0.0
  0
LINE
  5
61DA
  8
0
 10
995.1875343777999205
 20
31.1069107360506294
 30
0.0
 11
993.951571505158654
 21
31.1060334823169491
 31
0.0
  0
LINE
  5
61DB
  8
0
 10
993.9564835840637897
 20
31.0358562279666295
 30
0.0
 11
995.0500285090104171
 21
31.0371217150369105
 31
0.0
  0
ARC
  5
61DC
  8
0
 10
995.0506085857366543
 20
30.535860204815549
 30
0.0
 40
0.5012618458634467
 50
47.1574876784361834
 51
90.0663045789262355
  0
LINE
  5
61DD
  8
0
 10
995.3053088678357199
 20
30.9675906814060795
 30
0.0
 11
993.9613583708485294
 21
30.9662117538684392
 31
0.0
  0
LINE
  5
61DE
  8
0
 10
993.9662493656026072
 20
30.8963357218442489
 30
0.0
 11
995.3968218518507456
 21
30.8980465698218083
 31
0.0
  0
LINE
  5
61DF
  8
0
 10
995.4664864645361604
 20
30.82852286177285
 30
0.0
 11
993.9711404386408731
 21
30.826458571401421
 31
0.0
  0
LINE
  5
61E0
  8
0
 10
993.9760321036586674
 20
30.7565729635408012
 30
0.0
 11
995.5360560439219171
 21
30.75909399480798
 31
0.0
  0
LINE
  5
61E1
  8
0
 10
995.6054827704559784
 20
30.6898076917584106
 30
0.0
 11
993.9809276398497104
 21
30.6866320495035403
 31
0.0
  0
LINE
  5
61E2
  8
0
 10
993.9858224070516144
 20
30.616702121761989
 30
0.0
 11
995.6206535703870486
 21
30.6205229828803489
 31
0.0
  0
LINE
  5
61E3
  8
0
 10
995.6279140562292014
 20
30.5513877092042812
 30
0.0
 11
993.9907155096103679
 21
30.54679597622345
 31
0.0
  0
LINE
  5
61E4
  8
0
 10
993.9956117572982066
 20
30.4768448972653196
 30
0.0
 11
995.6351233259681521
 21
30.4827401218079785
 31
0.0
  0
ARC
  5
61E5
  8
0
 10
994.6323108666064172
 20
30.9546590926790408
 30
0.0
 40
0.500885456642216
 50
48.5192620632966367
 51
90.0287104237214351
  0
LINE
  5
61E6
  8
0
 10
996.8995113990207528
 20
31.3202704073780787
 30
0.0
 11
996.9806971140884571
 21
31.3205290557481817
 31
0.0
  0
LINE
  5
61E7
  8
0
 10
996.8297309693507486
 20
31.2505000904938584
 30
0.0
 11
996.8397506971103894
 21
31.2505329062369199
 31
0.0
  0
ARC
  5
61E8
  8
0
 10
996.8395715783699416
 20
30.7405006194017609
 30
0.0
 40
0.5100323182876109
 50
46.1315083280695717
 51
89.9798782396691905
  0
LINE
  5
61E9
  8
0
 10
997.0950107986102466
 20
31.1819570390638283
 30
0.0
 11
996.7599667382907001
 21
31.180745969872131
 31
0.0
  0
LINE
  5
61EA
  8
0
 10
996.6901777112152558
 20
31.1109670568285388
 30
0.0
 11
997.1880146838916517
 21
31.1129524524113208
 31
0.0
  0
LINE
  5
61EB
  8
0
 10
997.2572422745682843
 20
31.0439838952684717
 30
0.0
 11
996.8257438088103299
 21
31.0421038398369014
 31
0.0
  0
ARC
  5
61EC
  8
0
 10
996.8278436722330298
 20
30.5412204025021197
 30
0.0
 40
0.5008878389646833
 50
90.2402008089110979
 51
132.0778524891211134
  0
LINE
  5
61ED
  8
0
 10
996.5716270595235073
 20
30.9716175151718289
 30
0.0
 11
997.3261129254010484
 21
30.9751132444358213
 31
0.0
  0
LINE
  5
61EE
  8
0
 10
997.3948009289230185
 20
30.906425240913741
 30
0.0
 11
996.4811009937882318
 21
30.9019206394166908
 31
0.0
  0
LINE
  5
61EF
  8
0
 10
996.4114834646502459
 20
30.8323131994566211
 30
0.0
 11
997.1767606410104463
 21
30.8364425042369206
 31
0.0
  0
ARC
  5
61F0
  8
0
 10
997.1804405873431278
 20
30.1544441804245515
 30
0.0
 40
0.6820082519206841
 50
49.8908531962228707
 51
90.3091552282805168
  0
LINE
  5
61F1
  8
0
 10
996.3418916223905626
 20
30.7627314426522389
 30
0.0
 11
997.4747787518515452
 21
30.7696679613382003
 31
0.0
  0
LINE
  5
61F2
  8
0
 10
997.5865002413328284
 20
30.7023956500726811
 30
0.0
 11
996.2724271214237888
 21
30.6932770086859286
 31
0.0
  0
LINE
  5
61F3
  8
0
 10
996.2595560591603316
 20
30.6243425313506883
 30
0.0
 11
997.6241062747599244
 21
30.6352565296589283
 31
0.0
  0
LINE
  5
61F4
  8
0
 10
997.6310897159311253
 20
30.5687593106806084
 30
0.0
 11
996.261939768053935
 21
30.5559141265379708
 31
0.0
  0
LINE
  5
61F5
  8
0
 10
996.2643039027581153
 20
30.4880476320164497
 30
0.0
 11
997.6379236398190642
 21
30.5036858143785707
 31
0.0
  0
LINE
  5
61F6
  8
0
 10
996.3091064963925874
 20
30.4205393701369111
 30
0.0
 11
997.6444447546283527
 21
30.4415909260830517
 31
0.0
  0
LINE
  5
61F7
  8
0
 10
995.3994045315998846
 20
32.8862480113946276
 30
0.0
 11
993.8617480650168545
 21
32.8881011376369088
 31
0.0
  0
LINE
  5
61F8
  8
0
 10
997.9075704845904511
 20
31.8798063383539407
 30
0.0
 11
999.8116548167677138
 21
31.8881649749937992
 31
0.0
  0
LINE
  5
61F9
  8
0
 10
999.9118401044680695
 20
31.8886047729598694
 30
0.0
 11
1001.8160144166020018
 21
31.8969638045978812
 31
0.0
  0
LINE
  5
61FA
  8
0
 10
1001.9161999396679903
 20
31.89740360359718
 30
0.0
 11
1002.2053249096099989
 21
31.8986728176369105
 31
0.0
  0
LINE
  5
61FB
  8
0
 10
997.4089236270712036
 20
31.8086490030228184
 30
0.0
 11
997.8122095438487804
 21
31.8104325442962512
 31
0.0
  0
LINE
  5
61FC
  8
0
 10
997.9123947154347434
 20
31.8108756155294792
 30
0.0
 11
999.8164771325447191
 21
31.8192964639586684
 31
0.0
  0
LINE
  5
61FD
  8
0
 10
999.9166603489668432
 20
31.8197395265451597
 30
0.0
 11
1001.8208321475650564
 21
31.8281607702660416
 31
0.0
  0
LINE
  5
61FE
  8
0
 10
1001.9210156011030222
 20
31.8286038339012407
 30
0.0
 11
1002.4596535499259744
 21
31.8309859726597288
 31
0.0
  0
LINE
  5
61FF
  8
0
 10
997.3180188692397223
 20
31.7386579467171295
 30
0.0
 11
997.8170661919915574
 21
31.7409632312428016
 31
0.0
  0
LINE
  5
6200
  8
0
 10
997.9172541506418384
 20
31.7414260365524683
 30
0.0
 11
999.8213138979901942
 21
31.7502215941507906
 31
0.0
  0
LINE
  5
6201
  8
0
 10
999.921493886799567
 20
31.7506843626447903
 30
0.0
 11
1001.8256412945739839
 21
31.7594803251790303
 31
0.0
  0
LINE
  5
6202
  8
0
 10
1001.9258215310469495
 20
31.7599430948170607
 30
0.0
 11
1002.551190237042988
 21
31.76283190462539
 31
0.0
  0
ARC
  5
6203
  8
0
 10
1002.4129658308460193
 20
31.1930698288320514
 30
0.0
 40
0.5008394617981243
 50
45.5429997317739179
 51
90.3826639640223277
  0
ARC
  5
6204
  8
0
 10
1002.2081559089290295
 20
31.3976555381690901
 30
0.0
 40
0.5010252776881544
 50
45.5575706499415318
 51
90.3237464917488353
  0
LINE
  5
6205
  8
0
 10
1002.5589699196100355
 20
31.7553647200369404
 30
0.0
 11
1003.6387629931100491
 21
30.6755716464369392
 31
0.0
  0
LINE
  5
6206
  8
0
 10
1003.6387629931100491
 20
30.6755716464369392
 30
0.0
 11
1003.4205695336739836
 21
32.9079296512767883
 31
0.0
  0
LINE
  5
6207
  8
0
 10
999.2102841353569147
 20
31.6064779435668584
 30
0.0
 11
999.8311222110668268
 21
31.6101470016492385
 31
0.0
  0
LINE
  5
6208
  8
0
 10
999.9312894080909473
 20
31.61073897446499
 30
0.0
 11
1001.8352685678660237
 21
31.6219912001227001
 31
0.0
  0
LINE
  5
6209
  8
0
 10
1001.9354360816839744
 20
31.6225831748106998
 30
0.0
 11
1002.6632556971089798
 21
31.6268844774319895
 31
0.0
  0
LINE
  5
620A
  8
0
 10
1002.7545998145450312
 20
31.5593025249094197
 30
0.0
 11
1001.9402193625170412
 21
31.5542460161103691
 31
0.0
  0
LINE
  5
620B
  8
0
 10
1001.8400557739620353
 20
31.5536240978588012
 30
0.0
 11
999.9361146396712456
 21
31.5418024792597897
 31
0.0
  0
LINE
  5
620C
  8
0
 10
999.8359513839327519
 20
31.5411805630746507
 30
0.0
 11
999.1190625381872223
 21
31.5367293821217913
 31
0.0
  0
LINE
  5
620D
  8
0
 10
999.049345443630159
 20
31.4670860392806695
 30
0.0
 11
999.8407728326385495
 21
31.4723244348655804
 31
0.0
  0
LINE
  5
620E
  8
0
 10
999.9409313743583425
 20
31.4729873763685113
 30
0.0
 11
1001.8448197279759597
 21
31.4855890635026299
 31
0.0
  0
LINE
  5
620F
  8
0
 10
1001.9449786244630332
 20
31.4862520073537588
 30
0.0
 11
1002.6223119232099634
 21
31.4907352231369408
 31
0.0
  0
ARC
  5
6210
  8
0
 10
1002.6256402008980331
 20
30.9878923054349684
 30
0.0
 40
0.5028539323853046
 50
54.7827783396612134
 51
90.3792307161620272
  0
LINE
  5
6211
  8
0
 10
998.9798023143475802
 20
31.3975392657262695
 30
0.0
 11
999.8455911945052321
 21
31.4035123904568003
 31
0.0
  0
LINE
  5
6212
  8
0
 10
999.9457459328922369
 20
31.4042033634623898
 30
0.0
 11
1001.8495987984149451
 21
31.4173381482752916
 31
0.0
  0
LINE
  5
6213
  8
0
 10
1001.9497539065699812
 20
31.4180291238319001
 30
0.0
 11
1002.8752612529899579
 21
31.4244142495200016
 31
0.0
  0
LINE
  5
6214
  8
0
 10
1002.9568831485549936
 20
31.3574514910551514
 30
0.0
 11
1001.9545067777080476
 21
31.3501264184455408
 31
0.0
  0
LINE
  5
6215
  8
0
 10
1001.8543563499910078
 20
31.3493945484850087
 30
0.0
 11
999.950556096847663
 21
31.3354821344516417
 31
0.0
  0
LINE
  5
6216
  8
0
 10
999.8504060607787096
 20
31.3347502673531686
 30
0.0
 11
998.9101458200427714
 21
31.3278791212092109
 31
0.0
  0
LINE
  5
6217
  8
0
 10
1002.8122813074099895
 20
31.2897736688369186
 30
0.0
 11
1001.9591952726809723
 21
31.2831434341367185
 31
0.0
  0
LINE
  5
6218
  8
0
 10
1001.8590498909139797
 20
31.282365098355509
 30
0.0
 11
999.9553096897225259
 21
31.2675691178466799
 31
0.0
  0
LINE
  5
6219
  8
0
 10
999.8551647244632932
 20
31.2667907853026499
 30
0.0
 11
999.0473070327104779
 21
31.2605120679369293
 31
0.0
  0
ARC
  5
621A
  8
0
 10
999.051237928835917
 20
30.754739234808369
 30
0.0
 40
0.5057881084755015
 50
90.4452971931973053
 51
131.8646616552308899
  0
ARC
  5
621B
  8
0
 10
1002.8151667060250247
 20
30.78166319498024
 30
0.0
 40
0.5081186664235142
 50
48.1468843638488835
 51
90.3253611061838058
  0
LINE
  5
621C
  8
0
 10
998.7919693732693531
 20
31.1890218924976388
 30
0.0
 11
999.8599910368901647
 21
31.1978651972636385
 31
0.0
  0
LINE
  5
621D
  8
0
 10
999.9601305999174201
 20
31.1986943608519098
 30
0.0
 11
1001.8638049610340204
 21
31.2144569367658313
 31
0.0
  0
LINE
  5
621E
  8
0
 10
1001.9639449677620178
 20
31.2152861040280492
 30
0.0
 11
1003.0645053016099837
 21
31.2243988315850594
 31
0.0
  0
LINE
  5
621F
  8
0
 10
1003.1553957104730443
 20
31.1589389291186194
 30
0.0
 11
1001.9686255882099886
 21
31.1484156204716101
 31
0.0
  0
LINE
  5
6220
  8
0
 10
1001.8684914839010389
 20
31.1475277129771406
 30
0.0
 11
999.9648935150544276
 21
31.130648160155431
 31
0.0
  0
LINE
  5
6221
  8
0
 10
999.8647598858690344
 20
31.1297602568740217
 30
0.0
 11
998.7017250339453085
 21
31.1194474132284995
 31
0.0
  0
LINE
  5
6222
  8
0
 10
998.6322223955966138
 20
31.0499411327300017
 30
0.0
 11
999.8695004116774498
 21
31.0620598056673884
 31
0.0
  0
LINE
  5
6223
  8
0
 10
999.9696257347196706
 20
31.0630404955583117
 30
0.0
 11
1001.8731019739740304
 21
31.0816843295937097
 31
0.0
  0
LINE
  5
6224
  8
0
 10
1001.9732278217660451
 20
31.0826650246244185
 30
0.0
 11
1003.0080696313100361
 21
31.0928009110369317
 31
0.0
  0
LINE
  5
6225
  8
0
 10
1003.2565929772490563
 20
31.0292255202140304
 30
0.0
 11
1001.9778906879829492
 21
31.0160481899100695
 31
0.0
  0
LINE
  5
6226
  8
0
 10
1001.877770198763983
 20
31.0150164245275199
 30
0.0
 11
999.9743601591145534
 21
30.9954013327217091
 31
0.0
  0
LINE
  5
6227
  8
0
 10
999.8742402219608039
 20
30.9943695730283402
 30
0.0
 11
998.563143291082838
 21
30.980858408260989
 31
0.0
  0
LINE
  5
6228
  8
0
 10
998.4940219562530501
 20
30.9117334512630499
 30
0.0
 11
999.8789387202522221
 21
30.9272693256769493
 31
0.0
  0
LINE
  5
6229
  8
0
 10
999.9790504724192033
 20
30.9283923705049304
 30
0.0
 11
1001.8823407571879898
 21
30.9497433134684492
 31
0.0
  0
LINE
  5
622A
  8
0
 10
1001.9824531102369747
 20
30.9508663650370899
 30
0.0
 11
1003.3469501882690338
 21
30.9661731732102794
 31
0.0
  0
ARC
  5
622B
  8
0
 10
1003.2034263709530251
 20
30.4003696597809494
 30
0.0
 40
0.5025726703620892
 50
46.3811084096730468
 51
90.8210088718280133
  0
LINE
  5
622C
  8
0
 10
1003.1962250988100323
 20
30.9028907346369088
 30
0.0
 11
1001.986851980769984
 21
30.8880211497713617
 31
0.0
  0
LINE
  5
622D
  8
0
 10
1001.8867488538279531
 20
30.8867903534859387
 30
0.0
 11
999.9836002914927349
 21
30.8633906031216689
 31
0.0
  0
LINE
  5
622E
  8
0
 10
999.8834978230432853
 20
30.8621598149326317
 30
0.0
 11
998.7061133763104408
 21
30.8476835398369111
 31
0.0
  0
ARC
  5
622F
  8
0
 10
998.7146536269035551
 20
30.1530878546074597
 30
0.0
 40
0.6946481856447595
 50
90.7044323339645047
 51
130.4355550439260014
  0
LINE
  5
6230
  8
0
 10
998.4045214189958415
 20
30.7746617564387712
 30
0.0
 11
999.8882158914651654
 21
30.7947800824115916
 31
0.0
  0
LINE
  5
6231
  8
0
 10
999.988307708290904
 20
30.7961372889223597
 30
0.0
 11
1001.8912897403720308
 21
30.8219409928198083
 31
0.0
  0
LINE
  5
6232
  8
0
 10
1001.9913822832750157
 20
30.8232982091759595
 30
0.0
 11
1003.4415264716479896
 21
30.8429616062098901
 31
0.0
  0
LINE
  5
6233
  8
0
 10
1003.5272092126670032
 20
30.7847444253503113
 30
0.0
 11
1001.9956971683390066
 21
30.7616528666387694
 31
0.0
  0
LINE
  5
6234
  8
0
 10
1001.8956169012010378
 20
30.7601438942653616
 30
0.0
 11
999.9928352023074467
 21
30.7314544722800598
 31
0.0
  0
LINE
  5
6235
  8
0
 10
999.8927557423595545
 20
30.729945512077169
 30
0.0
 11
998.2939374232439604
 21
30.7058391348392092
 31
0.0
  0
LINE
  5
6236
  8
0
 10
998.2640574809905729
 20
30.6386550629296686
 30
0.0
 11
999.8972098607621319
 21
30.6663353055802794
 31
0.0
  0
LINE
  5
6237
  8
0
 10
999.9972745272535803
 20
30.6680312981180805
 30
0.0
 11
1001.8998088850670456
 21
30.7002772865070597
 31
0.0
  0
LINE
  5
6238
  8
0
 10
1001.9998744586949897
 20
30.7019732944199291
 30
0.0
 11
1003.5854868559839588
 21
30.7288477835676908
 31
0.0
  0
LINE
  5
6239
  8
0
 10
1003.6347496867290374
 20
30.6764580549710217
 30
0.0
 11
1002.0038590347810441
 21
30.6450469675339683
 31
0.0
  0
LINE
  5
623A
  8
0
 10
1001.9038111540450018
 20
30.6431200371625287
 30
0.0
 11
1000.0015826224670263
 21
30.6064829599561108
 31
0.0
  0
LINE
  5
623B
  8
0
 10
999.901535772229181
 20
30.6045560494322402
 30
0.0
 11
998.2663424173351814
 21
30.5730620915842906
 31
0.0
  0
LINE
  5
623C
  8
0
 10
998.2685583729779637
 20
30.5094493282225017
 30
0.0
 11
999.9056657323518493
 21
30.54557521585361
 31
0.0
  0
LINE
  5
623D
  8
0
 10
1000.0056913815089956
 20
30.5477824720491107
 30
0.0
 11
1001.9075481953740336
 21
30.5897505599419297
 31
0.0
  0
LINE
  5
623E
  8
0
 10
1002.0075750247430051
 20
30.5919578421810989
 30
0.0
 11
1003.6398452520660385
 21
30.6279769892934191
 31
0.0
  0
LINE
  5
623F
  8
0
 10
1003.6442575674859654
 20
30.5859966123280209
 30
0.0
 11
1002.0109008874139818
 21
30.5444423370240692
 31
0.0
  0
LINE
  5
6240
  8
0
 10
1001.9108989178459979
 20
30.5418981839771391
 30
0.0
 11
1000.0094891948290297
 21
30.4935243633292998
 31
0.0
  0
LINE
  5
6241
  8
0
 10
999.9094885852914558
 20
30.490980244882909
 30
0.0
 11
998.2706541460345306
 21
30.44928660974659
 31
0.0
  0
LINE
  5
6242
  8
0
 10
999.1661731077206241
 20
30.4205393701369111
 30
0.0
 11
999.9128755826304769
 21
30.4426098198823105
 31
0.0
  0
LINE
  5
6243
  8
0
 10
1000.0128461484530362
 20
30.4455646719461015
 30
0.0
 11
1001.9137102516580171
 21
30.5017489315036983
 31
0.0
  0
LINE
  5
6244
  8
0
 10
1002.0136823966460042
 20
30.5047038302432192
 30
0.0
 11
1003.6477254828020023
 21
30.5530016021492088
 31
0.0
  0
LINE
  5
6245
  8
0
 10
1003.650024614214999
 20
30.5311268279713808
 30
0.0
 11
1002.0156574629349961
 21
30.4764867083232005
 31
0.0
  0
LINE
  5
6246
  8
0
 10
1001.9157131321300085
 20
30.4731453720823993
 30
0.0
 11
1000.3421894631929945
 21
30.4205393701369111
 31
0.0
  0
LINE
  5
6247
  8
0
 10
1003.651065696366004
 20
30.5212215929728892
 30
0.0
 11
1000.7612803279009768
 21
30.4205393701369111
 31
0.0
  0
LINE
  5
6248
  8
0
 10
999.8761873082066813
 20
32.8982566909369325
 30
0.0
 11
1001.7116189601059659
 21
32.8888537202369093
 31
0.0
  0
LINE
  5
6249
  8
0
 10
1001.7264792815000192
 20
33.1911889617362021
 30
0.0
 11
1001.7153876211000352
 21
33.1825464774362402
 31
0.0
  0
ARC
  5
624A
  8
0
 10
1004.2509357820889591
 20
33.007919042797603
 30
0.0
 40
2.5415544884224031
 50
176.0601654381754031
 51
182.2807054605746089
  0
ARC
  5
624B
  8
0
 10
1001.8247012072730513
 20
32.8992324830639973
 30
0.0
 40
0.1135575331802913
 50
176.190536622682913
 51
185.243952685333312
  0
LINE
  5
624C
  8
0
 10
1001.7116189601059659
 20
32.8888537202369093
 30
0.0
 11
1001.8156317351069902
 21
31.9024289599369091
 31
0.0
  0
LINE
  5
624D
  8
0
 10
1001.8156317351069902
 20
31.9024289599369091
 30
0.0
 11
1001.9165782256469583
 21
30.4607907886858698
 31
0.0
  0
LINE
  5
624E
  8
0
 10
1001.7264792815000192
 20
33.1911889617362021
 30
0.0
 11
1001.8267265447999534
 21
33.1908484013362113
 31
0.0
  0
LINE
  5
624F
  8
0
 10
1001.8267265447999534
 20
33.1908484013362113
 30
0.0
 11
1001.8389910920999455
 21
33.1821000384362108
 31
0.0
  0
ARC
  5
6250
  8
0
 10
997.9994114286356535
 20
32.4774319142886725
 30
0.0
 40
3.903707104443324
 50
6.3032445703262523
 51
10.3996158125592295
  0
ARC
  5
6251
  8
0
 10
1001.7642598094380446
 20
32.8824555115531894
 30
0.0
 40
0.1176444314235489
 50
2.7506174958410692
 51
11.5557743758498308
  0
LINE
  5
6252
  8
0
 10
1001.8817686991070559
 20
32.8881011376369088
 30
0.0
 11
1001.9158785910060487
 21
31.9019946061369488
 31
0.0
  0
LINE
  5
6253
  8
0
 10
1001.9158785910060487
 20
31.9019946061369488
 30
0.0
 11
1002.0165123955280251
 21
30.4642725678071997
 31
0.0
  0
LINE
  5
6254
  8
0
 10
1001.7264792815000192
 20
33.1911889617362021
 30
0.0
 11
1001.7481701206070284
 21
32.8669756617369515
 31
0.0
  0
LINE
  5
6255
  8
0
 10
1001.7481701206070284
 20
32.8669756617369515
 30
0.0
 11
1001.8156317351069902
 21
31.9024289599369091
 31
0.0
  0
LINE
  5
6256
  8
0
 10
1001.8267265447999534
 20
33.1908484013362113
 30
0.0
 11
1001.8484316806069501
 21
32.8667260223369269
 31
0.0
  0
LINE
  5
6257
  8
0
 10
1001.8484316806069501
 20
32.8667260223369269
 30
0.0
 11
1001.9158785910060487
 21
31.9019946061369488
 31
0.0
  0
ARC
  5
6258
  8
0
 10
1003.6594262223790111
 20
28.7888725572481086
 30
0.0
 40
4.1259767160766669
 50
89.7522480255956054
 51
93.3187622785964948
  0
LINE
  5
6259
  8
0
 10
1003.6772672518740137
 20
32.9148107001767585
 30
0.0
 11
1003.9039940001899822
 21
30.7145373711369416
 31
0.0
  0
LINE
  5
625A
  8
0
 10
1003.9039940001899822
 20
30.7145373711369416
 30
0.0
 11
1004.0042246487900002
 21
30.7142229602368992
 31
0.0
  0
LINE
  5
625B
  8
0
 10
1004.0042246487900002
 20
30.7142229602368992
 30
0.0
 11
1003.9240858500739932
 21
32.9130393859767878
 31
0.0
  0
LINE
  5
625C
  8
0
 10
1003.9039940001899822
 20
30.7145373711369416
 30
0.0
 11
1003.7824699729900431
 21
32.4519702218369233
 31
0.0
  0
LINE
  5
625D
  8
0
 10
1003.7824699729900431
 20
32.4519702218369233
 30
0.0
 11
1003.7260169576419457
 21
33.2452900120440518
 31
0.0
  0
LINE
  5
625E
  8
0
 10
1003.7260169576419457
 20
33.2452900120440518
 30
0.0
 11
1003.8261536845419641
 21
33.2465052538440773
 31
0.0
  0
LINE
  5
625F
  8
0
 10
1003.8261536845419641
 20
33.2465052538440773
 30
0.0
 11
1003.883397217290053
 21
32.4421285886369404
 31
0.0
  0
LINE
  5
6260
  8
0
 10
1003.883397217290053
 20
32.4421285886369404
 30
0.0
 11
1004.0042246487900002
 21
30.7142229602368992
 31
0.0
  0
LINE
  5
6261
  8
0
 10
1003.7260169576419457
 20
33.2452900120440518
 30
0.0
 11
1003.716088406942049
 21
33.237200840844082
 31
0.0
  0
ARC
  5
6262
  8
0
 10
1004.7120642093480001
 20
33.1673614172165685
 30
0.0
 40
0.9984214260867993
 50
175.9888935345539096
 51
183.1728347118470879
  0
ARC
  5
6263
  8
0
 10
1002.8769298813609794
 20
33.1129778377513233
 30
0.0
 40
0.8382438228190592
 50
346.9138473513031045
 51
359.9400439495025239
  0
LINE
  5
6264
  8
0
 10
1003.6934051125740552
 20
32.9231861010768014
 30
0.0
 11
1003.6772672518740137
 21
32.9148107001767585
 31
0.0
  0
LINE
  5
6265
  8
0
 10
1003.8261536845419641
 20
33.2465052538440773
 30
0.0
 11
1003.8372214149419506
 21
33.2386434431440989
 31
0.0
  0
ARC
  5
6266
  8
0
 10
1002.8605843861810172
 20
32.9821459787631923
 30
0.0
 40
1.009757810161138
 50
7.3326595953919051
 51
14.7154520624615692
  0
ARC
  5
6267
  8
0
 10
1004.7273450094929785
 20
33.2159540553479431
 30
0.0
 40
0.8716002854010657
 50
186.9146603777010114
 51
199.7375878029650949
  0
LINE
  5
6268
  8
0
 10
1003.9069519404739594
 20
32.9216034653767906
 30
0.0
 11
1003.9240858500739932
 21
32.9130393859767878
 31
0.0
  0
ARC
  5
6269
  8
0
 10
1004.0507421470549616
 20
35.353130957088581
 30
0.0
 40
2.443376494315983
 50
267.0286506701539793
 51
273.0225888520106992
  0
LINE
  5
626A
  8
0
 10
1004.2733121185100345
 20
30.6912626873369199
 30
0.0
 11
1004.1795805630099494
 21
32.9131536302369412
 31
0.0
  0
LINE
  5
626B
  8
0
 10
1003.4205695336739836
 20
32.9079296512767883
 30
0.0
 11
1001.8817686991070559
 21
32.8881011376369088
 31
0.0
  0
LINE
  5
626C
  8
0
 10
1003.6343824370220545
 20
30.6799522025256088
 30
0.0
 11
1003.6616478244100108
 21
30.4205393701369111
 31
0.0
  0
ARC
  5
626D
  8
0
 10
1003.0086952945359826
 20
30.5777061620268
 30
0.0
 40
0.5150951289929799
 50
47.1678062989919198
 51
90.0695946613066383
  0
LINE
  5
626E
  8
0
 10
1004.2733121185100345
 20
30.6912626873369199
 30
0.0
 11
1005.2014012494099688
 21
32.0167113190369221
 31
0.0
  0
ARC
  5
626F
  8
0
 10
1005.5714128014519702
 20
31.7576264389863887
 30
0.0
 40
0.4517007014770832
 50
126.4195002726363981
 51
144.9999997832103986
  0
ARC
  5
6270
  8
0
 10
1004.6876691339349463
 20
32.922831976117152
 30
0.0
 40
1.010788425773075
 50
307.5173791143336075
 51
2.0575659471547021
  0
LINE
  5
6271
  8
0
 10
1005.6978058625099948
 20
32.9591229014368992
 30
0.0
 11
1005.6872205651100103
 21
33.2622473028368972
 31
0.0
  0
ARC
  5
6272
  8
0
 10
1004.8180202717900329
 20
34.310961627866341
 30
0.0
 40
1.362097972038252
 50
288.2803694260774137
 51
309.6527767912982085
  0
ARC
  5
6273
  8
0
 10
1004.6567870200749439
 20
34.8374499265505122
 30
0.0
 40
1.9126274933543519
 50
274.6776530577192261
 51
287.919516385686677
  0
ARC
  5
6274
  8
0
 10
1004.3038324035049982
 20
39.6732905595634975
 30
0.0
 40
6.7612787121306761
 50
268.9470176983161878
 51
274.3168000173305927
  0
ARC
  5
6275
  8
0
 10
1006.6084821337590256
 20
33.9742559088873577
 30
0.0
 40
0.2149999999289514
 50
114.0842579668449019
 51
174.0000000390047887
  0
LINE
  5
6276
  8
0
 10
1006.3946599263100552
 20
33.9967295283369211
 30
0.0
 11
1006.3585632057099701
 21
33.6532921737369293
 31
0.0
  0
ARC
  5
6277
  8
0
 10
1005.4707075298420023
 20
33.7466095657902088
 30
0.0
 40
0.8927462331654675
 50
284.7286154830545115
 51
353.9999999862898221
  0
ARC
  5
6278
  8
0
 10
1003.9991115608160044
 20
33.9014044128446201
 30
0.0
 40
2.3724611162832629
 50
342.8604366796719773
 51
353.9970246819269164
  0
LINE
  5
6279
  8
0
 10
1006.26167395188304
 20
33.3326434367001028
 30
0.0
 11
1006.2773700405100499
 21
32.8815146162369274
 31
0.0
  0
LINE
  5
627A
  8
0
 10
1006.2773700405100499
 20
32.8815146162369274
 30
0.0
 11
1006.2868669168919951
 21
32.5593673289844787
 31
0.0
  0
LINE
  5
627B
  8
0
 10
1006.2868669168919951
 20
32.5593673289844787
 30
0.0
 11
1006.3004029831099615
 21
32.0998486945368882
 31
0.0
  0
LINE
  5
627C
  8
0
 10
1006.3004029831099615
 20
32.0998486945368882
 30
0.0
 11
1006.3044710711600374
 21
31.9621297677543303
 31
0.0
  0
ARC
  5
627D
  8
0
 10
1005.305022890554028
 20
31.9274611253908311
 30
0.0
 40
1.0000492890249459
 50
303.4597586602101842
 51
1.9866670513822231
  0
ARC
  5
627E
  8
0
 10
1004.0009181024099689
 20
33.9011526465369002
 30
0.0
 40
3.3656670740999641
 50
274.794408742423002
 51
303.4560581064026223
  0
ARC
  5
627F
  8
0
 10
1005.2773903404920475
 20
32.852584869351908
 30
0.0
 40
1.000607146219199
 50
270.497987080885423
 51
0.5169152359623409
  0
LINE
  5
6280
  8
0
 10
1005.2860870222100402
 20
31.8520155170369392
 30
0.0
 11
1005.0849251221869736
 21
31.8503661714494193
 31
0.0
  0
ARC
  5
6281
  8
0
 10
1005.2797180344920207
 20
32.7848348066519293
 30
0.0
 40
1.000607146219199
 50
270.497987080885423
 51
359.8070217229063132
  0
LINE
  5
6282
  8
0
 10
1005.2884147162100135
 20
31.7842654543369498
 30
0.0
 11
1005.0371986528140269
 21
31.782205709894189
 31
0.0
  0
LINE
  5
6283
  8
0
 10
1004.2770095590090023
 20
30.6965431795727604
 30
0.0
 11
1004.2866478244100108
 21
30.4205393701369111
 31
0.0
  0
LINE
  5
6284
  8
0
 10
1004.2775760786589672
 20
30.6803201793853191
 30
0.0
 11
1005.1943909003100543
 21
31.5971350010369214
 31
0.0
  0
ARC
  5
6285
  8
0
 10
1005.5454020169320302
 20
31.2372773272895792
 30
0.0
 40
0.5026990643979902
 50
100.1362997449470953
 51
134.287007350226304
  0
ARC
  5
6286
  8
0
 10
1005.2811260739939598
 20
32.7175710774507209
 30
0.0
 40
1.0010001835278239
 50
280.1153257648591079
 51
0.1564069021051784
  0
LINE
  5
6287
  8
0
 10
1005.2561298078650225
 20
31.6484074020939907
 30
0.0
 11
1005.32605160286505
 21
31.6507983908405208
 31
0.0
  0
ARC
  5
6288
  8
0
 10
1005.2833529216450188
 20
32.6504506580039902
 30
0.0
 40
1.0005637574002999
 50
272.4458185347729113
 51
0.6339373831847013
  0
ARC
  5
6289
  8
0
 10
1005.1604296287340503
 20
33.7935333992750202
 30
0.0
 40
2.2125125131566499
 50
270.4640588011387763
 51
275.9425703933724776
  0
ARC
  5
628A
  8
0
 10
1005.2851541164679929
 20
32.5880491504394811
 30
0.0
 40
1.0005936943102161
 50
275.9855987829232049
 51
0.6605556746480122
  0
LINE
  5
628B
  8
0
 10
1004.2779187627389774
 20
30.6705069912653094
 30
0.0
 11
1004.9890646966099439
 21
31.3816529251369616
 31
0.0
  0
ARC
  5
628C
  8
0
 10
1005.3399729362820381
 20
31.0239426108492999
 30
0.0
 40
0.5010920690027387
 50
95.2619864050102478
 51
134.4500310558923104
  0
ARC
  5
628D
  8
0
 10
1005.147592406224021
 20
33.2993669507416215
 30
0.0
 40
1.7824684160113531
 50
274.7120174609038941
 51
279.6147378166911039
  0
ARC
  5
628E
  8
0
 10
1005.2868873913359948
 20
32.5298834571898965
 30
0.0
 40
1.0005672485290109
 50
279.1098194629446994
 51
0.6847594100884959
  0
ARC
  5
628F
  8
0
 10
1005.0104369951000081
 20
33.8004831536474626
 30
0.0
 40
2.3545511394942391
 50
271.4732609701974866
 51
281.8718387544179791
  0
ARC
  5
6290
  8
0
 10
1005.2886617404100207
 20
32.4750838395369215
 30
0.0
 40
1.0002646154000061
 50
281.8942831467978749
 51
1.423867778947026
  0
ARC
  5
6291
  8
0
 10
1004.9399475444130303
 20
33.7704670042256794
 30
0.0
 40
2.3914644901727069
 50
271.124375246666375
 51
285.3515128821438793
  0
ARC
  5
6292
  8
0
 10
1005.2903292699320446
 20
32.4236479453333573
 30
0.0
 40
1.0001145218196541
 50
286.4215683745268279
 51
1.3975048733313871
  0
ARC
  5
6293
  8
0
 10
1005.1285800770169772
 20
30.8231044679519606
 30
0.0
 40
0.5007761991102947
 50
95.0990481171085662
 51
125.2924223172724965
  0
ARC
  5
6294
  8
0
 10
1004.8616810913899826
 20
33.8142101914767181
 30
0.0
 40
2.5022137305816581
 50
275.0990481171085094
 51
286.6381795687938165
  0
ARC
  5
6295
  8
0
 10
1005.2917755749359685
 20
32.3749905559052422
 30
0.0
 40
1.0001037398715871
 50
286.6381795687938165
 51
1.373424506999386
  0
ARC
  5
6296
  8
0
 10
1004.7880325688270204
 20
33.8217973021098217
 30
0.0
 40
2.5761849494494622
 50
271.6321875435393167
 51
288.6910782300507776
  0
ARC
  5
6297
  8
0
 10
1005.2931010393480165
 20
32.3288713346997767
 30
0.0
 40
1.000138597313438
 50
288.6910782300507776
 51
1.3551406757459219
  0
ARC
  5
6298
  8
0
 10
1004.7155282650350046
 20
33.8266704747287008
 30
0.0
 40
2.6468790417895769
 50
271.5733121354535911
 51
290.5764332246711774
  0
ARC
  5
6299
  8
0
 10
1005.2942268447419565
 20
32.2851429418632918
 30
0.0
 40
1.000307093547584
 50
290.5764332246650952
 51
1.2981763944876621
  0
ARC
  5
629A
  8
0
 10
1004.9321397102289666
 20
30.6267343054949492
 30
0.0
 40
0.5007262845331037
 50
95.1604344908777762
 51
125.2921223132369022
  0
ARC
  5
629B
  8
0
 10
1004.64215809528298
 20
33.8376600998778372
 30
0.0
 40
2.7232671698708781
 50
275.1604344908777762
 51
292.2904283453578955
  0
ARC
  5
629C
  8
0
 10
1005.2958169961619888
 20
32.2431163159063772
 30
0.0
 40
0.9999448443320776
 50
292.2904283453578955
 51
1.3969734674712759
  0
ARC
  5
629D
  8
0
 10
1004.5706091068219621
 20
33.8443476456690817
 30
0.0
 40
2.794535668017176
 50
271.975724118231426
 51
293.8754655156507738
  0
ARC
  5
629E
  8
0
 10
1005.2969571921710212
 20
32.2033532982712813
 30
0.0
 40
0.9999761150119981
 50
293.8754655156507738
 51
1.394963766606222
  0
ARC
  5
629F
  8
0
 10
1004.5008320366349608
 20
33.8487593075893187
 30
0.0
 40
2.8625016267802161
 50
271.8897354911018169
 51
295.3385295937496267
  0
ARC
  5
62A0
  8
0
 10
1005.2978224467259452
 20
32.1656434413398031
 30
0.0
 40
1.000225403177049
 50
295.3385295937496267
 51
1.3547831449971059
  0
ARC
  5
62A1
  8
0
 10
1004.7424263625589447
 20
30.43719940991474
 30
0.0
 40
0.5005973105764392
 50
95.2087819249944971
 51
125.2927619952475027
  0
ARC
  5
62A2
  8
0
 10
1004.4305077594869999
 20
33.8587974134454228
 30
0.0
 40
2.935188787641573
 50
275.2087819249945255
 51
296.6687799000081895
  0
ARC
  5
62A3
  8
0
 10
1005.2990653560530063
 20
32.1295160809015101
 30
0.0
 40
1.000038605966078
 50
296.6687799000081895
 51
1.448683799638808
  0
ARC
  5
62A4
  8
0
 10
1004.3626447051100286
 20
33.8662176075371804
 30
0.0
 40
3.0036634970002289
 50
272.2841911231230938
 51
297.8961299953979278
  0
ARC
  5
62A5
  8
0
 10
1005.3000965615309497
 20
32.0953899298433001
 30
0.0
 40
1.0000051810207631
 50
297.8961299953979278
 51
1.599105213969656
  0
ARC
  5
62A6
  8
0
 10
1004.2970589171100073
 20
33.8728713788368125
 30
0.0
 40
3.069459599799885
 50
272.1649905396635063
 51
299.0215643676054924
  0
ARC
  5
62A7
  8
0
 10
1005.3010129467239722
 20
32.0632969022077035
 30
0.0
 40
1.0000433825913511
 50
299.0215643676054924
 51
1.4378246645415891
  0
ARC
  5
62A8
  8
0
 10
1004.234327456309984
 20
33.8791425092367717
 30
0.0
 40
3.132336771299848
 50
272.237235170761096
 51
300.0439979165985278
  0
ARC
  5
62A9
  8
0
 10
1005.3018905044509665
 20
32.03334387753074
 30
0.0
 40
1.0000461132132119
 50
300.0439979165985278
 51
1.504637919556709
  0
ARC
  5
62AA
  8
0
 10
1004.1753203659100109
 20
33.8852453504372306
 30
0.0
 40
3.191657373300318
 50
272.3030635874710015
 51
300.9588390395992974
  0
ARC
  5
62AB
  8
0
 10
1005.3027700525490218
 20
32.0057969304558014
 30
0.0
 40
0.9999755626184771
 50
300.9588390395992974
 51
1.6290421133656621
  0
ARC
  5
62AC
  8
0
 10
1004.1216461741820467
 20
33.8901843463615435
 30
0.0
 40
3.2451856670633861
 50
272.7735565275120848
 51
301.7617404662623244
  0
ARC
  5
62AD
  8
0
 10
1005.3024553583600209
 20
31.9821985240662912
 30
0.0
 40
1.001367537999827
 50
301.7826116536792824
 51
0.1108694039733017
  0
ARC
  5
62AE
  8
0
 10
1004.0748174015840277
 20
33.8947450360353173
 30
0.0
 40
3.292101069031093
 50
273.5744497263632979
 51
302.4340259672641196
  0
ARC
  5
62AF
  8
0
 10
1005.3041839836449753
 20
31.9601137461808698
 30
0.0
 40
0.9999098857371148
 50
302.4340259672641196
 51
1.3357622154832629
  0
ARC
  5
62B0
  8
0
 10
1004.0373739021770234
 20
33.8981152529952965
 30
0.0
 40
3.3294434152631012
 50
274.1990766698916104
 51
302.957573022925601
  0
ARC
  5
62B1
  8
0
 10
1005.3046086421429663
 20
31.9435256688055311
 30
0.0
 40
1.00000049342107
 50
302.9591988381500869
 51
1.2893548667402019
  0
ARC
  5
62B2
  8
0
 10
1004.0119894597929715
 20
33.8999087576396008
 30
0.0
 40
3.3543925498094609
 50
274.6153466168065052
 51
303.3499504969607869
  0
ARC
  5
62B3
  8
0
 10
1005.3106900509579873
 20
31.9265772536202199
 30
0.0
 40
0.9920503962995993
 50
303.3499504969607869
 51
354.0040582695510238
  0
ARC
  5
62B4
  8
0
 10
979.1646938196818155
 20
35.3093511000821465
 30
0.0
 40
0.1300905718693083
 50
60.5703801536802402
 51
89.9904303262053844
  0
LINE
  5
62B5
  8
0
 10
979.1647155477104434
 20
35.4394416701369508
 30
0.0
 11
978.1038703841104507
 21
35.4394416701369508
 31
0.0
  0
LINE
  5
62B6
  8
0
 10
978.6212773333722907
 20
35.3384653409369207
 30
0.0
 11
978.1038703841104507
 21
35.3384653409369207
 31
0.0
  0
LINE
  5
62B7
  8
0
 10
978.3979583853520126
 20
34.9674299201369081
 30
0.0
 11
978.1338521434114455
 21
34.9674299201369081
 31
0.0
  0
ARC
  5
62B8
  8
0
 10
978.1342579181025485
 20
34.9980278337290471
 30
0.0
 40
0.0306006040674601
 50
186.7652862999150045
 51
269.2402156951779943
  0
LINE
  5
62B9
  8
0
 10
978.3957548059104283
 20
34.8441891162087316
 30
0.0
 11
978.1333307871103671
 21
34.8448350924369379
 31
0.0
  0
ARC
  5
62BA
  8
0
 10
978.1332584322096864
 20
34.8154413423150118
 30
0.0
 40
0.029393839175246
 50
89.858962464783886
 51
181.137355510051691
  0
LINE
  5
62BB
  8
0
 10
978.1038703841104507
 20
34.8148578953369565
 30
0.0
 11
978.1038703841104507
 21
34.5817893701369599
 31
0.0
  0
ARC
  5
62BC
  8
0
 10
978.1351337806895572
 20
34.5817893701369599
 30
0.0
 40
0.0312633965791909
 50
180.0
 51
268.3226180665041056
  0
LINE
  5
62BD
  8
0
 10
978.1342186491866642
 20
34.5505393701369599
 30
0.0
 11
978.3004709386104878
 21
34.5505393701369599
 31
0.0
  0
LINE
  5
62BE
  8
0
 10
978.3004709386104878
 20
34.5505393701369599
 30
0.0
 11
978.3957548059104283
 21
34.5587872099466722
 31
0.0
  0
LINE
  5
62BF
  8
0
 10
978.3049849183098559
 20
34.4348390921579721
 30
0.0
 11
978.304920673710285
 21
34.4875219204368975
 31
0.0
  0
ARC
  5
62C0
  8
0
 10
978.2409387397792671
 20
34.4874438970306869
 30
0.0
 40
0.0639819815042633
 50
0.0698698740468195
 51
80.4511088111735546
  0
LINE
  5
62C1
  8
0
 10
986.9938912543351535
 20
35.4205393701369076
 30
0.0
 11
986.9980858844104432
 21
35.906336473486931
 31
0.0
  0
ARC
  5
62C2
  8
0
 10
992.1271034322417108
 20
35.8620498132445391
 30
0.0
 40
5.1292087415348124
 50
176.3883044275472116
 51
179.505290118410187
  0
LINE
  5
62C3
  8
0
 10
987.102642998085571
 20
35.4205393701369076
 30
0.0
 11
987.0984483680102812
 21
35.906336473486931
 31
0.0
  0
ARC
  5
62C4
  8
0
 10
981.9694308201788999
 20
35.8620498132445391
 30
0.0
 40
5.1292087415348124
 50
0.4947098815898042
 51
3.611695572452815
  0
LINE
  5
62C5
  8
0
 10
987.0080818612104849
 20
36.1851604282869133
 30
0.0
 11
987.0884523912104669
 21
36.1851604282869133
 31
0.0
  0
LINE
  5
62C6
  8
0
 10
993.4738995477420076
 20
35.4205393701369076
 30
0.0
 11
993.4781490862602595
 21
35.9126956427369421
 31
0.0
  0
ARC
  5
62C7
  8
0
 10
998.6071666340917545
 20
35.8684089824945431
 30
0.0
 40
5.1292087415348124
 50
176.3883044275472116
 51
179.505290118410187
  0
LINE
  5
62C8
  8
0
 10
993.5827611083786906
 20
35.4205393701369076
 30
0.0
 11
993.5785115698605523
 21
35.9126956427369421
 31
0.0
  0
ARC
  5
62C9
  8
0
 10
988.4494940220290573
 20
35.8684089824945431
 30
0.0
 40
5.1292087415348124
 50
0.4947098815898042
 51
3.611695572452815
  0
LINE
  5
62CA
  8
0
 10
993.4881450630603013
 20
36.1915195975369102
 30
0.0
 11
993.5685155930603969
 21
36.1915195975369102
 31
0.0
  0
LINE
  5
62CB
  8
0
 10
997.9494480754493679
 20
35.4205393701369076
 30
0.0
 11
997.9542598070604527
 21
35.9778055024869516
 31
0.0
  0
ARC
  5
62CC
  8
0
 10
1003.0832773548919477
 20
35.9335188422445597
 30
0.0
 40
5.1292087415348124
 50
176.3883044275472116
 51
179.505290118410187
  0
LINE
  5
62CD
  8
0
 10
998.059434022271148
 20
35.4205393701369076
 30
0.0
 11
998.0546222906602907
 21
35.9778055024869516
 31
0.0
  0
ARC
  5
62CE
  8
0
 10
992.9256047428291367
 20
35.9335188422445597
 30
0.0
 40
5.1292087415348124
 50
0.4947098815898042
 51
3.611695572452815
  0
LINE
  5
62CF
  8
0
 10
997.964255783860267
 20
36.2566294572869197
 30
0.0
 11
998.044626313860249
 21
36.2566294572869197
 31
0.0
  0
LINE
  5
62D0
  8
0
 10
1006.9128073179100511
 20
35.9558388479369526
 30
0.0
 11
1006.3277952695100339
 21
35.9558388479369526
 31
0.0
  0
LINE
  5
62D1
  8
0
 10
1006.3277952695100339
 20
35.9558388479369526
 30
0.0
 11
1005.9986146498099515
 21
35.9410937620369282
 31
0.0
  0
ARC
  5
62D2
  8
0
 10
1006.0771560476770219
 20
34.1876752877578767
 30
0.0
 40
1.7551766569556311
 50
92.5647525555620945
 51
97.6997942698186961
  0
LINE
  5
62D3
  8
0
 10
1005.8419928681099691
 20
35.9270267117369215
 30
0.0
 11
1005.8419928681099691
 21
35.8079928982369324
 31
0.0
  0
ARC
  5
62D4
  8
0
 10
1005.9854574325249814
 20
35.4972443611381507
 30
0.0
 40
0.3422670515135592
 50
93.6408937347661094
 51
114.7815490061189934
  0
ARC
  5
62D5
  8
0
 10
996.5897170646410359
 20
600.0686898216902136
 30
0.0
 40
564.3077328009203484
 50
270.9518133846012802
 51
270.9629687509145128
  0
LINE
  5
62D6
  8
0
 10
1006.0735766839100052
 20
35.8406563940368983
 30
0.0
 11
1006.9131442644099934
 21
35.8554865946369432
 31
0.0
  0
LINE
  5
62D7
  8
0
 10
1005.9637225077100311
 20
35.8388206009369128
 30
0.0
 11
1006.3267483165100202
 21
35.8350091968369
 31
0.0
  0
LINE
  5
62D8
  8
0
 10
1006.3267483165100202
 20
35.8350091968369
 30
0.0
 11
1006.9131442644099934
 21
35.8554865946369432
 31
0.0
  0
LINE
  5
62D9
  8
0
 10
1005.9700299163330328
 20
35.9395797055573212
 30
0.0
 11
1006.9128073179100511
 21
35.9558388479369526
 31
0.0
  0
ARC
  5
62DA
  8
0
 10
1006.3277952694600117
 20
35.8050274709691507
 30
0.0
 40
0.0299999999414965
 50
91.9999389442329942
 51
178.4458039625932884
  0
ARC
  5
62DB
  8
0
 10
1006.3277952695100339
 20
35.9858388479369182
 30
0.0
 40
0.0299999999999961
 50
181.554196769303104
 51
270.0000000000064801
  0
ARC
  5
62DC
  8
0
 10
1006.9127952696560442
 20
35.865480502746891
 30
0.0
 40
0.0099999998324265
 50
271.9999988121377896
 51
0.0
  0
ARC
  5
62DD
  8
0
 10
1006.9127952549359861
 20
35.9458388375862228
 30
0.0
 40
0.0100000176264445
 50
0.044635592156141
 51
89.9308843533889473
  0
LINE
  5
62DE
  8
0
 10
994.0066174278103972
 20
34.1705393701369573
 30
0.0
 11
994.0137282644104744
 21
33.9659489206368903
 31
0.0
  0
LINE
  5
62DF
  8
0
 10
994.0137282644104744
 20
33.9659489206368903
 30
0.0
 11
993.3887290105102466
 21
33.9659489206368903
 31
0.0
  0
LINE
  5
62E0
  8
0
 10
993.3887290105102466
 20
33.9659489206368903
 30
0.0
 11
993.3672249417104467
 21
34.1705393701369573
 31
0.0
  0
LINE
  5
62E1
  8
0
 10
989.2286696937103443
 20
67.9478893701369202
 30
0.0
 11
998.2286696937103443
 21
67.9478893701369202
 31
0.0
  0
LINE
  5
62E2
  8
0
 10
998.2286696937103443
 20
67.9478893701369202
 30
0.0
 11
998.2286696937103443
 21
62.4478893701369202
 31
0.0
  0
LINE
  5
62E3
  8
0
 10
998.2286696937103443
 20
62.4478893701369202
 30
0.0
 11
989.2286696937103443
 21
62.4478893701369202
 31
0.0
  0
LINE
  5
62E4
  8
0
 10
989.2286696937103443
 20
62.4478893701369202
 30
0.0
 11
989.2286696937103443
 21
67.9478893701369202
 31
0.0
  0
LINE
  5
62E5
  8
0
 10
1006.3127952692940426
 20
67.9905393701369007
 30
0.0
 11
1007.0477952695099475
 21
67.9905393701369007
 31
0.0
  0
LINE
  5
62E6
  8
0
 10
1007.0477952695099475
 20
67.9905393701369007
 30
0.0
 11
1007.0477952695099475
 21
58.9905393701369007
 31
0.0
  0
LINE
  5
62E7
  8
0
 10
1007.0477952695099475
 20
58.9905393701369007
 30
0.0
 11
1006.5580992702730327
 21
58.9905393701369007
 31
0.0
  0
ENDSEC
  0
EOF
