  0
SECTION
  2
HEADER
  9
$ACADVER
  1
AC1009
  9
$INSBASE
 10
748.3715370178831563
 20
48.276585485710882
 30
0.0
  9
$EXTMIN
 10
718.3711469656332156
 20
17.0226365765608811
 30
0.0
  9
$EXTMAX
 10
778.3719270701332107
 20
48.2810462373743334
 30
0.0
  9
$LIMMIN
 10
0.0
 20
0.0
  9
$LIMMAX
 10
11.6929133858000007
 20
8.2677165353999982
  9
$ORTHOMODE
 70
     1
  9
$REGENMODE
 70
     1
  9
$FILLMODE
 70
     1
  9
$QTEXTMODE
 70
     0
  9
$MIRRTEXT
 70
     0
  9
$DRAGMODE
 70
     2
  9
$LTSCALE
 40
0.6431102362
  9
$OSMODE
 70
    23
  9
$ATTMODE
 70
     1
  9
$TEXTSIZE
 40
0.2
  9
$TRACEWID
 40
0.05
  9
$TEXTSTYLE
  7
STANDARD
  9
$CLAYER
  8
0
  9
$CELTYPE
  6
BYLAYER
  9
$CECOLOR
 62
   256
  9
$DIMSCALE
 40
1.0
  9
$DIMASZ
 40
0.1875
  9
$DIMEXO
 40
0.0625
  9
$DIMDLI
 40
0.4443307087
  9
$DIMRND
 40
0.0
  9
$DIMDLE
 40
0.0
  9
$DIMEXE
 40
0.125
  9
$DIMTP
 40
0.01
  9
$DIMTM
 40
0.01
  9
$DIMTXT
 40
2.0
  9
$DIMCEN
 40
0.1052362205
  9
$DIMTSZ
 40
0.0
  9
$DIMTOL
 70
     1
  9
$DIMLIM
 70
     0
  9
$DIMTIH
 70
     1
  9
$DIMTOH
 70
     1
  9
$DIMSE1
 70
     0
  9
$DIMSE2
 70
     0
  9
$DIMTAD
 70
     0
  9
$DIMZIN
 70
     0
  9
$DIMBLK
  1

  9
$DIMASO
 70
     1
  9
$DIMSHO
 70
     1
  9
$DIMPOST
  1
\X
  9
$DIMAPOST
  1

  9
$DIMALT
 70
     1
  9
$DIMALTD
 70
     2
  9
$DIMALTF
 40
25.3999999999999986
  9
$DIMLFAC
 40
1.0
  9
$DIMTOFL
 70
     0
  9
$DIMTVP
 40
0.0
  9
$DIMTIX
 70
     0
  9
$DIMSOXD
 70
     0
  9
$DIMSAH
 70
     0
  9
$DIMBLK1
  1

  9
$DIMBLK2
  1

  9
$DIMSTYLE
  2
STANDARD
  9
$DIMCLRD
 70
     0
  9
$DIMCLRE
 70
     0
  9
$DIMCLRT
 70
     0
  9
$DIMTFAC
 40
1.0
  9
$DIMGAP
 40
0.09
  9
$LUNITS
 70
     2
  9
$LUPREC
 70
     4
  9
$SKETCHINC
 40
0.1
  9
$FILLETRAD
 40
0.0
  9
$AUNITS
 70
     0
  9
$AUPREC
 70
     0
  9
$MENU
  1
.
  9
$ELEVATION
 40
0.0
  9
$PELEVATION
 40
0.0
  9
$THICKNESS
 40
0.0
  9
$LIMCHECK
 70
     0
  9
$BLIPMODE
 70
     0
  9
$CHAMFERA
 40
0.0
  9
$CHAMFERB
 40
0.0
  9
$SKPOLY
 70
     0
  9
$TDCREATE
 40
2458106.4931018520146608
  9
$TDUPDATE
 40
2459712.5530671300366521
  9
$TDINDWG
 40
0.271908287
  9
$TDUSRTIMER
 40
0.271908287
  9
$USRTIMER
 70
     1
  9
$ANGBASE
 50
0.0
  9
$ANGDIR
 70
     0
  9
$PDMODE
 70
     0
  9
$PDSIZE
 40
0.3125
  9
$PLINEWID
 40
0.0
  9
$COORDS
 70
     1
  9
$SPLFRAME
 70
     0
  9
$SPLINETYPE
 70
     6
  9
$SPLINESEGS
 70
     8
  9
$ATTDIA
 70
     1
  9
$ATTREQ
 70
     1
  9
$HANDLING
 70
     1
  9
$HANDSEED
  5
5349
  9
$SURFTAB1
 70
     6
  9
$SURFTAB2
 70
     6
  9
$SURFTYPE
 70
     6
  9
$SURFU
 70
     6
  9
$SURFV
 70
     6
  9
$UCSNAME
  2

  9
$UCSORG
 10
0.0
 20
0.0
 30
0.0
  9
$UCSXDIR
 10
1.0
 20
0.0
 30
0.0
  9
$UCSYDIR
 10
0.0
 20
1.0
 30
0.0
  9
$PUCSNAME
  2

  9
$PUCSORG
 10
0.0
 20
0.0
 30
0.0
  9
$PUCSXDIR
 10
1.0
 20
0.0
 30
0.0
  9
$PUCSYDIR
 10
0.0
 20
1.0
 30
0.0
  9
$USERI1
 70
     0
  9
$USERI2
 70
     0
  9
$USERI3
 70
     0
  9
$USERI4
 70
     0
  9
$USERI5
 70
     0
  9
$USERR1
 40
0.0
  9
$USERR2
 40
0.0
  9
$USERR3
 40
0.0
  9
$USERR4
 40
0.0
  9
$USERR5
 40
0.0
  9
$WORLDVIEW
 70
     1
  9
$SHADEDGE
 70
     3
  9
$SHADEDIF
 70
    70
  9
$TILEMODE
 70
     1
  9
$MAXACTVP
 70
    64
  9
$PLIMCHECK
 70
     0
  9
$PEXTMIN
 10
1.0000000000000000E+20
 20
1.0000000000000000E+20
 30
1.0000000000000000E+20
  9
$PEXTMAX
 10
-1.0000000000000000E+20
 20
-1.0000000000000000E+20
 30
-1.0000000000000000E+20
  9
$PLIMMIN
 10
0.0
 20
0.0
  9
$PLIMMAX
 10
12.0
 20
9.0
  9
$UNITMODE
 70
     0
  9
$VISRETAIN
 70
     1
  9
$PLINEGEN
 70
     0
  9
$PSLTSCALE
 70
     1
  0
ENDSEC
  0
SECTION
  2
TABLES
  0
TABLE
  2
VPORT
 70
     1
  0
VPORT
  2
*ACTIVE
 70
     0
 10
0.0
 20
0.0
 11
1.0
 21
1.0
 12
474.7973354613700963
 22
50.2578021409890781
 13
0.0
 23
0.0
 14
1.0
 24
1.0
 15
0.0
 25
0.0
 16
-0.0000000000000568
 26
0.0
 36
193.9250709296327955
 17
273.5742015565131169
 27
-17.6059607340214797
 37
0.0
 40
31.4541825814448508
 41
2.005224660397074
 42
50.0
 43
0.0
 44
0.0
 50
0.0
 51
0.0
 71
     0
 72
   100
 73
     1
 74
     1
 75
     0
 76
     0
 77
     0
 78
     0
  0
ENDTAB
  0
TABLE
  2
LTYPE
 70
     2
  0
LTYPE
  2
CONTINUOUS
 70
     0
  3
Solid line
 72
    65
 73
     0
 40
0.0
  0
LTYPE
  2
PHANTOM2
 70
     0
  3
___ _ _ ___ _ _ ___ _ _ ___ _ _
 72
    65
 73
     6
 40
1.25
 49
0.625
 49
-0.125
 49
0.125
 49
-0.125
 49
0.125
 49
-0.125
  0
ENDTAB
  0
TABLE
  2
LAYER
 70
     2
  0
LAYER
  2
0
 70
     0
 62
   255
  6
CONTINUOUS
  0
LAYER
  2
DEFPOINTS
 70
     0
 62
     7
  6
CONTINUOUS
  0
ENDTAB
  0
TABLE
  2
STYLE
 70
     1
  0
STYLE
  2
STANDARD
 70
     0
 40
0.0
 41
0.8
 50
0.0
 71
     0
 42
0.2
  3
txt
  4

  0
ENDTAB
  0
TABLE
  2
VIEW
 70
     0
  0
ENDTAB
  0
TABLE
  2
UCS
 70
     0
  0
ENDTAB
  0
TABLE
  2
APPID
 70
    10
  0
APPID
  2
ACAD
 70
     0
  0
APPID
  2
ACAD_MLEADERVER
 70
     0
  0
APPID
  2
ACAD_EXEMPT_FROM_CAD_STANDARDS
 70
     0
  0
APPID
  2
ACAD_NAV_VCDISPLAY
 70
     0
  0
APPID
  2
ACAD_DSTYLE_DIMJAG
 70
     0
  0
APPID
  2
ACAD_DSTYLE_DIMTALN
 70
     0
  0
APPID
  2
ACAECLAYERSTANDARD
 70
     0
  0
APPID
  2
ACCMTRANSPARENCY
 70
     0
  0
APPID
  2
ACDBATTR
 70
     0
  0
APPID
  2
DCO15
 70
     0
  0
ENDTAB
  0
TABLE
  2
DIMSTYLE
 70
     1
  0
DIMSTYLE
  2
STANDARD
 70
     0
  3

  4

  5

  6

  7

 40
1.0
 41
0.1875
 42
0.0625
 43
0.38
 44
0.125
 45
0.0
 46
0.0
 47
0.01
 48
0.01
140
0.15625
141
0.09
142
0.0
143
25.3999999999999986
144
1.0
145
0.0
146
1.0
147
0.09
 71
     1
 72
     0
 73
     1
 74
     1
 75
     0
 76
     0
 77
     0
 78
     4
170
     0
171
     2
172
     0
173
     0
174
     0
175
     0
176
     0
177
     0
178
     0
  0
ENDTAB
  0
ENDSEC
  0
SECTION
  2
BLOCKS
  0
BLOCK
  8
0
  2
$MODEL_SPACE
 70
     0
 10
0.0
 20
0.0
 30
0.0
  3
$MODEL_SPACE
  1

  0
ENDBLK
  5
21
  8
0
  0
BLOCK
 67
     1
  8
0
  2
$PAPER_SPACE
 70
     0
 10
0.0
 20
0.0
 30
0.0
  3
$PAPER_SPACE
  1

  0
ENDBLK
  5
1D
 67
     1
  8
0
  0
ENDSEC
  0
SECTION
  2
ENTITIES
  0
ATTDEF
  5
FAA
  8
DEFPOINTS
 10
748.3716754120639507
 20
48.2800462373743429
 30
0.0
 40
0.001
  1
72440110
  3

  2
MODELNUMBER
 70
     0
1001
ACDBATTR
1070
     0
1070
     1
  0
ATTDEF
  5
FAB
  8
DEFPOINTS
 10
748.3716754120639507
 20
48.2783795707076706
 30
0.0
 40
0.001
  1
ENSEMBLE
  3

  2
TRADENAME
 70
     0
1001
ACDBATTR
1070
     0
1070
     1
  0
ATTDEF
  5
FAC
  8
DEFPOINTS
 10
748.3716754120639507
 20
48.2767129040410126
 30
0.0
 40
0.001
  1
SHOWER STALL
  3

  2
PRODUCT
 70
     0
1001
ACDBATTR
1070
     0
1070
     1
  0
LINE
  5
5106
  8
0
 10
718.6217289255642982
 20
48.276585485710882
 30
0.0
 11
778.0767059900331333
 21
48.276585485710882
 31
0.0
  0
ARC
  5
5107
  8
0
 10
718.6219569105239771
 20
48.0257743327376829
 30
0.0
 40
0.2508112565912468
 50
90.0520813059192591
 51
179.8146973542314981
  0
LINE
  5
5108
  8
0
 10
718.3711469656332156
 20
17.0226365765608811
 30
0.0
 11
718.3711469656332156
 21
48.0265854903665783
 31
0.0
  0
LINE
  5
5109
  8
0
 10
718.4711469656331246
 20
17.0891143068132401
 30
0.0
 11
718.4711469656331246
 21
40.3503564338360476
 31
0.0
  0
LINE
  5
510A
  8
0
 10
718.3711469656332156
 20
40.4964961466331985
 30
0.0
 11
721.0709784842331374
 21
40.3550039723108398
 31
0.0
  0
ARC
  5
510B
  8
0
 10
721.0543732718452929
 20
40.1023668938096876
 30
0.0
 40
0.2531822002275319
 50
354.5489166621268282
 51
86.239498687733203
  0
ARC
  5
510C
  8
0
 10
804.1779756136993456
 20
32.3178893469409374
 30
0.0
 40
83.2341307449659382
 50
174.6501944720172048
 51
179.5723037780335005
  0
ARC
  5
510D
  8
0
 10
720.5690895866415531
 20
40.1214608129146768
 30
0.0
 40
0.2729695059148729
 50
356.3338057804418781
 51
68.9190095830089007
  0
ARC
  5
510E
  8
0
 10
843.5981299855473026
 20
31.3943033546403889
 30
0.0
 40
123.0652226034043935
 50
175.9416093671657109
 51
179.279517227092299
  0
ARC
  5
510F
  8
0
 10
1214.6107520076288893
 20
22.9082291020217497
 30
0.0
 40
494.1699852655528957
 50
178.8365951016658073
 51
179.9287634404564074
  0
ARC
  5
5110
  8
0
 10
719.3257438624096949
 20
23.5497041076108005
 30
0.0
 40
1.115733203347903
 50
330.5180425324218163
 51
358.6098808105415969
  0
ARC
  5
5111
  8
0
 10
716.0336943047158229
 20
25.4226177475457895
 30
0.0
 40
4.9032616940254732
 50
323.0026390943851879
 51
330.3987246313939181
  0
ARC
  5
5112
  8
0
 10
722.8816163399827701
 20
20.3010884166341015
 30
0.0
 40
3.6480746695638082
 50
143.4825073370535051
 51
152.4247696374781924
  0
ARC
  5
5113
  8
0
 10
720.6157948316561033
 20
21.4996623042512596
 30
0.0
 40
1.084891151432352
 50
153.1400000162547883
 51
178.7865812687144
  0
LINE
  5
5114
  8
0
 10
719.5311469656330701
 20
21.5226365765608882
 30
0.0
 11
719.5311469656330701
 21
18.5545668628608809
 31
0.0
  0
ARC
  5
5115
  8
0
 10
719.2811469656331838
 20
18.5545668628608809
 30
0.0
 40
0.2500000000000142
 50
272.0000000000036948
 51
0.0000000000032569
  0
LINE
  5
5116
  8
0
 10
719.2898718398331539
 20
18.3047191560608411
 30
0.0
 11
718.5319482974331322
 21
18.2782518827608413
 31
0.0
  0
ARC
  5
5117
  8
0
 10
718.5341469656219715
 20
18.2152902606678602
 30
0.0
 40
0.0629999999871967
 50
91.9999999064153542
 51
180.0
  0
LINE
  5
5118
  8
0
 10
718.3711469656332156
 20
17.0226365765608811
 30
0.0
 11
718.4136377774332232
 21
17.0263540408608804
 31
0.0
  0
ARC
  5
5119
  8
0
 10
718.408146965662354
 20
17.0891143068132401
 30
0.0
 40
0.0629999999707149
 50
274.9999999818878109
 51
0.0000000433361516
  0
ARC
  5
511A
  8
0
 10
1288.786553333007987
 20
24.7201156780694795
 30
0.0
 40
567.8998690981852633
 50
179.1707421948381977
 51
180.1208165598382891
  0
ARC
  5
511B
  8
0
 10
720.2110902196453708
 20
23.5321655907250005
 30
0.0
 40
0.6769239252760662
 50
335.3310174530236054
 51
359.191711916494512
  0
ARC
  5
511C
  8
0
 10
719.7630703655878506
 20
23.7487525942275184
 30
0.0
 40
1.174494073928477
 50
320.4771767497917949
 51
334.8515854553006079
  0
ARC
  5
511D
  8
0
 10
716.2614819771671364
 20
26.9727508340410296
 30
0.0
 40
5.9328600956753164
 50
310.7295166567283786
 51
317.9795810185281084
  0
ARC
  5
511E
  8
0
 10
722.564567301450893
 20
19.7235450235407193
 30
0.0
 40
3.673562384208179
 50
131.4538688890733056
 51
138.5453457655268892
  0
ARC
  5
511F
  8
0
 10
720.9066562657767463
 20
21.1965507420239199
 30
0.0
 40
1.4558357794668999
 50
138.7974671590988862
 51
151.5393251216408999
  0
ARC
  5
5120
  8
0
 10
720.3830609055357854
 20
21.4899056732451008
 30
0.0
 40
0.8557609738442353
 50
152.1003410410503989
 51
170.7048166347290135
  0
ARC
  5
5121
  8
0
 10
718.2161316620789648
 20
40.3491481091734769
 30
0.0
 40
0.2550181662064411
 50
0.2714793360529671
 51
13.0224988051642203
  0
LINE
  5
5122
  8
0
 10
718.4645911834331855
 20
40.4066122836108477
 30
0.0
 11
718.4575079448331962
 21
40.4348802773108602
 31
0.0
  0
ARC
  5
5123
  8
0
 10
718.3338375006353544
 20
40.4038916166609781
 30
0.0
 40
0.1274938267406115
 50
14.0672198482101702
 51
31.9869135189759106
  0
ARC
  5
5124
  8
0
 10
718.3715809290375773
 20
40.4274643432884702
 30
0.0
 40
0.0829939410305539
 50
31.9869135189821208
 51
43.8126572826078728
  0
ARC
  5
5125
  8
0
 10
718.4084762391522645
 20
40.4628613229186769
 30
0.0
 40
0.0318645945120061
 50
43.8126572826280594
 51
80.1188089510838353
  0
LINE
  5
5126
  8
0
 10
718.3715765437325445
 20
40.5365285271803302
 30
0.0
 11
718.9566392855331287
 21
40.5058666882108511
 31
0.0
  0
ARC
  5
5127
  8
0
 10
718.9493331420967479
 20
40.4761547541989373
 30
0.0
 40
0.0305970383312292
 50
26.3644860075549694
 51
76.185101666801188
  0
ARC
  5
5128
  8
0
 10
718.9023731919241982
 20
40.4511094142548018
 30
0.0
 40
0.0838096983818632
 50
9.068000944756168
 51
27.4490342265122607
  0
ARC
  5
5129
  8
0
 10
718.9599102828688046
 20
40.5682810340887769
 30
0.0
 40
0.0624999999595215
 50
266.999999933227798
 51
357.9996956023704797
  0
LINE
  5
512A
  8
0
 10
719.0187558431333628
 20
40.4625564035208072
 30
0.0
 11
719.0330993893331879
 21
40.8732392692108419
 31
0.0
  0
ARC
  5
512B
  8
0
 10
719.1205460704514962
 20
40.8701850986685074
 30
0.0
 40
0.0874999999788644
 50
87.9999999862439068
 51
177.9996956023672965
  0
LINE
  5
512C
  8
0
 10
719.1235997764331387
 20
40.9576317960108369
 30
0.0
 11
719.2306086134331053
 21
40.9538949651108624
 31
0.0
  0
ARC
  5
512D
  8
0
 10
719.2275549074965966
 20
40.8664482677480123
 30
0.0
 40
0.0874999999978246
 50
2.000304410648682
 51
88.0000000162842042
  0
LINE
  5
512E
  8
0
 10
719.3150015886332085
 20
40.8695024383108532
 30
0.0
 11
719.3263833893331594
 21
40.5436199517108591
 31
0.0
  0
ARC
  5
512F
  8
0
 10
719.388845304410097
 20
40.5458015021101232
 30
0.0
 40
0.0624999999777273
 50
182.0003044087289936
 51
266.9999999881753183
  0
LINE
  5
5130
  8
0
 10
719.3855743071330835
 20
40.4833871562108669
 30
0.0
 11
720.8121814922332078
 21
40.4086218417108398
 31
0.0
  0
ARC
  5
5131
  8
0
 10
720.8154526399262068
 20
40.4710390579501222
 30
0.0
 40
0.0625028742562203
 50
266.9999999992052153
 51
357.996774779140992
  0
LINE
  5
5132
  8
0
 10
720.4037049317331594
 20
40.4937072349108576
 30
0.0
 11
720.5025047549330566
 21
43.3204272484108515
 31
0.0
  0
ARC
  5
5133
  8
0
 10
720.3411956652771551
 20
40.4959298020770007
 30
0.0
 40
0.0625487665560176
 50
268.0221085097285254
 51
357.9636603834484845
  0
LINE
  5
5134
  8
0
 10
720.8779173162331517
 20
40.4688542229108634
 30
0.0
 11
720.979759500833211
 21
43.3843445260108567
 31
0.0
  0
ARC
  5
5135
  8
0
 10
723.6108703320481936
 20
43.3630415286501076
 30
0.0
 40
2.631197070504844
 50
153.8688383343315991
 51
179.5361103169994976
  0
ARC
  5
5136
  8
0
 10
722.8357591110368503
 20
43.7432874733812511
 30
0.0
 40
1.7678406067994641
 50
113.3217401307692001
 51
153.8688383343315991
  0
ARC
  5
5137
  8
0
 10
723.1312302832449177
 20
43.0579270317495499
 30
0.0
 40
2.5141797713617899
 50
88.845352524928856
 51
113.3217401307692001
  0
LINE
  5
5138
  8
0
 10
723.1818936106332103
 20
45.5715962920108311
 30
0.0
 11
730.2684630808048496
 21
45.5715962920108311
 31
0.0
  0
ARC
  5
5139
  8
0
 10
723.1292252667824414
 20
43.1824069424160868
 30
0.0
 40
2.630344131903021
 50
147.7614438299067956
 51
176.9921751568934098
  0
ARC
  5
513A
  8
0
 10
723.954940570750864
 20
42.6616499337758768
 30
0.0
 40
3.6065580558232879
 50
123.4660521883622977
 51
147.7614438299067956
  0
ARC
  5
513B
  8
0
 10
723.2258366863475203
 20
43.7646250890621218
 30
0.0
 40
2.284383079721048
 50
91.1022174626249921
 51
123.4660521883622977
  0
LINE
  5
513C
  8
0
 10
723.1818939798331485
 20
46.0485854857108734
 30
0.0
 11
730.2684631338048575
 21
46.0485854857108734
 31
0.0
  0
ARC
  5
513D
  8
0
 10
730.2635854621756835
 20
40.4520978432552099
 30
0.0
 40
5.5964897680455969
 50
65.8492785309817492
 51
89.9500633352019179
  0
ARC
  5
513E
  8
0
 10
733.0462449683205932
 20
46.6528363599309728
 30
0.0
 40
1.2000073760889729
 50
245.7471184997660032
 51
274.4523158541986163
  0
ARC
  5
513F
  8
0
 10
730.2671043676756426
 20
39.3511967267511977
 30
0.0
 40
6.2203997136505649
 50
79.5901849884826902
 51
89.9874849636554472
  0
ARC
  5
5140
  8
0
 10
730.7350427692550738
 20
42.109051566776742
 30
0.0
 40
3.423598729792503
 50
61.7139998066967905
 51
78.9529848896396658
  0
ARC
  5
5141
  8
0
 10
733.0462429934781312
 20
46.6528299383017711
 30
0.0
 40
1.6769898734764901
 50
245.7470893910137022
 51
274.4524392745423143
  0
ARC
  5
5142
  8
0
 10
718.6663680457330656
 20
48.1140854857108593
 30
0.0
 40
0.1625000000000443
 50
90.0
 51
179.0000000000893863
  0
LINE
  5
5143
  8
0
 10
718.5038927952331278
 20
48.1169215018108503
 30
0.0
 11
718.3711469656332156
 21
40.5119180143355493
 31
0.0
  0
LINE
  5
5144
  8
0
 10
718.4740831147330482
 20
40.6792572011108788
 30
0.0
 11
718.6038775647331249
 21
48.1151762611108893
 31
0.0
  0
ARC
  5
5145
  8
0
 10
718.1969405295520801
 20
40.6834625076634779
 30
0.0
 40
0.277174488588021
 50
338.9293800782668882
 51
359.1306719346227965
  0
ARC
  5
5146
  8
0
 10
718.323921867590343
 20
40.6345392807831871
 30
0.0
 40
0.1410945769979772
 50
324.5164182341043215
 51
338.9293800782700146
  0
ARC
  5
5147
  8
0
 10
718.4021978293774282
 20
40.5803840110330469
 30
0.0
 40
0.0459399116398981
 50
275.8093606563497246
 51
322.8459895264057877
  0
ARC
  5
5148
  8
0
 10
718.6663680457708097
 20
48.1140854856190003
 30
0.0
 40
0.0625000000918738
 50
90.0000000344708866
 51
178.9999999193811959
  0
LINE
  5
5149
  8
0
 10
718.6663680457330656
 20
48.1765854857108593
 30
0.0
 11
778.0767059899956166
 21
48.1765854857108593
 31
0.0
  0
LINE
  5
514A
  8
0
 10
729.4718757030717597
 20
45.5715962920108311
 30
0.0
 11
729.124512168433057
 21
44.5497595065608891
 31
0.0
  0
ARC
  5
514B
  8
0
 10
719.2487231872662505
 20
47.7893646951918925
 30
0.0
 40
10.3935677117506007
 50
337.4167471629335751
 51
341.8386950579580912
  0
ARC
  5
514C
  8
0
 10
726.8028336569574321
 20
44.6219346830776189
 30
0.0
 40
2.2024400752219311
 50
324.1663492648029887
 51
338.0304108427289975
  0
ARC
  5
514D
  8
0
 10
727.5661953806136353
 20
44.0706990139913373
 30
0.0
 40
1.26085530260912
 50
287.9768143965300737
 51
324.1663492648029887
  0
ARC
  5
514E
  8
0
 10
727.1764661734963511
 20
45.2718157968874593
 30
0.0
 40
2.5236182974086709
 50
276.8006464485781066
 51
287.9768143965300737
  0
ARC
  5
514F
  8
0
 10
726.3034221791705249
 20
52.5926801374983768
 30
0.0
 40
9.8963559510659795
 50
272.5666084836561254
 51
276.8006464485781066
  0
ARC
  5
5150
  8
0
 10
728.4803607722926699
 20
8.9405170931295572
 30
0.0
 40
33.8102175138391914
 50
92.9393896795775021
 51
102.9077238420937022
  0
CIRCLE
  5
5151
  8
0
 10
726.8711469656332156
 20
34.2765770323609118
 30
0.0
 40
1.6550000000000009
  0
CIRCLE
  5
5152
  8
0
 10
726.8711469656332156
 20
34.2765770323609118
 30
0.0
 40
2.210745179200003
  0
LINE
  5
5153
  8
0
 10
718.3711469656332156
 20
18.2360879914608489
 30
0.0
 11
718.4136377774332232
 21
18.2391184308608985
 31
0.0
  0
ARC
  5
5154
  8
0
 10
718.4076076419175934
 20
18.3236689925113083
 30
0.0
 40
0.0847653231559847
 50
274.0794205174349827
 51
300.9277172096407185
  0
ARC
  5
5155
  8
0
 10
718.4292403583480109
 20
18.2875630066377397
 30
0.0
 40
0.0426747465852163
 50
300.9277172096329878
 51
349.1125607909185078
  0
ARC
  5
5156
  8
0
 10
748.3715370178833837
 20
-150.1668093108087874
 30
0.0
 40
195.7383971435583021
 50
85.5476681207324816
 51
94.4523318792675326
  0
ARC
  5
5157
  8
0
 10
748.3715370178834974
 20
-150.1668115407676112
 30
0.0
 40
196.2153881131164042
 50
85.5476678758963942
 51
94.4523321241036058
  0
LINE
  5
5159
  8
0
 10
719.0936663956334769
 20
40.4586305078195707
 30
0.0
 11
719.1063956437332081
 21
40.8231484803108629
 31
0.0
  0
LINE
  5
515A
  8
0
 10
719.1063956437332081
 20
40.8231484803108629
 30
0.0
 11
719.2274214413331492
 21
40.8189235567108426
 31
0.0
  0
ARC
  5
515B
  8
0
 10
719.2252235225272443
 20
40.7559626841048726
 30
0.0
 40
0.0629992248077779
 50
1.999342570428962
 51
88.0006574295970267
  0
LINE
  5
515C
  8
0
 10
719.2881843951330438
 20
40.7581606029108912
 30
0.0
 11
719.2990200383322872
 21
40.447868379438539
 31
0.0
  0
LINE
  5
515D
  8
0
 10
720.3591959713561437
 20
22.0873457669286211
 30
0.0
 11
776.3838780644101689
 21
22.0873457669286211
 31
0.0
  0
ARC
  5
515E
  8
0
 10
720.5277633121910412
 20
22.767419476677599
 30
0.0
 40
0.7006534086750078
 50
218.3659492315941009
 51
256.0788759402889809
  0
LINE
  5
515F
  8
0
 10
718.4711469656331246
 20
18.1653501645608912
 30
0.0
 11
778.2719270701330743
 21
18.1653501645608912
 31
0.0
  0
LINE
  5
5160
  8
0
 10
719.3170261458576533
 20
40.8115355348310516
 30
0.0
 11
719.300950222033066
 21
40.5498375573608811
 31
0.0
  0
ARC
  5
5161
  8
0
 10
719.2383762893589392
 20
40.553681430304799
 30
0.0
 40
0.0626918847183587
 50
337.2080699628197067
 51
356.4847775078047789
  0
LINE
  5
5162
  8
0
 10
778.3719270701332107
 20
17.0226365765608811
 30
0.0
 11
778.3719270701332107
 21
47.9242293256607681
 31
0.0
  0
LINE
  5
5163
  8
0
 10
778.2719270701330743
 20
17.0891143068132401
 30
0.0
 11
778.2719270701330743
 21
40.3503564338360476
 31
0.0
  0
LINE
  5
5164
  8
0
 10
778.3719270701332107
 20
40.4964961466331985
 30
0.0
 11
775.6720955515331752
 21
40.3550039723108398
 31
0.0
  0
ARC
  5
5165
  8
0
 10
775.6887007639211333
 20
40.1023668938096876
 30
0.0
 40
0.2531822002275319
 50
93.7605013122667827
 51
185.4510833378732002
  0
ARC
  5
5166
  8
0
 10
692.5650984220668533
 20
32.3178893469409374
 30
0.0
 40
83.2341307449659382
 50
0.4276962219664958
 51
5.3498055279827508
  0
ARC
  5
5167
  8
0
 10
776.1739844491247595
 20
40.1214608129146768
 30
0.0
 40
0.2729695059148729
 50
111.0809904169910993
 51
183.6661942195580934
  0
ARC
  5
5168
  8
0
 10
653.1449440502187826
 20
31.3943033546403889
 30
0.0
 40
123.0652226034043935
 50
0.7204827729076796
 51
4.0583906328342954
  0
ARC
  5
5169
  8
0
 10
282.1323220281373096
 20
22.9082291020217497
 30
0.0
 40
494.1699852655528957
 50
0.0712365595436303
 51
1.163404898334206
  0
ARC
  5
516A
  8
0
 10
777.4173301733566177
 20
23.5497041076108005
 30
0.0
 40
1.115733203347903
 50
181.3901191894584031
 51
209.4819574675782121
  0
ARC
  5
516B
  8
0
 10
780.709379731050376
 20
25.4226177475457895
 30
0.0
 40
4.9032616940254732
 50
209.6012753686061103
 51
216.9973609056148973
  0
ARC
  5
516C
  8
0
 10
773.8614576957836562
 20
20.3010884166341015
 30
0.0
 40
3.6480746695638082
 50
27.5752303625218396
 51
36.517492662947113
  0
ARC
  5
516D
  8
0
 10
776.127279204110323
 20
21.4996623042512596
 30
0.0
 40
1.084891151432352
 50
1.2134187312855771
 51
26.859999983745201
  0
LINE
  5
516E
  8
0
 10
777.2119270701332425
 20
21.5226365765608882
 30
0.0
 11
777.2119270701332425
 21
18.5545668628608809
 31
0.0
  0
ARC
  5
516F
  8
0
 10
777.4619270701332425
 20
18.5545668628608809
 30
0.0
 40
0.2500000000000142
 50
179.9999999999967031
 51
267.9999999999964189
  0
LINE
  5
5170
  8
0
 10
777.453202195933045
 20
18.3047191560608411
 30
0.0
 11
778.2111257383330667
 21
18.2782518827608413
 31
0.0
  0
ARC
  5
5171
  8
0
 10
778.2089270701442274
 20
18.2152902606678602
 30
0.0
 40
0.0629999999871967
 50
0.0
 51
88.0000000935846742
  0
LINE
  5
5172
  8
0
 10
778.3719270701332107
 20
17.0226365765608811
 30
0.0
 11
778.3294362583330894
 21
17.0263540408608804
 31
0.0
  0
ARC
  5
5173
  8
0
 10
778.3349270701038449
 20
17.0891143068132401
 30
0.0
 40
0.0629999999707149
 50
179.9999999566637996
 51
265.0000000181058226
  0
ARC
  5
5174
  8
0
 10
207.9565207027584961
 20
24.7201156780694795
 30
0.0
 40
567.8998690981852633
 50
359.8791834401616825
 51
0.8292578051617953
  0
ARC
  5
5175
  8
0
 10
776.5319838161209418
 20
23.5321655907250005
 30
0.0
 40
0.6769239252760662
 50
180.8082880835054027
 51
204.6689825469763946
  0
ARC
  5
5176
  8
0
 10
776.9800036701783483
 20
23.7487525942275184
 30
0.0
 40
1.174494073928477
 50
205.1484145447001026
 51
219.5228232502082051
  0
ARC
  5
5177
  8
0
 10
780.4815920585990625
 20
26.9727508340410296
 30
0.0
 40
5.9328600956753164
 50
222.0204189814718916
 51
229.270483343271593
  0
ARC
  5
5178
  8
0
 10
774.1785067343154196
 20
19.7235450235407193
 30
0.0
 40
3.673562384208179
 50
41.4546542344730398
 51
48.5461311109266873
  0
ARC
  5
5179
  8
0
 10
775.8364177699894526
 20
21.1965507420239199
 30
0.0
 40
1.4558357794668999
 50
28.4606748783591108
 51
41.2025328409010712
  0
ARC
  5
517A
  8
0
 10
776.3600131302305272
 20
21.4899056732451008
 30
0.0
 40
0.8557609738442353
 50
9.2951833652710238
 51
27.8996589589495905
  0
ARC
  5
517B
  8
0
 10
778.5269423736873478
 20
40.3491481091734769
 30
0.0
 40
0.2550181662064411
 50
166.9775011948358099
 51
179.7285206639469948
  0
LINE
  5
517C
  8
0
 10
778.2784828523332408
 20
40.4066122836108477
 30
0.0
 11
778.28556609093323
 21
40.4348802773108602
 31
0.0
  0
ARC
  5
517D
  8
0
 10
778.4092365351310718
 20
40.4038916166609781
 30
0.0
 40
0.1274938267406115
 50
148.0130864810247999
 51
165.9327801517898138
  0
ARC
  5
517E
  8
0
 10
778.3714931067288489
 20
40.4274643432884702
 30
0.0
 40
0.0829939410305539
 50
136.1873427173921129
 51
148.0130864810178082
  0
ARC
  5
517F
  8
0
 10
778.3345977966139344
 20
40.4628613229186769
 30
0.0
 40
0.0318645945120061
 50
99.8811910489161647
 51
136.1873427173719051
  0
LINE
  5
5180
  8
0
 10
778.3714974920337681
 20
40.5365285271803302
 30
0.0
 11
777.7864347502330702
 21
40.5058666882108511
 31
0.0
  0
ARC
  5
5181
  8
0
 10
777.7937408936695647
 20
40.4761547541989373
 30
0.0
 40
0.0305970383312292
 50
103.8148983331987978
 51
153.6355139924449986
  0
ARC
  5
5182
  8
0
 10
777.8407008438421144
 20
40.4511094142548018
 30
0.0
 40
0.0838096983818632
 50
152.5509657734876896
 51
170.9319990552438071
  0
ARC
  5
5183
  8
0
 10
777.7831637528973943
 20
40.5682810340887769
 30
0.0
 40
0.0624999999595215
 50
182.0003043976294066
 51
273.0000000667720883
  0
LINE
  5
5184
  8
0
 10
777.7243181926328361
 20
40.4625564035208072
 30
0.0
 11
777.7099746464332384
 21
40.8732392692108419
 31
0.0
  0
ARC
  5
5185
  8
0
 10
777.62252796531493
 20
40.8701850986685074
 30
0.0
 40
0.0874999999788644
 50
2.0003043976326831
 51
92.0000000137561074
  0
LINE
  5
5186
  8
0
 10
777.6194742593330602
 20
40.9576317960108369
 30
0.0
 11
777.5124654223332072
 21
40.9538949651108624
 31
0.0
  0
ARC
  5
5187
  8
0
 10
777.515519128269716
 20
40.8664482677480123
 30
0.0
 40
0.0874999999978246
 50
91.99999998371581
 51
177.9996955893512904
  0
LINE
  5
5188
  8
0
 10
777.4280724471332178
 20
40.8695024383108532
 30
0.0
 11
777.4166906464331532
 21
40.5436199517108591
 31
0.0
  0
ARC
  5
5189
  8
0
 10
777.3542287313563293
 20
40.5458015021101232
 30
0.0
 40
0.0624999999777273
 50
273.0000000118247954
 51
357.9996955912710064
  0
LINE
  5
518A
  8
0
 10
777.3574997286332291
 20
40.4833871562108669
 30
0.0
 11
775.9308925435332185
 21
40.4086218417108398
 31
0.0
  0
ARC
  5
518B
  8
0
 10
775.9276213958401058
 20
40.4710390579501222
 30
0.0
 40
0.0625028742562203
 50
182.003225220859008
 51
273.0000000007883045
  0
LINE
  5
518C
  8
0
 10
776.3393691040331532
 20
40.4937072349108576
 30
0.0
 11
776.240569280833256
 21
43.3204272484108515
 31
0.0
  0
ARC
  5
518D
  8
0
 10
776.4018783704892712
 20
40.4959298020770007
 30
0.0
 40
0.0625487665560176
 50
182.0363396165514018
 51
271.9778914902714746
  0
LINE
  5
518E
  8
0
 10
775.8651567195330472
 20
40.4688542229108634
 30
0.0
 11
775.7633145349331016
 21
43.3843445260108567
 31
0.0
  0
ARC
  5
518F
  8
0
 10
773.1322037037182326
 20
43.3630415286501076
 30
0.0
 40
2.631197070504844
 50
0.4638896830005005
 51
26.1311616656691506
  0
ARC
  5
5190
  8
0
 10
773.9073149247293486
 20
43.7432874733812511
 30
0.0
 40
1.7678406067994641
 50
26.1311616656691506
 51
66.6782598692307005
  0
ARC
  5
5191
  8
0
 10
773.6118437525215086
 20
43.0579270317495499
 30
0.0
 40
2.5141797713617899
 50
66.6782598692307005
 51
91.154647475071144
  0
LINE
  5
5192
  8
0
 10
773.561180425133216
 20
45.5715962920108311
 30
0.0
 11
766.4746109549613493
 21
45.5715962920108311
 31
0.0
  0
ARC
  5
5193
  8
0
 10
773.6138487689838712
 20
43.1824069424160868
 30
0.0
 40
2.630344131903021
 50
3.0078248431065542
 51
32.2385561700931618
  0
ARC
  5
5194
  8
0
 10
772.7881334650153349
 20
42.6616499337758768
 30
0.0
 40
3.6065580558232879
 50
32.2385561700931618
 51
56.5339478116372405
  0
ARC
  5
5195
  8
0
 10
773.5172373494187923
 20
43.7646250890621218
 30
0.0
 40
2.284383079721048
 50
56.5339478116372405
 51
88.8977825373750079
  0
LINE
  5
5196
  8
0
 10
773.5611800559331641
 20
46.0485854857108734
 30
0.0
 11
766.4746109019614551
 21
46.0485854857108734
 31
0.0
  0
ARC
  5
5197
  8
0
 10
766.4794885735906291
 20
40.4520978432552099
 30
0.0
 40
5.5964897680455969
 50
90.0499366647980963
 51
114.1507214690181939
  0
ARC
  5
5198
  8
0
 10
763.6968290674457194
 20
46.6528363599309728
 30
0.0
 40
1.2000073760889729
 50
265.5476841458013837
 51
294.2528815002336273
  0
ARC
  5
5199
  8
0
 10
766.47596966809067
 20
39.3511967267511977
 30
0.0
 40
6.2203997136505649
 50
90.0125150363445812
 51
100.4098150115172956
  0
ARC
  5
519A
  8
0
 10
766.0080312665113524
 20
42.109051566776742
 30
0.0
 40
3.423598729792503
 50
101.0470151103603058
 51
118.2860001933031953
  0
ARC
  5
519B
  8
0
 10
763.6968310422882951
 20
46.6528299383017711
 30
0.0
 40
1.6769898734764901
 50
265.5475607254576857
 51
294.2529106089862125
  0
ARC
  5
519C
  8
0
 10
778.0767059900331333
 20
48.1140854857108593
 30
0.0
 40
0.1625000000000443
 50
0.9999999999105827
 51
90.0
  0
LINE
  5
519D
  8
0
 10
778.2391812405330711
 20
48.1169215018108503
 30
0.0
 11
778.3719270701332107
 21
40.5119180143355493
 31
0.0
  0
LINE
  5
519E
  8
0
 10
778.2689909210332644
 20
40.6792572011108788
 30
0.0
 11
778.1391964710331877
 21
48.1151762611108893
 31
0.0
  0
ARC
  5
519F
  8
0
 10
778.5461335062142325
 20
40.6834625076634779
 30
0.0
 40
0.277174488588021
 50
180.8693280653770898
 51
201.0706199217329981
  0
ARC
  5
51A0
  8
0
 10
778.4191521681759696
 20
40.6345392807831871
 30
0.0
 40
0.1410945769979772
 50
201.0706199217300139
 51
215.4835817658955932
  0
ARC
  5
51A1
  8
0
 10
778.3408762063887707
 20
40.5803840110330469
 30
0.0
 40
0.0459399116398981
 50
217.1540104735940986
 51
264.1906393436502185
  0
ARC
  5
51A2
  8
0
 10
778.0767059899956166
 20
48.1140854856190003
 30
0.0
 40
0.0625000000918738
 50
1.000000080618761
 51
89.9999999655290992
  0
LINE
  5
51A3
  8
0
 10
767.2711983326944392
 20
45.5715962920108311
 30
0.0
 11
767.6185618673331419
 21
44.5497595065608891
 31
0.0
  0
ARC
  5
51A4
  8
0
 10
777.4943508485001757
 20
47.7893646951918925
 30
0.0
 40
10.3935677117506007
 50
198.1613049420419088
 51
202.5832528370671071
  0
ARC
  5
51A5
  8
0
 10
769.9402403788088805
 20
44.6219346830776189
 30
0.0
 40
2.2024400752219311
 50
201.9695891572708888
 51
215.8336507351970113
  0
ARC
  5
51A6
  8
0
 10
769.176878655152791
 20
44.0706990139913373
 30
0.0
 40
1.26085530260912
 50
215.8336507351970113
 51
252.0231856034698978
  0
ARC
  5
51A7
  8
0
 10
769.5666078622700752
 20
45.2718157968874593
 30
0.0
 40
2.5236182974086709
 50
252.0231856034698978
 51
263.1993535514218934
  0
ARC
  5
51A8
  8
0
 10
770.4396518565957876
 20
52.5926801374983768
 30
0.0
 40
9.8963559510659795
 50
263.1993535514218934
 51
267.4333915163372808
  0
ARC
  5
51A9
  8
0
 10
768.2627132634737563
 20
8.9405170931295572
 30
0.0
 40
33.8102175138391914
 50
77.0922761579062978
 51
87.0606103204224837
  0
LINE
  5
51AA
  8
0
 10
778.3719270701332107
 20
18.2360879914608489
 30
0.0
 11
778.3294362583330894
 21
18.2391184308608985
 31
0.0
  0
ARC
  5
51AB
  8
0
 10
778.3354663938487192
 20
18.3236689925113083
 30
0.0
 40
0.0847653231559847
 50
239.07228279035931
 51
265.9205794825650173
  0
ARC
  5
51AC
  8
0
 10
778.313833677418188
 20
18.2875630066377397
 30
0.0
 40
0.0426747465852163
 50
190.8874392090814069
 51
239.0722827903670122
  0
LINE
  5
51AD
  8
0
 10
777.6494076401329494
 20
40.4586305078195707
 30
0.0
 11
777.6366783920332182
 21
40.8231484803108629
 31
0.0
  0
LINE
  5
51AE
  8
0
 10
777.6366783920332182
 20
40.8231484803108629
 30
0.0
 11
777.5156525944330497
 21
40.8189235567108426
 31
0.0
  0
ARC
  5
51AF
  8
0
 10
777.517850513239182
 20
40.7559626841048726
 30
0.0
 40
0.0629992248077779
 50
91.9993425704029875
 51
178.0006574295709925
  0
LINE
  5
51B0
  8
0
 10
777.4548896406331551
 20
40.7581606029108912
 30
0.0
 11
777.4440539974341391
 21
40.447868379438539
 31
0.0
  0
ARC
  5
51B1
  8
0
 10
776.2153107235753851
 20
22.767419476677599
 30
0.0
 40
0.7006534086750078
 50
283.9211240597109054
 51
321.6340507684059276
  0
LINE
  5
51B2
  8
0
 10
777.4260478899085456
 20
40.8115355348310516
 30
0.0
 11
777.4421238137331329
 21
40.5498375573608811
 31
0.0
  0
ARC
  5
51B3
  8
0
 10
777.5046977464073734
 20
40.553681430304799
 30
0.0
 40
0.0626918847183587
 50
183.5152224921951927
 51
202.7919300371802933
  0
ARC
  5
51B4
  8
0
 10
778.1194384508951316
 20
47.9222318021487297
 30
0.0
 40
0.2524965206589718
 50
0.4532769808946603
 51
62.5077549886568633
  0
ENDSEC
  0
EOF
