  0
SECTION
  2
HEADER
  9
$ACADVER
  1
AC1009
  9
$INSBASE
 10
753.162774106141228
 20
32.1316590753280593
 30
0.0
  9
$EXTMIN
 10
723.1441569479243299
 20
32.1234361178495078
 30
-0.0015258207003583
  9
$EXTMAX
 10
783.1940524138389037
 20
108.8970021272477027
 30
0.0000000349246037
  9
$LIMMIN
 10
0.0
 20
0.0
  9
$LIMMAX
 10
11.6929133858000007
 20
8.2677165353999982
  9
$ORTHOMODE
 70
     1
  9
$REGENMODE
 70
     1
  9
$FILLMODE
 70
     1
  9
$QTEXTMODE
 70
     0
  9
$MIRRTEXT
 70
     0
  9
$DRAGMODE
 70
     2
  9
$LTSCALE
 40
0.6431102362
  9
$OSMODE
 70
    23
  9
$ATTMODE
 70
     1
  9
$TEXTSIZE
 40
0.2
  9
$TRACEWID
 40
0.05
  9
$TEXTSTYLE
  7
STANDARD
  9
$CLAYER
  8
0
  9
$CELTYPE
  6
BYLAYER
  9
$CECOLOR
 62
   256
  9
$DIMSCALE
 40
1.0
  9
$DIMASZ
 40
0.1875
  9
$DIMEXO
 40
0.0625
  9
$DIMDLI
 40
0.4443307087
  9
$DIMRND
 40
0.0
  9
$DIMDLE
 40
0.0
  9
$DIMEXE
 40
0.125
  9
$DIMTP
 40
0.01
  9
$DIMTM
 40
0.01
  9
$DIMTXT
 40
2.0
  9
$DIMCEN
 40
0.1052362205
  9
$DIMTSZ
 40
0.0
  9
$DIMTOL
 70
     1
  9
$DIMLIM
 70
     0
  9
$DIMTIH
 70
     1
  9
$DIMTOH
 70
     1
  9
$DIMSE1
 70
     0
  9
$DIMSE2
 70
     0
  9
$DIMTAD
 70
     0
  9
$DIMZIN
 70
     0
  9
$DIMBLK
  1

  9
$DIMASO
 70
     1
  9
$DIMSHO
 70
     1
  9
$DIMPOST
  1
\X
  9
$DIMAPOST
  1

  9
$DIMALT
 70
     1
  9
$DIMALTD
 70
     2
  9
$DIMALTF
 40
25.3999999999999986
  9
$DIMLFAC
 40
1.0
  9
$DIMTOFL
 70
     0
  9
$DIMTVP
 40
0.0
  9
$DIMTIX
 70
     0
  9
$DIMSOXD
 70
     0
  9
$DIMSAH
 70
     0
  9
$DIMBLK1
  1

  9
$DIMBLK2
  1

  9
$DIMSTYLE
  2
STANDARD
  9
$DIMCLRD
 70
     0
  9
$DIMCLRE
 70
     0
  9
$DIMCLRT
 70
     0
  9
$DIMTFAC
 40
1.0
  9
$DIMGAP
 40
0.09
  9
$LUNITS
 70
     2
  9
$LUPREC
 70
     4
  9
$SKETCHINC
 40
0.1
  9
$FILLETRAD
 40
0.0
  9
$AUNITS
 70
     0
  9
$AUPREC
 70
     0
  9
$MENU
  1
.
  9
$ELEVATION
 40
0.0
  9
$PELEVATION
 40
0.0
  9
$THICKNESS
 40
0.0
  9
$LIMCHECK
 70
     0
  9
$BLIPMODE
 70
     0
  9
$CHAMFERA
 40
0.0
  9
$CHAMFERB
 40
0.0
  9
$SKPOLY
 70
     0
  9
$TDCREATE
 40
2458106.4931018520146608
  9
$TDUPDATE
 40
2459712.5529629630036652
  9
$TDINDWG
 40
0.271283287
  9
$TDUSRTIMER
 40
0.271283287
  9
$USRTIMER
 70
     1
  9
$ANGBASE
 50
0.0
  9
$ANGDIR
 70
     0
  9
$PDMODE
 70
     0
  9
$PDSIZE
 40
0.3125
  9
$PLINEWID
 40
0.0
  9
$COORDS
 70
     1
  9
$SPLFRAME
 70
     0
  9
$SPLINETYPE
 70
     6
  9
$SPLINESEGS
 70
     8
  9
$ATTDIA
 70
     1
  9
$ATTREQ
 70
     1
  9
$HANDLING
 70
     1
  9
$HANDSEED
  5
54E4
  9
$SURFTAB1
 70
     6
  9
$SURFTAB2
 70
     6
  9
$SURFTYPE
 70
     6
  9
$SURFU
 70
     6
  9
$SURFV
 70
     6
  9
$UCSNAME
  2

  9
$UCSORG
 10
0.0
 20
0.0
 30
0.0
  9
$UCSXDIR
 10
1.0
 20
0.0
 30
0.0
  9
$UCSYDIR
 10
0.0
 20
1.0
 30
0.0
  9
$PUCSNAME
  2

  9
$PUCSORG
 10
0.0
 20
0.0
 30
0.0
  9
$PUCSXDIR
 10
1.0
 20
0.0
 30
0.0
  9
$PUCSYDIR
 10
0.0
 20
1.0
 30
0.0
  9
$USERI1
 70
     0
  9
$USERI2
 70
     0
  9
$USERI3
 70
     0
  9
$USERI4
 70
     0
  9
$USERI5
 70
     0
  9
$USERR1
 40
0.0
  9
$USERR2
 40
0.0
  9
$USERR3
 40
0.0
  9
$USERR4
 40
0.0
  9
$USERR5
 40
0.0
  9
$WORLDVIEW
 70
     1
  9
$SHADEDGE
 70
     3
  9
$SHADEDIF
 70
    70
  9
$TILEMODE
 70
     1
  9
$MAXACTVP
 70
    64
  9
$PLIMCHECK
 70
     0
  9
$PEXTMIN
 10
1.0000000000000000E+20
 20
1.0000000000000000E+20
 30
1.0000000000000000E+20
  9
$PEXTMAX
 10
-1.0000000000000000E+20
 20
-1.0000000000000000E+20
 30
-1.0000000000000000E+20
  9
$PLIMMIN
 10
0.0
 20
0.0
  9
$PLIMMAX
 10
12.0
 20
9.0
  9
$UNITMODE
 70
     0
  9
$VISRETAIN
 70
     1
  9
$PLINEGEN
 70
     0
  9
$PSLTSCALE
 70
     1
  0
ENDSEC
  0
SECTION
  2
TABLES
  0
TABLE
  2
VPORT
 70
     1
  0
VPORT
  2
*ACTIVE
 70
     0
 10
0.0
 20
0.0
 11
1.0
 21
1.0
 12
479.5949031243684999
 22
88.1161798565700991
 13
0.0
 23
0.0
 14
1.0
 24
1.0
 15
0.0
 25
0.0
 16
-0.0000000000000568
 26
0.0
 36
193.9250709296327955
 17
273.5742015565131169
 27
-17.6059607340214797
 37
0.0
 40
77.2544025397284742
 41
2.005224660397074
 42
50.0
 43
0.0
 44
0.0
 50
0.0
 51
0.0
 71
     0
 72
   100
 73
     1
 74
     1
 75
     0
 76
     0
 77
     0
 78
     0
  0
ENDTAB
  0
TABLE
  2
LTYPE
 70
     2
  0
LTYPE
  2
CONTINUOUS
 70
     0
  3
Solid line
 72
    65
 73
     0
 40
0.0
  0
LTYPE
  2
PHANTOM2
 70
     0
  3
___ _ _ ___ _ _ ___ _ _ ___ _ _
 72
    65
 73
     6
 40
1.25
 49
0.625
 49
-0.125
 49
0.125
 49
-0.125
 49
0.125
 49
-0.125
  0
ENDTAB
  0
TABLE
  2
LAYER
 70
     2
  0
LAYER
  2
0
 70
     0
 62
   255
  6
CONTINUOUS
  0
LAYER
  2
DEFPOINTS
 70
     0
 62
     7
  6
CONTINUOUS
  0
ENDTAB
  0
TABLE
  2
STYLE
 70
     1
  0
STYLE
  2
STANDARD
 70
     0
 40
0.0
 41
0.8
 50
0.0
 71
     0
 42
0.2
  3
txt
  4

  0
ENDTAB
  0
TABLE
  2
VIEW
 70
     0
  0
ENDTAB
  0
TABLE
  2
UCS
 70
     0
  0
ENDTAB
  0
TABLE
  2
APPID
 70
    10
  0
APPID
  2
ACAD
 70
     0
  0
APPID
  2
ACAD_MLEADERVER
 70
     0
  0
APPID
  2
ACAD_EXEMPT_FROM_CAD_STANDARDS
 70
     0
  0
APPID
  2
ACAD_NAV_VCDISPLAY
 70
     0
  0
APPID
  2
ACAD_DSTYLE_DIMJAG
 70
     0
  0
APPID
  2
ACAD_DSTYLE_DIMTALN
 70
     0
  0
APPID
  2
ACAECLAYERSTANDARD
 70
     0
  0
APPID
  2
ACCMTRANSPARENCY
 70
     0
  0
APPID
  2
ACDBATTR
 70
     0
  0
APPID
  2
DCO15
 70
     0
  0
ENDTAB
  0
TABLE
  2
DIMSTYLE
 70
     1
  0
DIMSTYLE
  2
STANDARD
 70
     0
  3

  4

  5

  6

  7

 40
1.0
 41
0.1875
 42
0.0625
 43
0.38
 44
0.125
 45
0.0
 46
0.0
 47
0.01
 48
0.01
140
0.15625
141
0.09
142
0.0
143
25.3999999999999986
144
1.0
145
0.0
146
1.0
147
0.09
 71
     1
 72
     0
 73
     1
 74
     1
 75
     0
 76
     0
 77
     0
 78
     4
170
     0
171
     2
172
     0
173
     0
174
     0
175
     0
176
     0
177
     0
178
     0
  0
ENDTAB
  0
ENDSEC
  0
SECTION
  2
BLOCKS
  0
BLOCK
  8
0
  2
$MODEL_SPACE
 70
     0
 10
0.0
 20
0.0
 30
0.0
  3
$MODEL_SPACE
  1

  0
ENDBLK
  5
21
  8
0
  0
BLOCK
 67
     1
  8
0
  2
$PAPER_SPACE
 70
     0
 10
0.0
 20
0.0
 30
0.0
  3
$PAPER_SPACE
  1

  0
ENDBLK
  5
1D
 67
     1
  8
0
  0
ENDSEC
  0
SECTION
  2
ENTITIES
  0
ATTDEF
  5
FAA
  8
DEFPOINTS
 10
753.1629125003219087
 20
32.135119826991513
 30
0.0
 40
0.001
  1
72440110
  3

  2
MODELNUMBER
 70
     0
1001
ACDBATTR
1070
     0
1070
     1
  0
ATTDEF
  5
FAB
  8
DEFPOINTS
 10
753.1629125003219087
 20
32.1334531603248479
 30
0.0
 40
0.001
  1
ENSEMBLE
  3

  2
TRADENAME
 70
     0
1001
ACDBATTR
1070
     0
1070
     1
  0
ATTDEF
  5
FAC
  8
DEFPOINTS
 10
753.1629125003219087
 20
32.1317864936581827
 30
0.0
 40
0.001
  1
SHOWER STALL
  3

  2
PRODUCT
 70
     0
1001
ACDBATTR
1070
     0
1070
     1
  0
LINE
  5
5240
  8
0
 10
723.1623840538911736
 20
108.5855634514280013
 30
0.0
 11
723.1623840538911736
 21
36.2231164940407098
 31
0.0
  0
LINE
  5
5241
  8
0
 10
723.4280676107581485
 20
108.8932697514280932
 30
0.0
 11
782.8974806015251033
 21
108.8932697514280932
 31
0.0
  0
LINE
  5
5242
  8
0
 10
723.1623840538911736
 20
108.5855634514280013
 30
0.0
 11
723.2026812191910494
 21
108.5834515665280975
 31
0.0
  0
ARC
  5
5243
  8
0
 10
723.4721603752600458
 20
105.813550430392695
 30
0.0
 40
3.0800349459445679
 50
90.8202555021738362
 51
92.1832966940563523
  0
ARC
  5
5244
  8
0
 10
723.3884506920467174
 20
108.0520293193378052
 30
0.0
 40
0.8399935816574272
 50
92.2944298438105477
 51
95.2209366914312341
  0
ARC
  5
5245
  8
0
 10
723.3217079908555434
 20
108.7824509438198959
 30
0.0
 40
0.1065289692367449
 50
95.2209366914247397
 51
103.2674959964506058
  0
ARC
  5
5246
  8
0
 10
723.2982356616931838
 20
108.881998098498002
 30
0.0
 40
0.0042519618459557
 50
103.2674959964838024
 51
136.922804021868302
  0
LINE
  5
5247
  8
0
 10
723.2951298834911995
 20
108.8849021166280977
 30
0.0
 11
723.1948644577903451
 21
108.5838612256255971
 31
0.0
  0
ARC
  5
5248
  8
0
 10
723.3325747552846678
 20
108.8221527957445005
 30
0.0
 40
0.0625400312658989
 50
0.1184120816513656
 51
89.9547454522541443
  0
LINE
  5
5249
  8
0
 10
723.332624151951677
 20
108.8846928075027023
 30
0.0
 11
723.2951298834911995
 21
108.8849021166280977
 31
0.0
  0
LINE
  5
524A
  8
0
 10
723.3951146529911966
 20
108.8222820459281053
 30
0.0
 11
723.3951146529911966
 21
107.7760069851280065
 31
0.0
  0
ARC
  5
524B
  8
0
 10
723.4575250899297316
 20
107.7760069851280065
 30
0.0
 40
0.062410436938535
 50
180.0000000000129887
 51
267.0692737950608944
  0
LINE
  5
524C
  8
0
 10
723.4543341366911591
 20
107.7136781759279955
 30
0.0
 11
724.1185525372911798
 21
107.6788201929280007
 31
0.0
  0
ARC
  5
524D
  8
0
 10
725.7932973289857728
 20
139.5910598353029002
 30
0.0
 40
31.9561544793749306
 50
266.995890497066398
 51
270.0000000000553086
  0
LINE
  5
524E
  8
0
 10
725.7932973290161272
 20
107.6349053559280975
 30
0.0
 11
780.5322508832965696
 21
107.6349053559280975
 31
0.0
  0
ARC
  5
524F
  8
0
 10
723.1993840538667655
 20
108.5205379058183013
 30
0.0
 40
0.0630000000244517
 50
0.0000000088847904
 51
86.9999999272759226
  0
LINE
  5
5250
  8
0
 10
723.2623840538911963
 20
108.5205379058183013
 30
0.0
 11
723.2623840538911963
 21
36.3364161671299826
 31
0.0
  0
LINE
  5
5251
  8
0
 10
723.3220868886910466
 20
107.3271937805281055
 30
0.0
 11
725.2986600614912049
 21
107.2236059699281014
 31
0.0
  0
ARC
  5
5252
  8
0
 10
725.2746186847133458
 20
106.8647637481476949
 30
0.0
 40
0.3596466709557958
 50
357.7493373307091247
 51
86.1670787344976361
  0
LINE
  5
5253
  8
0
 10
725.6339879177910461
 20
106.8506399297280041
 30
0.0
 11
725.6316152143912177
 21
103.2371241786279938
 31
0.0
  0
ARC
  5
5254
  8
0
 10
726.2499912297765832
 20
103.2354835991450983
 30
0.0
 40
0.6183781916472917
 50
179.8479920671981063
 51
232.967558330290899
  0
ARC
  5
5255
  8
0
 10
725.7140561649105166
 20
102.3939054792761993
 30
0.0
 40
0.3844342045331886
 50
334.0167651088729031
 51
64.8293017365900113
  0
ARC
  5
5256
  8
0
 10
733.229991070469282
 20
98.5825532008242362
 30
0.0
 40
8.0426965830705033
 50
153.0669760241391941
 51
179.9157749021680957
  0
ARC
  5
5257
  8
0
 10
1853.474938965480078
 20
95.0105807459273137
 30
0.0
 40
1128.2933274025729133
 50
179.8180112536809077
 51
179.9170962084189114
  0
LINE
  5
5258
  8
0
 10
725.1827926868411396
 20
96.6431575781562771
 30
0.0
 11
725.1827926868411396
 21
38.2189263806180008
 31
0.0
  0
LINE
  5
5259
  8
0
 10
725.4159979986908411
 20
86.5792209453706931
 30
0.0
 11
732.2301747090115214
 21
86.5792209453706931
 31
0.0
  0
ARC
  5
525A
  8
0
 10
725.4237124932250254
 20
87.2031442852693317
 30
0.0
 40
0.623971030975159
 50
247.2874963661118954
 51
269.2916029472760897
  0
ARC
  5
525B
  8
0
 10
732.1957555871866816
 20
106.8451240186088
 30
0.0
 40
20.265932301520909
 50
270.0973096788147814
 51
273.3077486525539257
  0
ARC
  5
525C
  8
0
 10
733.0054829355503898
 20
89.9529442800678112
 30
0.0
 40
3.3592921017445239
 50
276.1450366392900833
 51
280.817387396437482
  0
ARC
  5
525D
  8
0
 10
735.5996696308393439
 20
75.8339683268815037
 30
0.0
 40
10.9961406539630602
 50
98.4864568112248406
 51
100.2871973109772057
  0
ARC
  5
525E
  8
0
 10
733.9940030299684395
 20
86.1112782746392185
 30
0.0
 40
0.5986756196475501
 50
49.6449248921168191
 51
91.6363611141569265
  0
ARC
  5
525F
  8
0
 10
725.4756770352911417
 20
87.268447848227936
 30
0.0
 40
0.6255003986998618
 50
242.2584419178965902
 51
269.2580107346022942
  0
ARC
  5
5260
  8
0
 10
725.8560771404070238
 20
85.0699396978318987
 30
0.0
 40
1.6203242906610269
 50
93.0520669293856457
 51
103.8727857240155998
  0
ARC
  5
5261
  8
0
 10
728.0890486658606733
 20
20.9577497704899791
 30
0.0
 40
65.7711195712673771
 50
89.4017956367317055
 51
92.0208018151257647
  0
ARC
  5
5262
  8
0
 10
733.275822591420706
 20
721.0510562409674549
 30
0.0
 40
634.3417339152566683
 50
269.5935336613521258
 51
270.0633242269228163
  0
LINE
  5
5263
  8
0
 10
725.4076176833912086
 20
85.0230626016939368
 30
0.0
 11
733.9870933454739088
 21
85.0230626016939368
 31
0.0
  0
ARC
  5
5264
  8
0
 10
733.9693161532910608
 20
85.643131453123658
 30
0.0
 40
0.6203236325300193
 50
271.6422033621153105
 51
310.9152272732058009
  0
ARC
  5
5265
  8
0
 10
734.5954569191540031
 20
72.5606303027821014
 30
0.0
 40
12.4772723398482395
 50
92.7947206663263984
 51
103.3790783203810975
  0
ARC
  5
5266
  8
0
 10
738.2903255647074729
 20
57.0130047571054774
 30
0.0
 40
28.4579078225331017
 50
103.3730077239756042
 51
108.3580830492937963
  0
ARC
  5
5267
  8
0
 10
735.2570248717745471
 20
63.4962850102027616
 30
0.0
 40
21.3656312072214405
 50
106.1129803382872012
 51
108.1203287845884944
  0
ARC
  5
5268
  8
0
 10
724.5331794484101238
 20
97.4259444205092393
 30
0.0
 40
14.2211363305722607
 50
280.7475635982819995
 51
286.6674003497543026
  0
ARC
  5
5269
  8
0
 10
726.8446331393286073
 20
85.6311846839212762
 30
0.0
 40
2.2033882282558932
 50
241.0335873390044981
 51
278.8907588122634138
  0
ARC
  5
526A
  8
0
 10
726.2981102649797549
 20
84.4412154695101549
 30
0.0
 40
0.902949944147465
 50
176.7303272753948988
 51
234.7936691177017963
  0
ARC
  5
526B
  8
0
 10
725.4366943441110607
 20
84.3532866770545269
 30
0.0
 40
0.6704067731050949
 50
92.485793343504227
 51
112.2548995944436001
  0
ARC
  5
526C
  8
0
 10
727.4960984959594725
 20
84.7145071349175254
 30
0.0
 40
2.1111510084653702
 50
171.5958263574208047
 51
186.0304559015478105
  0
ARC
  5
526D
  8
0
 10
733.7636039980659461
 20
85.8736096251066101
 30
0.0
 40
0.929231619849472
 50
311.1928611743294937
 51
48.3080975948527467
  0
LINE
  5
526E
  8
0
 10
725.4159979986908411
 20
72.0301686095926925
 30
0.0
 11
732.2301747090115214
 21
72.0301686095926925
 31
0.0
  0
ARC
  5
526F
  8
0
 10
725.4237124932250254
 20
72.6540919494913169
 30
0.0
 40
0.623971030975159
 50
247.2874963661118954
 51
269.2916029472760897
  0
ARC
  5
5270
  8
0
 10
732.2795552549748663
 20
89.4767637057389038
 30
0.0
 40
17.4466649789348907
 50
269.8378314334125889
 51
273.5672268979570845
  0
ARC
  5
5271
  8
0
 10
733.0054829355503898
 20
75.4038919442897964
 30
0.0
 40
3.3592921017445239
 50
276.1450366392900833
 51
280.817387396437482
  0
ARC
  5
5272
  8
0
 10
735.5996696308393439
 20
61.2849159911035102
 30
0.0
 40
10.9961406539630602
 50
98.4864568112248406
 51
100.2871973109772057
  0
ARC
  5
5273
  8
0
 10
733.9940030299684395
 20
71.5622259388612179
 30
0.0
 40
0.5986756196475501
 50
49.6449248921168191
 51
91.6363611141569265
  0
ARC
  5
5274
  8
0
 10
725.4756770352911417
 20
72.7193955124499212
 30
0.0
 40
0.6255003986998618
 50
242.2584419178965902
 51
269.2580107346022942
  0
ARC
  5
5275
  8
0
 10
725.8560771404070238
 20
70.5208873620538839
 30
0.0
 40
1.6203242906610269
 50
93.0520669293856457
 51
103.8727857240155998
  0
ARC
  5
5276
  8
0
 10
728.0890486658606733
 20
6.408697434711967
 30
0.0
 40
65.7711195712673771
 50
89.4017956367317055
 51
92.0208018151257647
  0
ARC
  5
5277
  8
0
 10
733.275822591420706
 20
706.50200390518944
 30
0.0
 40
634.3417339152566683
 50
269.5935336613521258
 51
270.0633242269228163
  0
LINE
  5
5278
  8
0
 10
725.4076176833912086
 20
70.474010265915922
 30
0.0
 11
733.9870933454739088
 21
70.474010265915922
 31
0.0
  0
ARC
  5
5279
  8
0
 10
733.9693161532910608
 20
71.0940791173456432
 30
0.0
 40
0.6203236325300193
 50
271.6422033621153105
 51
310.9152272732058009
  0
ARC
  5
527A
  8
0
 10
734.5954569191540031
 20
58.0115779670040794
 30
0.0
 40
12.4772723398482395
 50
92.7947206663263984
 51
103.3790783203810975
  0
ARC
  5
527B
  8
0
 10
738.2903255647074729
 20
42.4639524213274626
 30
0.0
 40
28.4579078225331017
 50
103.3730077239756042
 51
108.3580830492937963
  0
ARC
  5
527C
  8
0
 10
735.2570248717745471
 20
48.947232674424761
 30
0.0
 40
21.3656312072214405
 50
106.1129803382872012
 51
108.1203287845884944
  0
ARC
  5
527D
  8
0
 10
724.9834984834559464
 20
80.9975083628349353
 30
0.0
 40
12.2920261385382599
 50
280.3186909051045745
 51
287.1691265587393787
  0
ARC
  5
527E
  8
0
 10
726.8457607707471198
 20
71.0801997141346646
 30
0.0
 40
2.2022443069966231
 50
240.9835686842698976
 51
278.8687767499463916
  0
ARC
  5
527F
  8
0
 10
726.3189161354630414
 20
69.9021547746661156
 30
0.0
 40
0.9231774047669604
 50
177.4818271637537066
 51
234.0960761463394135
  0
ARC
  5
5280
  8
0
 10
725.4366943441110607
 20
69.8042343412765263
 30
0.0
 40
0.6704067731050949
 50
92.485793343504227
 51
112.2548995944436001
  0
ARC
  5
5281
  8
0
 10
727.5035352152525547
 20
70.1649046179228151
 30
0.0
 40
2.1185883512342372
 50
171.6105017188828867
 51
186.0200172632337114
  0
ARC
  5
5282
  8
0
 10
733.7636039980659461
 20
71.3245572893285953
 30
0.0
 40
0.929231619849472
 50
311.1928611743294937
 51
48.3080975948527467
  0
LINE
  5
5283
  8
0
 10
725.4159979986908411
 20
49.0777686051173134
 30
0.0
 11
732.2301747090115214
 21
49.0777686051173134
 31
0.0
  0
ARC
  5
5284
  8
0
 10
725.4237124932250254
 20
49.7016919450159733
 30
0.0
 40
0.623971030975159
 50
247.2874963661118954
 51
269.2916029472760897
  0
ARC
  5
5285
  8
0
 10
734.5958892756466412
 20
-170.2081900096058007
 30
0.0
 40
219.2987192187607945
 50
90.5009528127381202
 51
90.6180979523948764
  0
ARC
  5
5286
  8
0
 10
732.6721755377778891
 20
57.2739608017733417
 30
0.0
 40
8.1918161311201931
 50
270.0444062291044816
 51
274.8521622636117172
  0
ARC
  5
5287
  8
0
 10
733.0054829355503898
 20
52.4514919398144386
 30
0.0
 40
3.3592921017445239
 50
276.1450366392900833
 51
280.817387396437482
  0
ARC
  5
5288
  8
0
 10
735.5996696308393439
 20
38.3325159866281524
 30
0.0
 40
10.9961406539630602
 50
98.4864568112248406
 51
100.2871973109772057
  0
ARC
  5
5289
  8
0
 10
733.9940030299684395
 20
48.6098259343858672
 30
0.0
 40
0.5986756196475501
 50
49.6449248921168191
 51
91.6363611141569265
  0
ARC
  5
528A
  8
0
 10
725.4756770352911417
 20
49.7669955079745421
 30
0.0
 40
0.6255003986998618
 50
242.2584419178965902
 51
269.2580107346022942
  0
ARC
  5
528B
  8
0
 10
725.8560771404070238
 20
47.5684873575784977
 30
0.0
 40
1.6203242906610269
 50
93.0520669293856457
 51
103.8727857240155998
  0
ARC
  5
528C
  8
0
 10
728.0890486658606733
 20
-16.5437025697634112
 30
0.0
 40
65.7711195712673771
 50
89.4017956367317055
 51
92.0208018151257647
  0
ARC
  5
528D
  8
0
 10
733.275822591420706
 20
683.5496039007139188
 30
0.0
 40
634.3417339152566683
 50
269.5935336613521258
 51
270.0633242269228163
  0
LINE
  5
528E
  8
0
 10
725.4076176833912086
 20
47.5216102614405713
 30
0.0
 11
733.9870933454739088
 21
47.5216102614405713
 31
0.0
  0
ARC
  5
528F
  8
0
 10
733.9693161532910608
 20
48.141679112870257
 30
0.0
 40
0.6203236325300193
 50
271.6422033621153105
 51
310.9152272732058009
  0
ARC
  5
5290
  8
0
 10
734.5954569191540031
 20
35.0591779625287074
 30
0.0
 40
12.4772723398482395
 50
92.7947206663263984
 51
103.3790783203810975
  0
ARC
  5
5291
  8
0
 10
738.2903255647074729
 20
19.5115524168520516
 30
0.0
 40
28.4579078225331017
 50
103.3730077239756042
 51
108.3580830492937963
  0
ARC
  5
5292
  8
0
 10
735.2570248717745471
 20
25.9948326699494103
 30
0.0
 40
21.3656312072214405
 50
106.1129803382872012
 51
108.1203287845884944
  0
ARC
  5
5293
  8
0
 10
724.396637639623691
 20
60.4446444194400101
 30
0.0
 40
14.7586086614079104
 50
280.8913788845885051
 51
286.5960353835238266
  0
ARC
  5
5294
  8
0
 10
726.8218980245110288
 20
47.993499985918902
 30
0.0
 40
2.0736996515855108
 50
239.7601421961296069
 51
280.0912071865107009
  0
ARC
  5
5295
  8
0
 10
726.3178522383078644
 20
46.9492407504099276
 30
0.0
 40
0.9221373193184708
 50
177.4470137536598031
 51
234.130891060572992
  0
ARC
  5
5296
  8
0
 10
725.4366943441110607
 20
46.8518343368011685
 30
0.0
 40
0.6704067731050949
 50
92.485793343504227
 51
112.2548995944436001
  0
ARC
  5
5297
  8
0
 10
727.5025285263601518
 20
47.2125253326935024
 30
0.0
 40
2.1175894156251172
 50
171.6070822430133944
 51
186.0234304270487939
  0
ARC
  5
5298
  8
0
 10
733.7636039980659461
 20
48.3721572848532375
 30
0.0
 40
0.929231619849472
 50
311.1928611743294937
 51
48.3080975948527467
  0
ARC
  5
5299
  8
0
 10
724.1971840428059295
 20
107.1559642927390001
 30
0.0
 40
0.1252010230790288
 50
0.2130177260794484
 51
86.4755090635248251
  0
LINE
  5
529A
  8
0
 10
724.3223842005910456
 20
107.1564297716280976
 30
0.0
 11
724.3223842005910456
 21
36.2566593257609497
 31
0.0
  0
ARC
  5
529B
  8
0
 10
723.5253585471338056
 20
38.3687584025120998
 30
0.0
 40
1.66419276595359
 50
345.5506398113830073
 51
354.8345029244979969
  0
ARC
  5
529C
  8
0
 10
719.8745487963292362
 20
39.3011572666721634
 30
0.0
 40
5.432184217326248
 50
343.4724168870562266
 51
345.6356496729948731
  0
ARC
  5
529D
  8
0
 10
730.135350839391549
 20
36.2102197905867698
 30
0.0
 40
5.284156931043495
 50
162.9924194312494024
 51
166.3469342404891052
  0
ARC
  5
529E
  8
0
 10
726.0273628399528434
 20
37.2007080961106524
 30
0.0
 40
1.0584763176102829
 50
165.9594273768466053
 51
177.8885249567678102
  0
ARC
  5
529F
  8
0
 10
735.6608029068894439
 20
36.8699196050468814
 30
0.0
 40
10.6975908926056693
 50
178.0190449559221975
 51
179.7384988473621945
  0
LINE
  5
52A0
  8
0
 10
724.9633234327526452
 20
36.9187438406294675
 30
0.0
 11
724.9633234327525315
 21
36.2566593257606087
 31
0.0
  0
ARC
  5
52A1
  8
0
 10
722.9439692373264279
 20
36.334476203025531
 30
0.0
 40
0.3184207261920976
 50
354.6412941685072155
 51
0.3490741465099659
  0
ARC
  5
52A2
  8
0
 10
723.0138586150864057
 20
36.3300416643082329
 30
0.0
 40
0.2484316291861437
 50
347.3552859091208802
 51
354.154228942553118
  0
ARC
  5
52A3
  8
0
 10
723.219792607406248
 20
37.4448329710094185
 30
0.0
 40
0.0427555569045545
 50
301.9380776499555168
 51
354.9783269116276756
  0
ARC
  5
52A4
  8
0
 10
723.2010089047719248
 20
37.4744004251998035
 30
0.0
 40
0.0777842979412044
 50
272.8488335983984143
 51
302.1583037710901181
  0
LINE
  5
52A5
  8
0
 10
723.2048748653911616
 20
37.3967122577951514
 30
0.0
 11
723.1623840538911736
 21
37.3951723821096493
 31
0.0
  0
LINE
  5
52A6
  8
0
 10
737.3033194342913248
 20
98.7871586681279155
 30
0.0
 11
737.3033194342913248
 21
38.5050514621982174
 31
0.0
  0
ARC
  5
52A7
  8
0
 10
718.3591657624325535
 20
98.7216978562015157
 30
0.0
 40
18.9442667702101808
 50
0.1979826274748318
 51
10.8699505737793896
  0
ARC
  5
52A8
  8
0
 10
737.7059390942608843
 20
102.435142294674705
 30
0.0
 40
0.7556665440704001
 50
152.3071435825802098
 51
190.7482039110296057
  0
LINE
  5
52A9
  8
0
 10
724.3223842005910456
 20
102.2942155937280972
 30
0.0
 11
782.0031640116910694
 21
102.2942155937280972
 31
0.0
  0
ARC
  5
52AA
  8
0
 10
736.6544651505854517
 20
103.3615282837858018
 30
0.0
 40
0.6906986224734382
 50
303.6140469216409201
 51
357.6068765437015031
  0
LINE
  5
52AB
  8
0
 10
737.3445613793911662
 20
103.3326876514281025
 30
0.0
 11
737.3445613793911662
 21
107.1438747529280988
 31
0.0
  0
ARC
  5
52AC
  8
0
 10
737.88111492981227
 20
107.1439029878555971
 30
0.0
 40
0.5365535511641055
 50
135.8385744315258137
 51
180.0030150619282949
  0
ARC
  5
52AD
  8
0
 10
723.3253840539090334
 20
107.3901074412403034
 30
0.0
 40
0.0630000000213625
 50
180.000607362649788
 51
267.0000000242197871
  0
LINE
  5
52AE
  8
0
 10
724.9330193340912274
 20
107.3929406027280038
 30
0.0
 11
724.8355851906052294
 21
107.2478746955583944
 31
0.0
  0
ARC
  5
52AF
  8
0
 10
724.9900372460574545
 20
107.3225638553394958
 30
0.0
 40
0.0905755422727149
 50
101.9805349022878005
 51
129.0137381445807989
  0
ARC
  5
52B0
  8
0
 10
725.736039045724965
 20
102.8239103159624932
 30
0.0
 40
4.6505745381636618
 50
93.4181699057699859
 51
99.465490577402818
  0
ARC
  5
52B1
  8
0
 10
728.5521724618167809
 20
61.7984173472443103
 30
0.0
 40
45.772443901283772
 50
93.2076566321900799
 51
93.8751433971719962
  0
ARC
  5
52B2
  8
0
 10
727.9471938012744658
 20
65.8984354907092893
 30
0.0
 40
41.6466826111950823
 50
90.0356834187971486
 51
92.6922704288851378
  0
LINE
  5
52B3
  8
0
 10
727.9212565344522545
 20
107.5451100251279968
 30
0.0
 11
737.6376355044136517
 21
107.5173056157904057
 31
0.0
  0
ARC
  5
52B4
  8
0
 10
723.2258470502306409
 20
107.3251606242998974
 30
0.0
 40
0.0365495380111107
 50
1.500582979629361
 51
47.1499357092298297
  0
ARC
  5
52B5
  8
0
 10
723.203418245241096
 20
107.3009821310991043
 30
0.0
 40
0.0695290896563226
 50
47.1499357091675932
 51
88.7995771174739161
  0
LINE
  5
52B6
  8
0
 10
723.2048748656911812
 20
107.3704959611280998
 30
0.0
 11
723.1623840538911736
 21
107.3720357855279985
 31
0.0
  0
ARC
  5
52B7
  8
0
 10
737.9795159584216435
 20
38.5068966689068688
 30
0.0
 40
0.6761990417279456
 50
180.1563484737532974
 51
272.1400730132089052
  0
ARC
  5
52B8
  8
0
 10
747.7247578923950186
 20
-876.7427551863127064
 30
0.0
 40
914.6255744859289507
 50
90.5897067688786137
 51
90.6089103052407268
  0
ARC
  5
52B9
  8
0
 10
753.1627741061663528
 20
-4093.7543422487960925
 30
0.0
 40
4201.3003331206191433
 50
89.7882734219936225
 51
90.2117265780063775
  0
ARC
  5
52BA
  8
0
 10
753.1627741061369079
 20
-602.6240036608282935
 30
0.0
 40
640.6305502763749473
 50
88.6716166048842638
 51
91.3283833951157362
  0
LINE
  5
52BC
  8
0
 10
723.1965822983911494
 20
32.1316590753280593
 30
0.0
 11
783.1289659138911929
 21
32.1316590753280593
 31
0.0
  0
ARC
  5
52BD
  8
0
 10
723.3099628887903236
 20
36.2254260210843313
 30
0.0
 40
0.1475969052025023
 50
180.8965740345063011
 51
205.7869729157353049
  0
ARC
  5
52BE
  8
0
 10
723.2175323866587178
 20
36.1788044568884928
 30
0.0
 40
0.0441247156878529
 50
203.489090488598805
 51
249.376805369226588
  0
ARC
  5
52BF
  8
0
 10
723.2127085406750666
 20
36.1682819917443794
 30
0.0
 40
0.0325875344906556
 50
250.7984495284563877
 51
282.7415525837004111
  0
ARC
  5
52C0
  8
0
 10
723.2291521888153056
 20
36.0909987744939329
 30
0.0
 40
0.0464301860050719
 50
79.8418542606461727
 51
101.499570258495595
  0
ARC
  5
52C1
  8
0
 10
723.3263396450679465
 20
36.834818208135232
 30
0.0
 40
0.7037671500056817
 50
262.7348930254310062
 51
267.6181613468140199
  0
LINE
  5
52C2
  8
0
 10
723.1965822983911494
 20
36.1399703953430276
 30
0.0
 11
723.1965822983911494
 21
32.1316590753280593
 31
0.0
  0
ARC
  5
52C3
  8
0
 10
722.4895208964973108
 20
36.4594654861439267
 30
0.0
 40
0.7884676117574069
 50
342.4294154156280001
 51
346.5192362796806833
  0
ARC
  5
52C4
  8
0
 10
723.4878102435824303
 20
36.1408028564801498
 30
0.0
 40
0.259456746467284
 50
161.8924381796331033
 51
174.3119818033777904
  0
ARC
  5
52C5
  8
0
 10
723.1741726732632287
 20
36.1679128707963002
 30
0.0
 40
0.0554758441046743
 50
325.5074231178338096
 51
358.5592640883866125
  0
ARC
  5
52C6
  8
0
 10
724.1973839501586099
 20
36.2566593257606087
 30
0.0
 40
0.1250002504325498
 50
270.0000475474153063
 51
0.0000000001628444
  0
ARC
  5
52C7
  8
0
 10
724.8383231823200958
 20
36.2566593257606087
 30
0.0
 40
0.1250002504325498
 50
270.0000475474153063
 51
0.0000000001628444
  0
LINE
  5
52C8
  8
0
 10
783.1631641583911687
 20
108.5855634514280013
 30
0.0
 11
783.1631641583911687
 21
36.2231164940407098
 31
0.0
  0
LINE
  5
52C9
  8
0
 10
783.1631641583911687
 20
108.5855634514280013
 30
0.0
 11
783.1228669930910655
 21
108.5834515665280975
 31
0.0
  0
ARC
  5
52CA
  8
0
 10
782.8533878370222965
 20
105.813550430392695
 30
0.0
 40
3.0800349459445679
 50
87.8167033059436619
 51
89.1797444978261638
  0
ARC
  5
52CB
  8
0
 10
782.9370975202356249
 20
108.0520293193378052
 30
0.0
 40
0.8399935816574272
 50
84.7790633085687659
 51
87.7055701561894665
  0
ARC
  5
52CC
  8
0
 10
783.0038402214266853
 20
108.7824509438198959
 30
0.0
 40
0.1065289692367449
 50
76.7325040035493657
 51
84.7790633085752745
  0
ARC
  5
52CD
  8
0
 10
783.0273125505890448
 20
108.881998098498002
 30
0.0
 40
0.0042519618459557
 50
43.077195978131698
 51
76.7325040035161834
  0
LINE
  5
52CE
  8
0
 10
783.0304183287912565
 20
108.8849021166280977
 30
0.0
 11
783.1306837544919972
 21
108.5838612256255971
 31
0.0
  0
ARC
  5
52CF
  8
0
 10
782.9929734569976745
 20
108.8221527957445005
 30
0.0
 40
0.0625400312658989
 50
90.0452545477458557
 51
179.8815879183486004
  0
LINE
  5
52D0
  8
0
 10
782.9929240603305516
 20
108.8846928075027023
 30
0.0
 11
783.0304183287912565
 21
108.8849021166280977
 31
0.0
  0
LINE
  5
52D1
  8
0
 10
782.9304335592912594
 20
108.8222820459281053
 30
0.0
 11
782.9304335592912594
 21
107.7760069851280065
 31
0.0
  0
ARC
  5
52D2
  8
0
 10
782.8680231223527244
 20
107.7760069851280065
 30
0.0
 40
0.062410436938535
 50
272.9307262049391056
 51
359.9999999999869829
  0
LINE
  5
52D3
  8
0
 10
782.8712140755911832
 20
107.7136781759279955
 30
0.0
 11
782.2069956749911626
 21
107.6788201929280007
 31
0.0
  0
ARC
  5
52D4
  8
0
 10
780.5322508832965696
 20
139.5910598353029002
 30
0.0
 40
31.9561544793749306
 50
269.9999999999445777
 51
273.004109502933602
  0
ARC
  5
52D5
  8
0
 10
783.1261641584155768
 20
108.5205379058183013
 30
0.0
 40
0.0630000000244517
 50
93.0000000727241058
 51
179.9999999911152031
  0
LINE
  5
52D6
  8
0
 10
783.063164158391146
 20
108.5205379058183013
 30
0.0
 11
783.063164158391146
 21
36.3364161671299826
 31
0.0
  0
LINE
  5
52D7
  8
0
 10
783.003461323591182
 20
107.3271937805281055
 30
0.0
 11
781.0268881507912511
 21
107.2236059699281014
 31
0.0
  0
ARC
  5
52D8
  8
0
 10
781.0509295275687691
 20
106.8647637481476949
 30
0.0
 40
0.3596466709557958
 50
93.8329212655023639
 51
182.2506626692909038
  0
LINE
  5
52D9
  8
0
 10
780.6915602944910688
 20
106.8506399297280041
 30
0.0
 11
780.6939329978912383
 21
103.2371241786279938
 31
0.0
  0
ARC
  5
52DA
  8
0
 10
780.0755569825056455
 20
103.2354835991450983
 30
0.0
 40
0.6183781916472917
 50
307.0324416697089873
 51
0.1520079328019008
  0
ARC
  5
52DB
  8
0
 10
780.6114920473719394
 20
102.3939054792761993
 30
0.0
 40
0.3844342045331886
 50
115.1706982634100029
 51
205.9832348911270969
  0
ARC
  5
52DC
  8
0
 10
773.0955571418129466
 20
98.5825532008242362
 30
0.0
 40
8.0426965830705033
 50
0.0842250978318515
 51
26.9330239758608201
  0
ARC
  5
52DD
  8
0
 10
-347.1493907531979062
 20
95.0105807459273137
 30
0.0
 40
1128.2933274025729133
 50
0.0829037915810797
 51
0.1819887463190433
  0
LINE
  5
52DE
  8
0
 10
781.1427555254412027
 20
96.6431575781562771
 30
0.0
 11
781.1427555254412027
 21
38.2189263806180008
 31
0.0
  0
LINE
  5
52DF
  8
0
 10
780.9095502135915012
 20
86.5792209453706931
 30
0.0
 11
774.0953735032708209
 21
86.5792209453706931
 31
0.0
  0
ARC
  5
52E0
  8
0
 10
780.9018357190574307
 20
87.2031442852693317
 30
0.0
 40
0.623971030975159
 50
270.7083970527239103
 51
292.7125036338879909
  0
ARC
  5
52E1
  8
0
 10
774.1297926250956607
 20
106.8451240186088
 30
0.0
 40
20.265932301520909
 50
266.6922513474460743
 51
269.9026903211819217
  0
ARC
  5
52E2
  8
0
 10
773.3200652767319525
 20
89.9529442800678112
 30
0.0
 40
3.3592921017445239
 50
259.182612603562518
 51
263.8549633607099167
  0
ARC
  5
52E3
  8
0
 10
770.7258785814431121
 20
75.8339683268815037
 30
0.0
 40
10.9961406539630602
 50
79.7128026890227659
 51
81.5135431887751736
  0
ARC
  5
52E4
  8
0
 10
772.3315451823139028
 20
86.1112782746392185
 30
0.0
 40
0.5986756196475501
 50
88.3636388858430735
 51
130.3550751078832093
  0
ARC
  5
52E5
  8
0
 10
780.8498711769912006
 20
87.268447848227936
 30
0.0
 40
0.6255003986998618
 50
270.7419892653977058
 51
297.7415580821033814
  0
ARC
  5
52E6
  8
0
 10
780.4694710718753186
 20
85.0699396978318987
 30
0.0
 40
1.6203242906610269
 50
76.1272142759843717
 51
86.9479330706143543
  0
ARC
  5
52E7
  8
0
 10
778.2364995464217827
 20
20.9577497704899791
 30
0.0
 40
65.7711195712673771
 50
87.9791981848742353
 51
90.5982043632682945
  0
ARC
  5
52E8
  8
0
 10
773.0497256208616363
 20
721.0510562409674549
 30
0.0
 40
634.3417339152566683
 50
269.9366757730771837
 51
270.4064663386478742
  0
LINE
  5
52E9
  8
0
 10
780.9179305288912474
 20
85.0230626016939368
 30
0.0
 11
772.3384548668085472
 21
85.0230626016939368
 31
0.0
  0
ARC
  5
52EA
  8
0
 10
772.3562320589911678
 20
85.643131453123658
 30
0.0
 40
0.6203236325300193
 50
229.0847727267941991
 51
268.3577966378845758
  0
ARC
  5
52EB
  8
0
 10
771.7300912931283392
 20
72.5606303027821014
 30
0.0
 40
12.4772723398482395
 50
76.6209216796188599
 51
87.2052793336735874
  0
ARC
  5
52EC
  8
0
 10
768.0352226475747557
 20
57.0130047571054774
 30
0.0
 40
28.4579078225331017
 50
71.6419169507061895
 51
76.6269922760243531
  0
ARC
  5
52ED
  8
0
 10
771.0685233405076815
 20
63.4962850102027616
 30
0.0
 40
21.3656312072214405
 50
71.8796712154115056
 51
73.887019661712813
  0
ARC
  5
52EE
  8
0
 10
781.7923687638723322
 20
97.4259444205092393
 30
0.0
 40
14.2211363305722607
 50
253.3325996502456121
 51
259.2524364017180005
  0
ARC
  5
52EF
  8
0
 10
779.4809150729538487
 20
85.6311846839212762
 30
0.0
 40
2.2033882282558932
 50
261.1092411877365862
 51
298.9664126609953883
  0
ARC
  5
52F0
  8
0
 10
780.0274379473025874
 20
84.4412154695101549
 30
0.0
 40
0.902949944147465
 50
305.2063308822981753
 51
3.2696727246050621
  0
ARC
  5
52F1
  8
0
 10
780.8888538681712816
 20
84.3532866770545269
 30
0.0
 40
0.6704067731050949
 50
67.7451004055563857
 51
87.514206656495773
  0
ARC
  5
52F2
  8
0
 10
778.8294497163227561
 20
84.7145071349175254
 30
0.0
 40
2.1111510084653702
 50
353.9695440984522179
 51
8.4041736425792308
  0
ARC
  5
52F3
  8
0
 10
772.5619442142165099
 20
85.8736096251066101
 30
0.0
 40
0.929231619849472
 50
131.6919024051472036
 51
228.8071388256705063
  0
LINE
  5
52F4
  8
0
 10
780.9095502135915012
 20
72.0301686095926925
 30
0.0
 11
774.0953735032708209
 21
72.0301686095926925
 31
0.0
  0
ARC
  5
52F5
  8
0
 10
780.9018357190574307
 20
72.6540919494913169
 30
0.0
 40
0.623971030975159
 50
270.7083970527239103
 51
292.7125036338879909
  0
ARC
  5
52F6
  8
0
 10
774.045992957307476
 20
89.4767637057389038
 30
0.0
 40
17.4466649789348907
 50
266.4327731020429155
 51
270.1621685665874111
  0
ARC
  5
52F7
  8
0
 10
773.3200652767319525
 20
75.4038919442897964
 30
0.0
 40
3.3592921017445239
 50
259.182612603562518
 51
263.8549633607099167
  0
ARC
  5
52F8
  8
0
 10
770.7258785814431121
 20
61.2849159911035102
 30
0.0
 40
10.9961406539630602
 50
79.7128026890227659
 51
81.5135431887751736
  0
ARC
  5
52F9
  8
0
 10
772.3315451823139028
 20
71.5622259388612179
 30
0.0
 40
0.5986756196475501
 50
88.3636388858430735
 51
130.3550751078832093
  0
ARC
  5
52FA
  8
0
 10
780.8498711769912006
 20
72.7193955124499212
 30
0.0
 40
0.6255003986998618
 50
270.7419892653977058
 51
297.7415580821033814
  0
ARC
  5
52FB
  8
0
 10
780.4694710718753186
 20
70.5208873620538839
 30
0.0
 40
1.6203242906610269
 50
76.1272142759843717
 51
86.9479330706143543
  0
ARC
  5
52FC
  8
0
 10
778.2364995464217827
 20
6.408697434711967
 30
0.0
 40
65.7711195712673771
 50
87.9791981848742353
 51
90.5982043632682945
  0
ARC
  5
52FD
  8
0
 10
773.0497256208616363
 20
706.50200390518944
 30
0.0
 40
634.3417339152566683
 50
269.9366757730771837
 51
270.4064663386478742
  0
LINE
  5
52FE
  8
0
 10
780.9179305288912474
 20
70.474010265915922
 30
0.0
 11
772.3384548668085472
 21
70.474010265915922
 31
0.0
  0
ARC
  5
52FF
  8
0
 10
772.3562320589911678
 20
71.0940791173456432
 30
0.0
 40
0.6203236325300193
 50
229.0847727267941991
 51
268.3577966378845758
  0
ARC
  5
5300
  8
0
 10
771.7300912931283392
 20
58.0115779670040794
 30
0.0
 40
12.4772723398482395
 50
76.6209216796188599
 51
87.2052793336735874
  0
ARC
  5
5301
  8
0
 10
768.0352226475747557
 20
42.4639524213274626
 30
0.0
 40
28.4579078225331017
 50
71.6419169507061895
 51
76.6269922760243531
  0
ARC
  5
5302
  8
0
 10
771.0685233405076815
 20
48.947232674424761
 30
0.0
 40
21.3656312072214405
 50
71.8796712154115056
 51
73.887019661712813
  0
ARC
  5
5303
  8
0
 10
781.3420497288261686
 20
80.9975083628349353
 30
0.0
 40
12.2920261385382599
 50
252.8308734412605929
 51
259.6813090948954255
  0
ARC
  5
5304
  8
0
 10
779.4797874415353363
 20
71.0801997141346646
 30
0.0
 40
2.2022443069966231
 50
261.1312232500536084
 51
299.0164313157300739
  0
ARC
  5
5305
  8
0
 10
780.0066320768193009
 20
69.9021547746661156
 30
0.0
 40
0.9231774047669604
 50
305.9039238536595917
 51
2.5181728362462632
  0
ARC
  5
5306
  8
0
 10
780.8888538681712816
 20
69.8042343412765263
 30
0.0
 40
0.6704067731050949
 50
67.7451004055563857
 51
87.514206656495773
  0
ARC
  5
5307
  8
0
 10
778.8220129970297876
 20
70.1649046179228151
 30
0.0
 40
2.1185883512342372
 50
353.979982736766317
 51
8.3894982811170458
  0
ARC
  5
5308
  8
0
 10
772.5619442142165099
 20
71.3245572893285953
 30
0.0
 40
0.929231619849472
 50
131.6919024051472036
 51
228.8071388256705063
  0
LINE
  5
5309
  8
0
 10
780.9095502135915012
 20
49.0777686051173134
 30
0.0
 11
774.0953735032708209
 21
49.0777686051173134
 31
0.0
  0
ARC
  5
530A
  8
0
 10
780.9018357190574307
 20
49.7016919450159733
 30
0.0
 40
0.623971030975159
 50
270.7083970527239103
 51
292.7125036338879909
  0
ARC
  5
530B
  8
0
 10
771.7296589366358148
 20
-170.2081900096058007
 30
0.0
 40
219.2987192187607945
 50
89.3819020476051378
 51
89.4990471872618656
  0
ARC
  5
530C
  8
0
 10
773.6533726745044532
 20
57.2739608017733417
 30
0.0
 40
8.1918161311201931
 50
265.1478377363882828
 51
269.9555937708955184
  0
ARC
  5
530D
  8
0
 10
773.3200652767319525
 20
52.4514919398144386
 30
0.0
 40
3.3592921017445239
 50
259.182612603562518
 51
263.8549633607099167
  0
ARC
  5
530E
  8
0
 10
770.7258785814431121
 20
38.3325159866281524
 30
0.0
 40
10.9961406539630602
 50
79.7128026890227659
 51
81.5135431887751736
  0
ARC
  5
530F
  8
0
 10
772.3315451823139028
 20
48.6098259343858672
 30
0.0
 40
0.5986756196475501
 50
88.3636388858430735
 51
130.3550751078832093
  0
ARC
  5
5310
  8
0
 10
780.8498711769912006
 20
49.7669955079745421
 30
0.0
 40
0.6255003986998618
 50
270.7419892653977058
 51
297.7415580821033814
  0
ARC
  5
5311
  8
0
 10
780.4694710718753186
 20
47.5684873575784977
 30
0.0
 40
1.6203242906610269
 50
76.1272142759843717
 51
86.9479330706143543
  0
ARC
  5
5312
  8
0
 10
778.2364995464217827
 20
-16.5437025697634112
 30
0.0
 40
65.7711195712673771
 50
87.9791981848742353
 51
90.5982043632682945
  0
ARC
  5
5313
  8
0
 10
773.0497256208616363
 20
683.5496039007139188
 30
0.0
 40
634.3417339152566683
 50
269.9366757730771837
 51
270.4064663386478742
  0
LINE
  5
5314
  8
0
 10
780.9179305288912474
 20
47.5216102614405713
 30
0.0
 11
772.3384548668085472
 21
47.5216102614405713
 31
0.0
  0
ARC
  5
5315
  8
0
 10
772.3562320589911678
 20
48.141679112870257
 30
0.0
 40
0.6203236325300193
 50
229.0847727267941991
 51
268.3577966378845758
  0
ARC
  5
5316
  8
0
 10
771.7300912931283392
 20
35.0591779625287074
 30
0.0
 40
12.4772723398482395
 50
76.6209216796188599
 51
87.2052793336735874
  0
ARC
  5
5317
  8
0
 10
768.0352226475747557
 20
19.5115524168520516
 30
0.0
 40
28.4579078225331017
 50
71.6419169507061895
 51
76.6269922760243531
  0
ARC
  5
5318
  8
0
 10
771.0685233405076815
 20
25.9948326699494103
 30
0.0
 40
21.3656312072214405
 50
71.8796712154115056
 51
73.887019661712813
  0
ARC
  5
5319
  8
0
 10
781.9289105726586513
 20
60.4446444194400101
 30
0.0
 40
14.7586086614079104
 50
253.4039646164762019
 51
259.1086211154079137
  0
ARC
  5
531A
  8
0
 10
779.5036501877713135
 20
47.993499985918902
 30
0.0
 40
2.0736996515855108
 50
259.9087928134891854
 51
300.2398578038702794
  0
ARC
  5
531B
  8
0
 10
780.007695973974478
 20
46.9492407504099276
 30
0.0
 40
0.9221373193184708
 50
305.869108939427008
 51
2.5529862463402009
  0
ARC
  5
531C
  8
0
 10
780.8888538681712816
 20
46.8518343368011685
 30
0.0
 40
0.6704067731050949
 50
67.7451004055563857
 51
87.514206656495773
  0
ARC
  5
531D
  8
0
 10
778.8230196859220769
 20
47.2125253326935024
 30
0.0
 40
2.1175894156251172
 50
353.9765695729511208
 51
8.3929177569865363
  0
ARC
  5
531E
  8
0
 10
772.5619442142165099
 20
48.3721572848532375
 30
0.0
 40
0.929231619849472
 50
131.6919024051472036
 51
228.8071388256705063
  0
ARC
  5
531F
  8
0
 10
782.1283641694764128
 20
107.1559642927390001
 30
0.0
 40
0.1252010230790288
 50
93.5244909364751891
 51
179.7869822739205006
  0
LINE
  5
5320
  8
0
 10
782.0031640116910694
 20
107.1564297716280976
 30
0.0
 11
782.0031640116910694
 21
36.2566593257609497
 31
0.0
  0
ARC
  5
5321
  8
0
 10
782.8001896651485367
 20
38.3687584025120998
 30
0.0
 40
1.66419276595359
 50
185.1654970755020031
 51
194.4493601886169927
  0
ARC
  5
5322
  8
0
 10
786.4509994159531061
 20
39.3011572666721634
 30
0.0
 40
5.432184217326248
 50
194.3643503270050132
 51
196.5275831129438018
  0
ARC
  5
5323
  8
0
 10
776.1901973728906796
 20
36.2102197905867698
 30
0.0
 40
5.284156931043495
 50
13.6530657595109499
 51
17.0075805687506083
  0
ARC
  5
5324
  8
0
 10
780.2981853723294989
 20
37.2007080961106524
 30
0.0
 40
1.0584763176102829
 50
2.1114750432322169
 51
14.0405726231533503
  0
ARC
  5
5325
  8
0
 10
770.6647453053927848
 20
36.8699196050468814
 30
0.0
 40
10.6975908926056693
 50
0.2615011526377502
 51
1.980955044077819
  0
LINE
  5
5326
  8
0
 10
781.3622247795298108
 20
36.9187438406294675
 30
0.0
 11
781.3622247795298108
 21
36.2566593257606087
 31
0.0
  0
ARC
  5
5327
  8
0
 10
783.3815789749560281
 20
36.334476203025531
 30
0.0
 40
0.3184207261920976
 50
179.6509258534900084
 51
185.3587058314928129
  0
ARC
  5
5328
  8
0
 10
783.3116895971959366
 20
36.3300416643082329
 30
0.0
 40
0.2484316291861437
 50
185.8457710574469957
 51
192.6447140908790914
  0
ARC
  5
5329
  8
0
 10
783.1057556048759807
 20
37.4448329710094185
 30
0.0
 40
0.0427555569045545
 50
185.021673088372296
 51
238.0619223500445116
  0
ARC
  5
532A
  8
0
 10
783.1245393075104175
 20
37.4744004251998035
 30
0.0
 40
0.0777842979412044
 50
237.8416962289097967
 51
267.1511664016015857
  0
LINE
  5
532B
  8
0
 10
783.1206733468911807
 20
37.3967122577951514
 30
0.0
 11
783.1631641583911687
 21
37.3951723821096493
 31
0.0
  0
LINE
  5
532C
  8
0
 10
769.0222287779911312
 20
98.7871586681279155
 30
0.0
 11
769.0222287779911312
 21
38.5050514621982174
 31
0.0
  0
ARC
  5
532D
  8
0
 10
787.9663824498495615
 20
98.7216978562015157
 30
0.0
 40
18.9442667702101808
 50
169.1300494262206087
 51
179.8020173725251993
  0
ARC
  5
532E
  8
0
 10
768.6196091180213443
 20
102.435142294674705
 30
0.0
 40
0.7556665440704001
 50
349.2517960889704227
 51
27.6928564174197795
  0
ARC
  5
532F
  8
0
 10
769.6710830616968906
 20
103.3615282837858018
 30
0.0
 40
0.6906986224734382
 50
182.3931234562984969
 51
236.3859530783591083
  0
LINE
  5
5330
  8
0
 10
768.9809868328911762
 20
103.3326876514281025
 30
0.0
 11
768.9809868328911762
 21
107.1438747529280988
 31
0.0
  0
ARC
  5
5331
  8
0
 10
768.4444332824698449
 20
107.1439029878555971
 30
0.0
 40
0.5365535511641055
 50
359.9969849380715914
 51
44.1614255684741366
  0
ARC
  5
5332
  8
0
 10
783.0001641583734227
 20
107.3901074412403034
 30
0.0
 40
0.0630000000213625
 50
272.9999999757802129
 51
359.9993926373501836
  0
LINE
  5
5333
  8
0
 10
781.3925288781912286
 20
107.3929406027280038
 30
0.0
 11
781.4899630216771129
 21
107.2478746955583944
 31
0.0
  0
ARC
  5
5334
  8
0
 10
781.3355109662247742
 20
107.3225638553394958
 30
0.0
 40
0.0905755422727149
 50
50.9862618554192011
 51
78.0194650977121569
  0
ARC
  5
5335
  8
0
 10
780.5895091665573773
 20
102.8239103159624932
 30
0.0
 40
4.6505745381636618
 50
80.5345094225971962
 51
86.5818300942300141
  0
ARC
  5
5336
  8
0
 10
777.7733757504655614
 20
61.7984173472443103
 30
0.0
 40
45.772443901283772
 50
86.1248566028280038
 51
86.7923433678099059
  0
ARC
  5
5337
  8
0
 10
778.3783544110078765
 20
65.8984354907092893
 30
0.0
 40
41.6466826111950823
 50
87.3077295711148622
 51
89.9643165812028656
  0
LINE
  5
5338
  8
0
 10
778.4042916778298604
 20
107.5451100251279968
 30
0.0
 11
768.6879127078688043
 21
107.5173056157904057
 31
0.0
  0
ARC
  5
5339
  8
0
 10
783.0997011620515877
 20
107.3251606242998974
 30
0.0
 40
0.0365495380111107
 50
132.8500642907700922
 51
178.4994170203706005
  0
ARC
  5
533A
  8
0
 10
783.1221299670411327
 20
107.3009821310991043
 30
0.0
 40
0.0695290896563226
 50
91.2004228825260839
 51
132.8500642908323925
  0
LINE
  5
533B
  8
0
 10
783.1206733465910474
 20
107.3704959611280998
 30
0.0
 11
783.1631641583911687
 21
107.3720357855279985
 31
0.0
  0
ARC
  5
533C
  8
0
 10
768.3460322538608125
 20
38.5068966689068688
 30
0.0
 40
0.6761990417279456
 50
267.8599269867909811
 51
359.8436515262466173
  0
ARC
  5
533D
  8
0
 10
758.6007903198874374
 20
-876.7427551863127064
 30
0.0
 40
914.6255744859289507
 50
89.391089694756019
 51
89.4102932311214005
  0
ARC
  5
533E
  8
0
 10
783.0155853234920187
 20
36.2254260210843313
 30
0.0
 40
0.1475969052025023
 50
334.2130270842646951
 51
359.1034259654937273
  0
ARC
  5
533F
  8
0
 10
783.1080158256236246
 20
36.1788044568884928
 30
0.0
 40
0.0441247156878529
 50
290.623194630773412
 51
336.5109095114012234
  0
ARC
  5
5340
  8
0
 10
783.112839671607162
 20
36.1682819917443794
 30
0.0
 40
0.0325875344906556
 50
257.2584474162995889
 51
289.2015504715436123
  0
ARC
  5
5341
  8
0
 10
783.0963960234670367
 20
36.0909987744939329
 30
0.0
 40
0.0464301860050719
 50
78.5004297415043482
 51
100.1581457393537988
  0
ARC
  5
5342
  8
0
 10
782.9992085672145095
 20
36.834818208135232
 30
0.0
 40
0.7037671500056817
 50
272.3818386531859801
 51
277.2651069745689938
  0
ARC
  5
5343
  8
0
 10
783.8360273157850315
 20
36.4594654861439267
 30
0.0
 40
0.7884676117574069
 50
193.480763720319203
 51
197.5705845843719999
  0
ARC
  5
5344
  8
0
 10
782.8377379686997983
 20
36.1408028564801498
 30
0.0
 40
0.259456746467284
 50
5.6880181966221537
 51
18.1075618203669215
  0
ARC
  5
5345
  8
0
 10
783.1513755390191136
 20
36.1679128707963002
 30
0.0
 40
0.0554758441046743
 50
181.4407359116133875
 51
214.4925768821661904
  0
ARC
  5
5346
  8
0
 10
782.1281642621237324
 20
36.2566593257606087
 30
0.0
 40
0.1250002504325498
 50
179.9999999998370868
 51
269.9999524525846937
  0
ARC
  5
5347
  8
0
 10
781.4872250299622465
 20
36.2566593257606087
 30
0.0
 40
0.1250002504325498
 50
179.9999999998370868
 51
269.9999524525846937
  0
LINE
  5
5348
  8
0
 10
723.2970918181912339
 20
36.1316590753280593
 30
0.0
 11
783.0284563940911085
 21
36.1316590753280593
 31
0.0
  0
LINE
  5
5349
  8
0
 10
783.1289659138911929
 20
36.1399703953430276
 30
0.0
 11
783.1289659138911929
 21
32.1316590753280593
 31
0.0
  0
CIRCLE
  5
534A
  8
0
 10
753.1623840538910599
 20
108.3980282974280982
 30
0.0
 40
0.0940000000000012
  0
CIRCLE
  5
534B
  8
0
 10
752.4123840538910599
 20
108.3980282974280982
 30
0.0
 40
0.0940000000000012
  0
CIRCLE
  5
534C
  8
0
 10
751.6623840538911736
 20
108.3980282974280982
 30
0.0
 40
0.0940000000000012
  0
CIRCLE
  5
534D
  8
0
 10
750.9123840538911736
 20
108.3980282974280982
 30
0.0
 40
0.0940000000000012
  0
CIRCLE
  5
534E
  8
0
 10
750.1623840538910599
 20
108.3980282974280982
 30
0.0
 40
0.0940000000000012
  0
CIRCLE
  5
534F
  8
0
 10
749.4123840538910599
 20
108.3980282974280982
 30
0.0
 40
0.0940000000000012
  0
CIRCLE
  5
5350
  8
0
 10
748.6623840538911736
 20
108.3980282974280982
 30
0.0
 40
0.0940000000000012
  0
CIRCLE
  5
5351
  8
0
 10
747.9123840538910599
 20
108.3980282974280982
 30
0.0
 40
0.0940000000000012
  0
CIRCLE
  5
5352
  8
0
 10
747.1623840538910599
 20
108.3980282974280982
 30
0.0
 40
0.0940000000000012
  0
CIRCLE
  5
5353
  8
0
 10
746.4123840538911736
 20
108.3980282974280982
 30
0.0
 40
0.0940000000000012
  0
CIRCLE
  5
5354
  8
0
 10
745.6623840538910599
 20
108.3980282974280982
 30
0.0
 40
0.0940000000000012
  0
CIRCLE
  5
5355
  8
0
 10
744.9123840538910599
 20
108.3980282974280982
 30
0.0
 40
0.0940000000000012
  0
CIRCLE
  5
5356
  8
0
 10
744.1623840538911736
 20
108.3980282974280982
 30
0.0
 40
0.0940000000000012
  0
CIRCLE
  5
5357
  8
0
 10
743.4123840538910599
 20
108.3980282974280982
 30
0.0
 40
0.0940000000000012
  0
CIRCLE
  5
5358
  8
0
 10
742.6623840538910599
 20
108.3980282974280982
 30
0.0
 40
0.0940000000000012
  0
CIRCLE
  5
5359
  8
0
 10
741.9123840538911736
 20
108.3980282974280982
 30
0.0
 40
0.0940000000000012
  0
CIRCLE
  5
535A
  8
0
 10
741.1623840538910599
 20
108.3980282974280982
 30
0.0
 40
0.0940000000000012
  0
CIRCLE
  5
535B
  8
0
 10
740.4123840538910599
 20
108.3980282974280982
 30
0.0
 40
0.0940000000000012
  0
CIRCLE
  5
535C
  8
0
 10
739.6623840538911736
 20
108.3980282974280982
 30
0.0
 40
0.0940000000000012
  0
CIRCLE
  5
535D
  8
0
 10
738.9123840538910599
 20
108.3980282974280982
 30
0.0
 40
0.0940000000000012
  0
CIRCLE
  5
535E
  8
0
 10
738.1623840538910599
 20
108.3980282974280982
 30
0.0
 40
0.0940000000000012
  0
CIRCLE
  5
535F
  8
0
 10
737.4123840538911736
 20
108.3980282974280982
 30
0.0
 40
0.0940000000000012
  0
CIRCLE
  5
5360
  8
0
 10
736.6623840538910599
 20
108.3980282974280982
 30
0.0
 40
0.0940000000000012
  0
CIRCLE
  5
5361
  8
0
 10
735.9123840538910599
 20
108.3980282974280982
 30
0.0
 40
0.0940000000000012
  0
CIRCLE
  5
5362
  8
0
 10
735.1623840538911736
 20
108.3980282974280982
 30
0.0
 40
0.0940000000000012
  0
CIRCLE
  5
5363
  8
0
 10
734.4123840538910599
 20
108.3980282974280982
 30
0.0
 40
0.0940000000000012
  0
CIRCLE
  5
5364
  8
0
 10
733.6623840538910599
 20
108.3980282974280982
 30
0.0
 40
0.0940000000000012
  0
CIRCLE
  5
5365
  8
0
 10
732.9123840538911736
 20
108.3980282974280982
 30
0.0
 40
0.0940000000000012
  0
CIRCLE
  5
5366
  8
0
 10
732.1623840538911736
 20
108.3980282974280982
 30
0.0
 40
0.0940000000000012
  0
CIRCLE
  5
5367
  8
0
 10
731.4123840538910599
 20
108.3980282974280982
 30
0.0
 40
0.0940000000000012
  0
CIRCLE
  5
5368
  8
0
 10
730.6623840538910599
 20
108.3980282974280982
 30
0.0
 40
0.0940000000000012
  0
CIRCLE
  5
5369
  8
0
 10
729.9123840538911736
 20
108.3980282974280982
 30
0.0
 40
0.0940000000000012
  0
CIRCLE
  5
536A
  8
0
 10
729.1623840538910599
 20
108.3980282974280982
 30
0.0
 40
0.0940000000000012
  0
CIRCLE
  5
536B
  8
0
 10
728.4123840538910599
 20
108.3980282974280982
 30
0.0
 40
0.0940000000000012
  0
CIRCLE
  5
536C
  8
0
 10
727.6623840538911736
 20
108.3980282974280982
 30
0.0
 40
0.0940000000000012
  0
CIRCLE
  5
536D
  8
0
 10
726.9123840538910599
 20
108.3980282974280982
 30
0.0
 40
0.0940000000000012
  0
CIRCLE
  5
536E
  8
0
 10
726.1623840538910599
 20
108.3980282974280982
 30
0.0
 40
0.0940000000000012
  0
CIRCLE
  5
536F
  8
0
 10
725.4123840538911736
 20
108.3980282974280982
 30
0.0
 40
0.0940000000000012
  0
CIRCLE
  5
5370
  8
0
 10
724.6623840538910599
 20
108.3980282974280982
 30
0.0
 40
0.0940000000000012
  0
CIRCLE
  5
5371
  8
0
 10
723.9123840538910599
 20
108.3980282974280982
 30
0.0
 40
0.0940000000000012
  0
CIRCLE
  5
5372
  8
0
 10
753.913164158391055
 20
108.3980282974280982
 30
0.0
 40
0.0940000000000012
  0
CIRCLE
  5
5373
  8
0
 10
754.663164158391055
 20
108.3980282974280982
 30
0.0
 40
0.0940000000000012
  0
CIRCLE
  5
5374
  8
0
 10
755.4131641583911687
 20
108.3980282974280982
 30
0.0
 40
0.0940000000000012
  0
CIRCLE
  5
5375
  8
0
 10
756.163164158391055
 20
108.3980282974280982
 30
0.0
 40
0.0940000000000012
  0
CIRCLE
  5
5376
  8
0
 10
756.913164158391055
 20
108.3980282974280982
 30
0.0
 40
0.0940000000000012
  0
CIRCLE
  5
5377
  8
0
 10
757.6631641583911687
 20
108.3980282974280982
 30
0.0
 40
0.0940000000000012
  0
CIRCLE
  5
5378
  8
0
 10
758.413164158391055
 20
108.3980282974280982
 30
0.0
 40
0.0940000000000012
  0
CIRCLE
  5
5379
  8
0
 10
759.163164158391055
 20
108.3980282974280982
 30
0.0
 40
0.0940000000000012
  0
CIRCLE
  5
537A
  8
0
 10
759.9131641583911687
 20
108.3980282974280982
 30
0.0
 40
0.0940000000000012
  0
CIRCLE
  5
537B
  8
0
 10
760.663164158391055
 20
108.3980282974280982
 30
0.0
 40
0.0940000000000012
  0
CIRCLE
  5
537C
  8
0
 10
761.413164158391055
 20
108.3980282974280982
 30
0.0
 40
0.0940000000000012
  0
CIRCLE
  5
537D
  8
0
 10
762.1631641583911687
 20
108.3980282974280982
 30
0.0
 40
0.0940000000000012
  0
CIRCLE
  5
537E
  8
0
 10
762.913164158391055
 20
108.3980282974280982
 30
0.0
 40
0.0940000000000012
  0
CIRCLE
  5
537F
  8
0
 10
763.663164158391055
 20
108.3980282974280982
 30
0.0
 40
0.0940000000000012
  0
CIRCLE
  5
5380
  8
0
 10
764.4131641583911687
 20
108.3980282974280982
 30
0.0
 40
0.0940000000000012
  0
CIRCLE
  5
5381
  8
0
 10
765.163164158391055
 20
108.3980282974280982
 30
0.0
 40
0.0940000000000012
  0
CIRCLE
  5
5382
  8
0
 10
765.913164158391055
 20
108.3980282974280982
 30
0.0
 40
0.0940000000000012
  0
CIRCLE
  5
5383
  8
0
 10
766.663164158391055
 20
108.3980282974280982
 30
0.0
 40
0.0940000000000012
  0
CIRCLE
  5
5384
  8
0
 10
767.4131641583911687
 20
108.3980282974280982
 30
0.0
 40
0.0940000000000012
  0
CIRCLE
  5
5385
  8
0
 10
768.163164158391055
 20
108.3980282974280982
 30
0.0
 40
0.0940000000000012
  0
CIRCLE
  5
5386
  8
0
 10
768.913164158391055
 20
108.3980282974280982
 30
0.0
 40
0.0940000000000012
  0
CIRCLE
  5
5387
  8
0
 10
769.6631641583911687
 20
108.3980282974280982
 30
0.0
 40
0.0940000000000012
  0
CIRCLE
  5
5388
  8
0
 10
770.413164158391055
 20
108.3980282974280982
 30
0.0
 40
0.0940000000000012
  0
CIRCLE
  5
5389
  8
0
 10
771.163164158391055
 20
108.3980282974280982
 30
0.0
 40
0.0940000000000012
  0
CIRCLE
  5
538A
  8
0
 10
771.9131641583911687
 20
108.3980282974280982
 30
0.0
 40
0.0940000000000012
  0
CIRCLE
  5
538B
  8
0
 10
772.663164158391055
 20
108.3980282974280982
 30
0.0
 40
0.0940000000000012
  0
CIRCLE
  5
538C
  8
0
 10
773.413164158391055
 20
108.3980282974280982
 30
0.0
 40
0.0940000000000012
  0
CIRCLE
  5
538D
  8
0
 10
774.1631641583911687
 20
108.3980282974280982
 30
0.0
 40
0.0940000000000012
  0
CIRCLE
  5
538E
  8
0
 10
774.913164158391055
 20
108.3980282974280982
 30
0.0
 40
0.0940000000000012
  0
CIRCLE
  5
538F
  8
0
 10
775.663164158391055
 20
108.3980282974280982
 30
0.0
 40
0.0940000000000012
  0
CIRCLE
  5
5390
  8
0
 10
776.4131641583911687
 20
108.3980282974280982
 30
0.0
 40
0.0940000000000012
  0
CIRCLE
  5
5391
  8
0
 10
777.163164158391055
 20
108.3980282974280982
 30
0.0
 40
0.0940000000000012
  0
CIRCLE
  5
5392
  8
0
 10
777.913164158391055
 20
108.3980282974280982
 30
0.0
 40
0.0940000000000012
  0
CIRCLE
  5
5393
  8
0
 10
778.6631641583911687
 20
108.3980282974280982
 30
0.0
 40
0.0940000000000012
  0
CIRCLE
  5
5394
  8
0
 10
779.413164158391055
 20
108.3980282974280982
 30
0.0
 40
0.0940000000000012
  0
CIRCLE
  5
5395
  8
0
 10
780.163164158391055
 20
108.3980282974280982
 30
0.0
 40
0.0940000000000012
  0
CIRCLE
  5
5396
  8
0
 10
780.9131641583911687
 20
108.3980282974280982
 30
0.0
 40
0.0940000000000012
  0
CIRCLE
  5
5397
  8
0
 10
781.663164158391055
 20
108.3980282974280982
 30
0.0
 40
0.0940000000000012
  0
CIRCLE
  5
5398
  8
0
 10
782.413164158391055
 20
108.3980282974280982
 30
0.0
 40
0.0940000000000012
  0
LINE
  5
5399
  8
0
 10
725.8280825109185344
 20
102.7833944255780949
 30
0.0
 11
780.497465701363808
 21
102.7833944255780949
 31
0.0
  0
ENDSEC
  0
EOF
