  0
SECTION
  2
HEADER
  9
$ACADVER
  1
AC1009
  9
$INSBASE
 10
811.1954408211350938
 20
78.1445690206290493
 30
0.0
  9
$EXTMIN
 10
775.8821881852536535
 20
78.1334379004449602
 30
-0.0015258207003583
  9
$EXTMAX
 10
811.2238325051279162
 20
153.7033160759374084
 30
0.0000000349246037
  9
$LIMMIN
 10
0.0
 20
0.0
  9
$LIMMAX
 10
11.6929133858000007
 20
8.2677165353999982
  9
$ORTHOMODE
 70
     1
  9
$REGENMODE
 70
     1
  9
$FILLMODE
 70
     1
  9
$QTEXTMODE
 70
     0
  9
$MIRRTEXT
 70
     0
  9
$DRAGMODE
 70
     2
  9
$LTSCALE
 40
0.6431102362
  9
$OSMODE
 70
     7
  9
$ATTMODE
 70
     1
  9
$TEXTSIZE
 40
0.2
  9
$TRACEWID
 40
0.05
  9
$TEXTSTYLE
  7
STANDARD
  9
$CLAYER
  8
0
  9
$CELTYPE
  6
BYLAYER
  9
$CECOLOR
 62
   256
  9
$DIMSCALE
 40
1.0
  9
$DIMASZ
 40
0.1875
  9
$DIMEXO
 40
0.0625
  9
$DIMDLI
 40
0.4443307087
  9
$DIMRND
 40
0.0
  9
$DIMDLE
 40
0.0
  9
$DIMEXE
 40
0.125
  9
$DIMTP
 40
0.01
  9
$DIMTM
 40
0.01
  9
$DIMTXT
 40
2.0
  9
$DIMCEN
 40
0.1052362205
  9
$DIMTSZ
 40
0.0
  9
$DIMTOL
 70
     1
  9
$DIMLIM
 70
     0
  9
$DIMTIH
 70
     1
  9
$DIMTOH
 70
     1
  9
$DIMSE1
 70
     0
  9
$DIMSE2
 70
     0
  9
$DIMTAD
 70
     0
  9
$DIMZIN
 70
     0
  9
$DIMBLK
  1

  9
$DIMASO
 70
     1
  9
$DIMSHO
 70
     1
  9
$DIMPOST
  1
\X
  9
$DIMAPOST
  1

  9
$DIMALT
 70
     1
  9
$DIMALTD
 70
     2
  9
$DIMALTF
 40
25.3999999999999986
  9
$DIMLFAC
 40
1.0
  9
$DIMTOFL
 70
     0
  9
$DIMTVP
 40
0.0
  9
$DIMTIX
 70
     0
  9
$DIMSOXD
 70
     0
  9
$DIMSAH
 70
     0
  9
$DIMBLK1
  1

  9
$DIMBLK2
  1

  9
$DIMSTYLE
  2
STANDARD
  9
$DIMCLRD
 70
     0
  9
$DIMCLRE
 70
     0
  9
$DIMCLRT
 70
     0
  9
$DIMTFAC
 40
1.0
  9
$DIMGAP
 40
0.09
  9
$LUNITS
 70
     2
  9
$LUPREC
 70
     4
  9
$SKETCHINC
 40
0.1
  9
$FILLETRAD
 40
0.0
  9
$AUNITS
 70
     0
  9
$AUPREC
 70
     0
  9
$MENU
  1
.
  9
$ELEVATION
 40
0.0
  9
$PELEVATION
 40
0.0
  9
$THICKNESS
 40
0.0
  9
$LIMCHECK
 70
     0
  9
$BLIPMODE
 70
     0
  9
$CHAMFERA
 40
0.0
  9
$CHAMFERB
 40
0.0
  9
$SKPOLY
 70
     0
  9
$TDCREATE
 40
2458106.4931018520146608
  9
$TDUPDATE
 40
2459685.6784027782268822
  9
$TDINDWG
 40
0.2843851389
  9
$TDUSRTIMER
 40
0.2843851389
  9
$USRTIMER
 70
     1
  9
$ANGBASE
 50
0.0
  9
$ANGDIR
 70
     0
  9
$PDMODE
 70
     0
  9
$PDSIZE
 40
0.3125
  9
$PLINEWID
 40
0.0
  9
$COORDS
 70
     1
  9
$SPLFRAME
 70
     0
  9
$SPLINETYPE
 70
     6
  9
$SPLINESEGS
 70
     8
  9
$ATTDIA
 70
     1
  9
$ATTREQ
 70
     1
  9
$HANDLING
 70
     1
  9
$HANDSEED
  5
50D8
  9
$SURFTAB1
 70
     6
  9
$SURFTAB2
 70
     6
  9
$SURFTYPE
 70
     6
  9
$SURFU
 70
     6
  9
$SURFV
 70
     6
  9
$UCSNAME
  2

  9
$UCSORG
 10
0.0
 20
0.0
 30
0.0
  9
$UCSXDIR
 10
1.0
 20
0.0
 30
0.0
  9
$UCSYDIR
 10
0.0
 20
1.0
 30
0.0
  9
$PUCSNAME
  2

  9
$PUCSORG
 10
0.0
 20
0.0
 30
0.0
  9
$PUCSXDIR
 10
1.0
 20
0.0
 30
0.0
  9
$PUCSYDIR
 10
0.0
 20
1.0
 30
0.0
  9
$USERI1
 70
     0
  9
$USERI2
 70
     0
  9
$USERI3
 70
     0
  9
$USERI4
 70
     0
  9
$USERI5
 70
     0
  9
$USERR1
 40
0.0
  9
$USERR2
 40
0.0
  9
$USERR3
 40
0.0
  9
$USERR4
 40
0.0
  9
$USERR5
 40
0.0
  9
$WORLDVIEW
 70
     1
  9
$SHADEDGE
 70
     3
  9
$SHADEDIF
 70
    70
  9
$TILEMODE
 70
     1
  9
$MAXACTVP
 70
    64
  9
$PLIMCHECK
 70
     0
  9
$PEXTMIN
 10
1.0000000000000000E+20
 20
1.0000000000000000E+20
 30
1.0000000000000000E+20
  9
$PEXTMAX
 10
-1.0000000000000000E+20
 20
-1.0000000000000000E+20
 30
-1.0000000000000000E+20
  9
$PLIMMIN
 10
0.0
 20
0.0
  9
$PLIMMAX
 10
12.0
 20
9.0
  9
$UNITMODE
 70
     0
  9
$VISRETAIN
 70
     1
  9
$PLINEGEN
 70
     0
  9
$PSLTSCALE
 70
     1
  0
ENDSEC
  0
SECTION
  2
TABLES
  0
TABLE
  2
VPORT
 70
     1
  0
VPORT
  2
*ACTIVE
 70
     0
 10
0.0
 20
0.0
 11
1.0
 21
1.0
 12
519.9788087886777248
 22
133.5243377222126071
 13
0.0
 23
0.0
 14
1.0
 24
1.0
 15
0.0
 25
0.0
 16
-0.0000000000000568
 26
0.0
 36
193.9250709296327955
 17
273.5742015565131169
 27
-17.6059607340214797
 37
0.0
 40
76.1109512889207735
 41
2.2831541218637992
 42
50.0
 43
0.0
 44
0.0
 50
0.0
 51
0.0
 71
     0
 72
   100
 73
     1
 74
     1
 75
     0
 76
     0
 77
     0
 78
     0
  0
ENDTAB
  0
TABLE
  2
LTYPE
 70
     2
  0
LTYPE
  2
CONTINUOUS
 70
     0
  3
Solid line
 72
    65
 73
     0
 40
0.0
  0
LTYPE
  2
PHANTOM2
 70
     0
  3
___ _ _ ___ _ _ ___ _ _ ___ _ _
 72
    65
 73
     6
 40
1.25
 49
0.625
 49
-0.125
 49
0.125
 49
-0.125
 49
0.125
 49
-0.125
  0
ENDTAB
  0
TABLE
  2
LAYER
 70
     2
  0
LAYER
  2
0
 70
     0
 62
   255
  6
CONTINUOUS
  0
LAYER
  2
DEFPOINTS
 70
     0
 62
     7
  6
CONTINUOUS
  0
ENDTAB
  0
TABLE
  2
STYLE
 70
     1
  0
STYLE
  2
STANDARD
 70
     0
 40
0.0
 41
0.8
 50
0.0
 71
     0
 42
0.2
  3
txt
  4

  0
ENDTAB
  0
TABLE
  2
VIEW
 70
     0
  0
ENDTAB
  0
TABLE
  2
UCS
 70
     0
  0
ENDTAB
  0
TABLE
  2
APPID
 70
     9
  0
APPID
  2
ACAD
 70
     0
  0
APPID
  2
ACAD_MLEADERVER
 70
     0
  0
APPID
  2
ACAD_EXEMPT_FROM_CAD_STANDARDS
 70
     0
  0
APPID
  2
ACAD_NAV_VCDISPLAY
 70
     0
  0
APPID
  2
ACAD_DSTYLE_DIMJAG
 70
     0
  0
APPID
  2
ACAD_DSTYLE_DIMTALN
 70
     0
  0
APPID
  2
ACAECLAYERSTANDARD
 70
     0
  0
APPID
  2
ACCMTRANSPARENCY
 70
     0
  0
APPID
  2
ACDBATTR
 70
     0
  0
ENDTAB
  0
TABLE
  2
DIMSTYLE
 70
     1
  0
DIMSTYLE
  2
STANDARD
 70
     0
  3

  4

  5

  6

  7

 40
1.0
 41
0.1875
 42
0.0625
 43
0.38
 44
0.125
 45
0.0
 46
0.0
 47
0.01
 48
0.01
140
0.15625
141
0.09
142
0.0
143
25.3999999999999986
144
1.0
145
0.0
146
1.0
147
0.09
 71
     1
 72
     0
 73
     1
 74
     1
 75
     0
 76
     0
 77
     0
 78
     4
170
     0
171
     2
172
     0
173
     0
174
     0
175
     0
176
     0
177
     0
178
     0
  0
ENDTAB
  0
ENDSEC
  0
SECTION
  2
BLOCKS
  0
BLOCK
  8
0
  2
$MODEL_SPACE
 70
     0
 10
0.0
 20
0.0
 30
0.0
  3
$MODEL_SPACE
  1

  0
ENDBLK
  5
21
  8
0
  0
BLOCK
 67
     1
  8
0
  2
$PAPER_SPACE
 70
     0
 10
0.0
 20
0.0
 30
0.0
  3
$PAPER_SPACE
  1

  0
ENDBLK
  5
1D
 67
     1
  8
0
  0
ENDSEC
  0
SECTION
  2
ENTITIES
  0
ATTDEF
  5
FAA
  8
DEFPOINTS
 10
811.1954768372016815
 20
78.1479388500125651
 30
0.0
 40
0.001
  1
72430100
  3

  2
MODELNUMBER
 70
     0
1001
ACDBATTR
1070
     0
1070
     1
  0
ATTDEF
  5
FAB
  8
DEFPOINTS
 10
811.1954768372016815
 20
78.1462721833459
 30
0.0
 40
0.001
  1
ENSEMBLE
  3

  2
TRADENAME
 70
     0
1001
ACDBATTR
1070
     0
1070
     1
  0
ATTDEF
  5
FAC
  8
DEFPOINTS
 10
811.1954768372016815
 20
78.1446055166792348
 30
0.0
 40
0.001
  1
BATH AND SHOWER STALL
  3

  2
PRODUCT
 70
     0
1001
ACDBATTR
1070
     0
1070
     1
  0
LINE
  5
4B7A
  8
0
 10
777.1954408211350938
 20
78.1445690206289356
 30
0.0
 11
777.350440819430446
 21
78.1445690206290493
 31
0.0
  0
LINE
  5
4B7B
  8
0
 10
784.2999120558865798
 20
78.1445690206289356
 30
0.0
 11
785.2999678269715105
 21
78.1445690206289356
 31
0.0
  0
LINE
  5
4B7C
  8
0
 10
787.2999685415327349
 20
78.1445690206289356
 30
0.0
 11
788.2999299045875432
 21
78.1445690206289356
 31
0.0
  0
LINE
  5
4B7D
  8
0
 10
788.3834935474501435
 20
78.1445690206289356
 30
0.0
 11
802.2152688096608699
 21
78.1445690206289356
 31
0.0
  0
LINE
  5
4B7E
  8
0
 10
805.2999373599452611
 20
78.1445690206289356
 30
0.0
 11
806.2999717458828854
 21
78.1445690206289356
 31
0.0
  0
LINE
  5
4B7F
  8
0
 10
811.1954408211350938
 20
153.7030794844289971
 30
0.0
 11
811.1954408211350938
 21
152.4894379327849094
 31
0.0
  0
LINE
  5
4B80
  8
0
 10
811.1954408211350938
 20
82.3164690206289862
 30
0.0
 11
811.1954408211350938
 21
80.6414690206290317
 31
0.0
  0
LINE
  5
4B81
  8
0
 10
775.9316082820351994
 20
152.0938257657331008
 30
0.0
 11
775.9316082820351994
 21
82.7680169031293218
 31
0.0
  0
LINE
  5
4B82
  8
0
 10
775.9680806159351505
 20
152.1818455184289007
 30
0.0
 11
777.1450596969340268
 21
153.3588245993277042
 31
0.0
  0
ARC
  5
4B83
  8
0
 10
776.0560936895236637
 20
152.0938096404296971
 30
0.0
 40
0.1244854085328734
 50
134.9925782205723976
 51
179.992578151578698
  0
LINE
  5
4B84
  8
0
 10
777.55774585185452
 20
151.9809385920281954
 30
0.0
 11
780.3445607279309115
 21
151.9809385920281954
 31
0.0
  0
ARC
  5
4B85
  8
0
 10
777.5710000811449163
 20
152.9001206867976066
 30
0.0
 40
0.9192776500810598
 50
263.2863466276774034
 51
269.1738755829892966
  0
ARC
  5
4B86
  8
0
 10
777.4637871094646471
 20
151.8469635728897913
 30
0.0
 40
0.1401833532362681
 50
90.1052008703058931
 51
179.2742199925089892
  0
LINE
  5
4B87
  8
0
 10
777.3236150029352984
 20
151.8487392630912893
 30
0.0
 11
777.3236150029352984
 21
81.4314331865289915
 31
0.0
  0
LINE
  5
4B88
  8
0
 10
778.0169340778935521
 20
82.3164690206289862
 30
0.0
 11
811.1954408211350938
 21
82.3164690206289862
 31
0.0
  0
LINE
  5
4B89
  8
0
 10
777.2461426107199713
 20
81.127662062873199
 30
0.0
 11
777.9091923011350218
 21
82.2548465365286603
 31
0.0
  0
LINE
  5
4B8A
  8
0
 10
777.1954408211350938
 20
80.9414694605519145
 30
0.0
 11
777.1954408211350938
 21
78.1445690206289356
 31
0.0
  0
ARC
  5
4B8B
  8
0
 10
777.562670034652001
 20
80.9414694605519145
 30
0.0
 40
0.3672292135168285
 50
149.5344551055266038
 51
179.9999998943659989
  0
ARC
  5
4B8C
  8
0
 10
777.5129169366729229
 20
80.9310106655312467
 30
0.0
 40
0.1478369540472654
 50
27.3272462804762988
 51
176.0113671252150027
  0
LINE
  5
4B8D
  8
0
 10
777.3614506822771091
 20
79.0892188244719847
 30
0.0
 11
777.3654380629652678
 21
80.9412939914487453
 31
0.0
  0
LINE
  5
4B8E
  8
0
 10
777.6442551428351635
 20
80.9988784825289656
 30
0.0
 11
777.6719384703352489
 21
80.9394971836289443
 31
0.0
  0
ARC
  5
4B8F
  8
0
 10
777.9438090532687511
 20
81.0662421778340132
 30
0.0
 40
0.2999631767744946
 50
204.9947476314216885
 51
269.9971561122818002
  0
LINE
  5
4B90
  8
0
 10
777.9437941645352339
 20
80.7662790014289271
 30
0.0
 11
780.4413670213351679
 21
80.766184684829085
 31
0.0
  0
ARC
  5
4B91
  8
0
 10
781.1675717785810775
 20
80.9099472722203643
 30
0.0
 40
0.6421530895199071
 50
200.1021841359375912
 51
227.5966239520629983
  0
ARC
  5
4B92
  8
0
 10
780.611822745069162
 20
80.2957835141794618
 30
0.0
 40
0.1861605793854073
 50
34.6890559346331884
 51
48.7616525653495287
  0
ARC
  5
4B93
  8
0
 10
781.9065889194671399
 20
81.1807671866130107
 30
0.0
 40
1.382159205486285
 50
214.3076672207158992
 51
237.1772278868619992
  0
ARC
  5
4B94
  8
0
 10
782.0987571750305278
 20
81.5460962069281976
 30
0.0
 40
1.7936993319350469
 50
238.3443366588452932
 51
270.8464235416553265
  0
ARC
  5
4B95
  8
0
 10
778.6584171713019487
 20
78.7632503109336568
 30
0.0
 40
1.3039064277637451
 50
89.7854153501909735
 51
158.0726543286073991
  0
ARC
  5
4B96
  8
0
 10
778.6807888777649396
 20
78.7568359422871964
 30
0.0
 40
1.3270572218687471
 50
158.1764445549956974
 51
179.4500926517924881
  0
ARC
  5
4B97
  8
0
 10
789.891988280237797
 20
78.6291044425932597
 30
0.0
 40
12.5389823246672005
 50
177.8970755920549038
 51
179.3581304052123926
  0
LINE
  5
4B98
  8
0
 10
777.350440819430446
 20
78.1445690206299588
 30
0.0
 11
777.3537927768469444
 21
78.7695724356261309
 31
0.0
  0
LINE
  5
4B99
  8
0
 10
778.6633005615351522
 20
80.0671475940290236
 30
0.0
 11
780.105671905535246
 21
80.0671480663290538
 31
0.0
  0
ARC
  5
4B9A
  8
0
 10
780.0962641833774569
 20
78.9856121359086387
 30
0.0
 40
1.081576846103159
 50
73.258253628177556
 51
89.501626191862016
  0
ARC
  5
4B9B
  8
0
 10
779.8409775502173034
 20
78.2156788084136707
 30
0.0
 40
1.8925482488832071
 50
60.7083901445341496
 51
72.5716117665916727
  0
LINE
  5
4B9C
  8
0
 10
781.9076031595353697
 20
79.2384438980288337
 30
0.0
 11
783.1881366621352072
 21
78.5081577025290045
 31
0.0
  0
ARC
  5
4B9D
  8
0
 10
784.1633637250316724
 20
80.2534008871719635
 30
0.0
 40
1.999235253227668
 50
240.8039122658123858
 51
267.6805454979985939
  0
ARC
  5
4B9E
  8
0
 10
783.8547905832616607
 20
77.5425527977468647
 30
0.0
 40
0.7487033177469272
 50
53.5213523054742666
 51
83.9464777119024319
  0
ARC
  5
4B9F
  8
0
 10
749.1153561197545514
 20
22.3226234109975614
 30
0.0
 40
65.7137583468758777
 50
60.6346468900193187
 51
60.9502323057202631
  0
ARC
  5
4BA0
  8
0
 10
782.2427629139118608
 20
81.1416391042418326
 30
0.0
 40
1.854876923470363
 50
225.7330079371457998
 51
248.9070100088038089
  0
ARC
  5
4BA1
  8
0
 10
779.7589709062254997
 20
75.4209290365812137
 30
0.0
 40
4.3840382520601171
 50
64.0669078274799517
 51
66.1542341668766625
  0
ARC
  5
4BA2
  8
0
 10
779.5748498753422382
 20
75.1992215868702942
 30
0.0
 40
4.6644458153006241
 50
59.9924769712915591
 51
63.223938014069013
  0
ARC
  5
4BA3
  8
0
 10
782.1620045794352336
 20
80.971928698529112
 30
0.0
 40
1.6652423931000691
 50
247.7451495586608132
 51
253.2023930123324931
  0
ARC
  5
4BA4
  8
0
 10
780.34456592512322
 20
73.7477380028332163
 30
0.0
 40
6.3230395669088857
 50
84.8408244504445435
 51
91.9827283234633342
  0
ARC
  5
4BA5
  8
0
 10
780.7754756192359764
 20
78.7795455162324458
 30
0.0
 40
1.273082058502593
 50
64.8027977689019536
 51
83.7916361260749909
  0
ARC
  5
4BA6
  8
0
 10
780.284136593211997
 20
78.2278426087137859
 30
0.0
 40
1.834535670495971
 50
64.641232600241409
 51
91.4529294755603388
  0
ARC
  5
4BA7
  8
0
 10
782.1460859570350976
 20
81.1011390982290834
 30
0.0
 40
1.6651423244000869
 50
224.5046250668142989
 51
253.6312734513753924
  0
ARC
  5
4BA8
  8
0
 10
782.2178714394666486
 20
81.122976009008724
 30
0.0
 40
1.7641358879738711
 50
221.3054971989280943
 51
240.1520580220683883
  0
ARC
  5
4BA9
  8
0
 10
780.3065566130283059
 20
76.6900387685255538
 30
0.0
 40
3.179932631628712
 50
61.1398408751624487
 51
67.6623752796962634
  0
ARC
  5
4BAA
  8
0
 10
782.1467912952173265
 20
81.2818241804813653
 30
0.0
 40
1.7672169170237639
 50
249.057498380829287
 51
259.5162433127748045
  0
LINE
  5
4BAB
  8
0
 10
782.1252543120302789
 20
79.752592598034397
 30
0.0
 11
784.6652149695476055
 21
79.7201007149669465
 31
0.0
  0
LINE
  5
4BAC
  8
0
 10
782.0860660536352498
 20
79.6453447486290145
 30
0.0
 11
784.5808779192726661
 21
79.6009451279734321
 31
0.0
  0
ARC
  5
4BAD
  8
0
 10
802.9664775886568577
 20
115.713393948211305
 30
0.0
 40
41.9462417796540379
 50
239.7600772287553923
 51
241.8617356515821086
  0
ARC
  5
4BAE
  8
0
 10
784.1379157091464549
 20
80.4639300155102575
 30
0.0
 40
1.983376179677216
 50
241.2716916591556924
 51
269.2727684717331726
  0
LINE
  5
4BAF
  8
0
 10
784.1127422151351993
 20
78.4807135963289539
 30
0.0
 11
784.7062072140352029
 21
78.4721466260289731
 31
0.0
  0
ARC
  5
4BB0
  8
0
 10
784.840368106365645
 20
83.3286941065034199
 30
0.0
 40
4.858400207386472
 50
268.4176210600991226
 51
270.5671486156372225
  0
LINE
  5
4BB1
  8
0
 10
784.8884587332506726
 20
78.4705319162570305
 30
0.0
 11
786.9889368068587601
 21
78.4442714190474533
 31
0.0
  0
ARC
  5
4BB2
  8
0
 10
780.2893488257227546
 20
76.6199391151709932
 30
0.0
 40
3.1999891690157849
 50
61.0667499069177993
 51
68.0423747494802598
  0
ARC
  5
4BB3
  8
0
 10
797.8520903022242692
 20
106.2919666075263052
 30
0.0
 40
31.2816674264548311
 50
239.2062625812363876
 51
242.0393674429504927
  0
ARC
  5
4BB4
  8
0
 10
784.1385412662464205
 20
80.4010496557102243
 30
0.0
 40
1.983376179677216
 50
241.2716916591556924
 51
269.2727684717331726
  0
LINE
  5
4BB5
  8
0
 10
784.1133677722351649
 20
78.4178332365290345
 30
0.0
 11
784.7064580215352407
 21
78.4089488286289935
 31
0.0
  0
LINE
  5
4BB6
  8
0
 10
784.888611494135148
 20
78.4060332249290042
 30
0.0
 11
786.7662088417350787
 21
78.3769231403289837
 31
0.0
  0
ARC
  5
4BB7
  8
0
 10
780.202596048327905
 20
76.4017379822720812
 30
0.0
 40
3.3885337755238432
 50
59.7409435765277976
 51
67.7104691223489823
  0
ARC
  5
4BB8
  8
0
 10
801.5618281832313414
 20
112.6752515149143932
 30
0.0
 40
38.706443692767678
 50
239.4884728918960093
 51
241.628602742791287
  0
ARC
  5
4BB9
  8
0
 10
784.1303885741112936
 20
80.2832113627262771
 30
0.0
 40
1.922758835780672
 50
240.0033327010135054
 51
269.4946186021429071
  0
LINE
  5
4BBA
  8
0
 10
784.1134289663351638
 20
78.3605273241290234
 30
0.0
 11
784.7063643275351978
 21
78.3501223873290229
 31
0.0
  0
LINE
  5
4BBB
  8
0
 10
784.8885047337350898
 20
78.345976728628969
 30
0.0
 11
787.0711056303351825
 21
78.3080674316290271
 31
0.0
  0
ARC
  5
4BBC
  8
0
 10
780.1672738771708282
 20
76.3042550583237613
 30
0.0
 40
3.4536496329337512
 50
59.7985933848254092
 51
67.3602661578693471
  0
ARC
  5
4BBD
  8
0
 10
801.9912033370042082
 20
113.2121850272531987
 30
0.0
 40
39.4239300077640209
 50
239.3692848507631084
 51
241.5110267285838006
  0
ARC
  5
4BBE
  8
0
 10
784.1241349479131486
 20
80.1910632276810134
 30
0.0
 40
1.8795580146270079
 50
240.0718491800001004
 51
269.6615316851356283
  0
LINE
  5
4BBF
  8
0
 10
784.1130317368350688
 20
78.3115380086289434
 30
0.0
 11
784.7062513884352484
 21
78.2993636022290076
 31
0.0
  0
LINE
  5
4BC0
  8
0
 10
784.8884504154351589
 20
78.2948461745290416
 30
0.0
 11
787.1773111816352184
 21
78.248292937029035
 31
0.0
  0
ARC
  5
4BC1
  8
0
 10
784.9634680979306722
 20
88.7742408421115243
 30
0.0
 40
10.3684778393038002
 50
268.579627474532117
 51
269.5863419112650945
  0
ARC
  5
4BC2
  8
0
 10
785.0315749017679536
 20
88.6350570981605443
 30
0.0
 40
10.2900750203125693
 50
268.1889056573169796
 51
269.2033507124771177
  0
ARC
  5
4BC3
  8
0
 10
785.0938855395436349
 20
90.2570799077980865
 30
0.0
 40
11.9639976378959005
 50
268.1432887900755873
 51
269.016119492198186
  0
ARC
  5
4BC4
  8
0
 10
784.1669791395091806
 20
80.292817637593501
 30
0.0
 40
2.019251319172723
 50
240.9808544820429006
 51
263.3672865505575942
  0
LINE
  5
4BC5
  8
0
 10
783.1874365902084492
 20
78.5270678580124724
 30
0.0
 11
781.8323352557353019
 21
79.2977707379289569
 31
0.0
  0
ARC
  5
4BC6
  8
0
 10
780.2659025231751002
 20
76.5123994783010062
 30
0.0
 40
3.195622718594497
 50
60.6475377327375327
 51
66.9946093054819443
  0
ARC
  5
4BC7
  8
0
 10
782.2922852400115517
 20
81.3862119438312703
 30
0.0
 40
2.082887973847003
 50
248.0826575073463971
 51
254.7612161400882087
  0
ARC
  5
4BC8
  8
0
 10
782.2907985686537131
 20
81.4589393846576542
 30
0.0
 40
2.1213921743658211
 50
248.0173319162277892
 51
256.143803085958325
  0
ARC
  5
4BC9
  8
0
 10
782.2797065299956785
 20
81.604387905484657
 30
0.0
 40
2.167200218666252
 50
248.5132473709265923
 51
257.7718011473335196
  0
ARC
  5
4BCA
  8
0
 10
782.2864298645903318
 20
81.5320442621378589
 30
0.0
 40
2.1488755172308021
 50
248.183244963252605
 51
257.091992313282276
  0
LINE
  5
4BCB
  8
0
 10
784.2887539899237481
 20
78.3079317320721913
 30
0.0
 11
784.3024534422246461
 21
78.1445690206289356
 31
0.0
  0
LINE
  5
4BCC
  8
0
 10
785.2894572548023007
 20
78.2866900791876361
 30
0.0
 11
785.2957137728352563
 21
78.1753341506290127
 31
0.0
  0
ARC
  5
4BCD
  8
0
 10
785.5333126494175531
 20
78.1886836119031869
 30
0.0
 40
0.2379735999423044
 50
183.2157748063885094
 51
190.6830541170365905
  0
ARC
  5
4BCE
  8
0
 10
786.7570192900290067
 20
77.6265644222662132
 30
0.0
 40
0.7504149876124097
 50
43.6531364400511919
 51
89.2983406544054787
  0
ARC
  5
4BCF
  8
0
 10
789.7382981725733089
 20
196.9167789772847073
 30
0.0
 40
118.4988990585183046
 50
269.0175098614607805
 51
269.1056947349733832
  0
LINE
  5
4BD0
  8
0
 10
788.6030215424964354
 20
78.4259297704003018
 30
0.0
 11
790.7200694250351489
 21
78.4070054837289518
 31
0.0
  0
LINE
  5
4BD1
  8
0
 10
787.1827340956797343
 20
79.574745348814119
 30
0.0
 11
787.3024533622159424
 21
78.1445690206289356
 31
0.0
  0
LINE
  5
4BD2
  8
0
 10
788.2176328035934603
 20
79.5661184816878659
 30
0.0
 11
788.2974412884517506
 21
78.1445690206289356
 31
0.0
  0
ARC
  5
4BD3
  8
0
 10
788.8165730633145358
 20
77.60048788436184
 30
0.0
 40
0.7502962323651032
 50
89.6096289830534971
 51
133.5182484961767102
  0
ARC
  5
4BD4
  8
0
 10
796.2234626314541401
 20
729.4289210264422536
 30
0.0
 40
651.1202264947128242
 50
269.3486613729257897
 51
269.5145141940615758
  0
ARC
  5
4BD5
  8
0
 10
795.2888638197844102
 20
519.2183219932458087
 30
0.0
 40
440.9833564631857143
 50
269.1197086857321779
 51
269.404127982062505
  0
ARC
  5
4BD6
  8
0
 10
798.4901538709935949
 20
639.5296167459746357
 30
0.0
 40
561.3946094378840144
 50
268.9703217580109822
 51
269.2069438642290038
  0
ARC
  5
4BD7
  8
0
 10
802.7744718459647402
 20
722.3612498878113684
 30
0.0
 40
644.3469653974125322
 50
268.7159509194905809
 51
268.8477904244221008
  0
ARC
  5
4BD8
  8
0
 10
788.4063073828427832
 20
80.3040269549498618
 30
0.0
 40
2.159578440619065
 50
267.2433972910520765
 51
269.3947148334307258
  0
ARC
  5
4BD9
  8
0
 10
790.4038962319775692
 20
78.6404194427808108
 30
0.0
 40
0.4961745724550549
 50
243.4722267763015111
 51
267.9288228755610248
  0
LINE
  5
4BDA
  8
0
 10
790.4968091757864386
 20
78.1919162959707847
 30
0.0
 11
790.4977240710352362
 21
78.1750031832289807
 31
0.0
  0
ARC
  5
4BDB
  8
0
 10
790.462540862468245
 20
78.173099988302809
 30
0.0
 40
0.0352346465285124
 50
328.9898035457006245
 51
3.0963310953661578
  0
ARC
  5
4BDC
  8
0
 10
790.4737642649606641
 20
78.1663535690020836
 30
0.0
 40
0.0221396498928468
 50
280.2756833445212123
 51
328.9898035457006245
  0
LINE
  5
4BDD
  8
0
 10
790.7453213606943336
 20
78.1885202515238262
 30
0.0
 11
790.7471172925352221
 21
78.1714331013290149
 31
0.0
  0
LINE
  5
4BDE
  8
0
 10
790.7471172925352221
 20
78.1714331013290149
 30
0.0
 11
790.7472018223271562
 21
78.1884995259219551
 31
0.0
  0
ARC
  5
4BDF
  8
0
 10
790.7771868502736652
 20
78.1764107899909533
 30
0.0
 40
0.030478774368567
 50
189.3994541102645996
 51
268.7116396354750805
  0
ARC
  5
4BE0
  8
0
 10
790.5149502897626235
 20
57.20132549243813
 30
0.0
 40
20.9884590831751083
 50
89.0147062743351398
 51
89.4405273403375531
  0
LINE
  5
4BE1
  8
0
 10
790.7765015583350987
 20
78.1459397207290323
 30
0.0
 11
790.8183651171351585
 21
78.1459397207290323
 31
0.0
  0
ARC
  5
4BE2
  8
0
 10
790.818847495789214
 20
78.1759468247582419
 30
0.0
 40
0.0300109810133689
 50
269.0790220684610858
 51
0.2690043197867162
  0
LINE
  5
4BE3
  8
0
 10
790.8488581460352407
 20
78.1760877261289835
 30
0.0
 11
790.8488576898470228
 21
78.1871283251696951
 31
0.0
  0
LINE
  5
4BE4
  8
0
 10
790.7425845323753038
 20
78.2584911131834389
 30
0.0
 11
790.7471192794351964
 21
78.2153458766290015
 31
0.0
  0
LINE
  5
4BE5
  8
0
 10
790.7471192794351964
 20
78.2153458766290015
 30
0.0
 11
790.7473327695581702
 21
78.2584491778057583
 31
0.0
  0
ARC
  5
4BE6
  8
0
 10
790.7771888371737532
 20
78.2203235652909399
 30
0.0
 40
0.030478774368567
 50
189.3994541102645996
 51
268.7116396354750805
  0
LINE
  5
4BE7
  8
0
 10
790.776503545235073
 20
78.1898524960290189
 30
0.0
 11
790.8183671040352465
 21
78.1898524960290189
 31
0.0
  0
ARC
  5
4BE8
  8
0
 10
790.8188494826891883
 20
78.2198596000582285
 30
0.0
 40
0.0300109810133689
 50
269.0790220684610858
 51
0.2690043197867162
  0
LINE
  5
4BE9
  8
0
 10
790.848860132935215
 20
78.2200005014289701
 30
0.0
 11
790.8488585887351974
 21
78.2573730031935639
 31
0.0
  0
LINE
  5
4BEA
  8
0
 10
790.742246723771359
 20
78.3319335545323412
 30
0.0
 11
790.7471231517040451
 21
78.2855374416046317
 31
0.0
  0
LINE
  5
4BEB
  8
0
 10
790.7471231517040451
 20
78.2855374416046317
 30
0.0
 11
790.7473528190034813
 21
78.3319068878192439
 31
0.0
  0
ARC
  5
4BEC
  8
0
 10
790.7771927094426019
 20
78.2905151302666837
 30
0.0
 40
0.030478774368567
 50
189.3994541102645996
 51
268.7116396354750805
  0
LINE
  5
4BED
  8
0
 10
790.7765074175040354
 20
78.2600440610046491
 30
0.0
 11
790.8183709763040952
 21
78.2600440610046491
 31
0.0
  0
ARC
  5
4BEE
  8
0
 10
790.818853354958037
 20
78.2900511650338586
 30
0.0
 40
0.0300109810133689
 50
269.0790220684610858
 51
0.2690043197867162
  0
LINE
  5
4BEF
  8
0
 10
790.84886400520395
 20
78.2901920664046003
 30
0.0
 11
790.8488623193635476
 21
78.3309925270272629
 31
0.0
  0
LINE
  5
4BF0
  8
0
 10
790.7421160109971652
 20
78.4068519646430815
 30
0.0
 11
790.7471253039536805
 21
78.3591917254469337
 31
0.0
  0
LINE
  5
4BF1
  8
0
 10
790.7471253039536805
 20
78.3591917254469337
 30
0.0
 11
790.7473611841630827
 21
78.406815547899626
 31
0.0
  0
ARC
  5
4BF2
  8
0
 10
790.7771948616922373
 20
78.364169414108872
 30
0.0
 40
0.030478774368567
 50
189.3994541102645996
 51
268.7116396354750805
  0
LINE
  5
4BF3
  8
0
 10
790.7765095697535571
 20
78.3336983448468374
 30
0.0
 11
790.8183731285536169
 21
78.3336983448468374
 31
0.0
  0
ARC
  5
4BF4
  8
0
 10
790.8188555072076724
 20
78.3637054488760469
 30
0.0
 40
0.0300109810133689
 50
269.0790220684610858
 51
0.2690043197867162
  0
LINE
  5
4BF5
  8
0
 10
790.8488661574536991
 20
78.3638463502469023
 30
0.0
 11
790.8488644107854952
 21
78.4061189550865976
 31
0.0
  0
LINE
  5
4BF6
  8
0
 10
790.6427006193725902
 20
79.4915837095734048
 30
0.0
 11
790.7391401440004302
 21
78.5924208193936238
 31
0.0
  0
LINE
  5
4BF7
  8
0
 10
790.7391401440004302
 20
78.5924208193936238
 30
0.0
 11
790.7387851597726467
 21
79.6368173680734515
 31
0.0
  0
ARC
  5
4BF8
  8
0
 10
790.7692097017391006
 20
78.5973985080556901
 30
0.0
 40
0.030478774368567
 50
189.3994541102645996
 51
268.7116396354750805
  0
LINE
  5
4BF9
  8
0
 10
790.7685244098004205
 20
78.5669274387936554
 30
0.0
 11
790.8103879686003665
 21
78.5669274387936554
 31
0.0
  0
ARC
  5
4BFA
  8
0
 10
790.8108703472544221
 20
78.596934542822865
 30
0.0
 40
0.0300109810133689
 50
269.0790220684610858
 51
0.2690043197867162
  0
LINE
  5
4BFB
  8
0
 10
790.8408809975004488
 20
78.5970754441936066
 30
0.0
 11
790.8407223274725766
 21
79.6186117473734782
 31
0.0
  0
LINE
  5
4BFC
  8
0
 10
790.8758630478350824
 20
78.1866812594290224
 30
0.0
 11
793.708932960035213
 21
78.1593921882290061
 31
0.0
  0
ARC
  5
4BFD
  8
0
 10
790.4795256809195507
 20
48.2041636130876014
 30
0.0
 40
30.0554787258887401
 50
89.2336110059882515
 51
89.5744539758921121
  0
LINE
  5
4BFE
  8
0
 10
790.848860132935215
 20
78.2200005014289701
 30
0.0
 11
790.8475915493494313
 21
78.2573885475076878
 31
0.0
  0
LINE
  5
4BFF
  8
0
 10
790.881536115835047
 20
78.2569536508289758
 30
0.0
 11
793.7201343695352307
 21
78.236635109428974
 31
0.0
  0
ARC
  5
4C00
  8
0
 10
790.6712422450872282
 20
64.2472547422259623
 30
0.0
 40
14.0848577870642409
 50
89.1659974233577373
 51
89.8570839775826471
  0
LINE
  5
4C01
  8
0
 10
790.8762554759350678
 20
78.3306204073289365
 30
0.0
 11
793.7174916070350719
 21
78.3145284479289359
 31
0.0
  0
ARC
  5
4C02
  8
0
 10
795.3689787480300311
 20
744.4449817485245831
 30
0.0
 40
666.0542006359528386
 50
269.6000850289893833
 51
269.6135350360949019
  0
LINE
  5
4C03
  8
0
 10
790.8764199075352508
 20
78.4059325180289335
 30
0.0
 11
793.7174695770352173
 21
78.3926473660289531
 31
0.0
  0
ARC
  5
4C04
  8
0
 10
791.1196820284592377
 20
79.605951435249807
 30
0.0
 40
0.2792468411237063
 50
158.8672395550057956
 51
177.4014703973442977
  0
ARC
  5
4C05
  8
0
 10
792.0461850106845532
 20
79.2403041138194055
 30
0.0
 40
1.2752864665776771
 50
153.2158546898455995
 51
158.5516498440514113
  0
LINE
  5
4C06
  8
0
 10
790.9077233282725956
 20
79.814987130373396
 30
0.0
 11
790.6880833306724981
 21
79.8161064296733826
 31
0.0
  0
ARC
  5
4C07
  8
0
 10
789.9878402271848472
 20
79.4869026138213428
 30
0.0
 40
0.773767120233069
 50
16.5646992740095804
 51
25.1795262051929996
  0
ARC
  5
4C08
  8
0
 10
790.4922507263196394
 20
79.6403671406976343
 30
0.0
 40
0.2465599881645391
 50
359.1750728977273184
 51
15.8003434661446303
  0
ARC
  5
4C09
  8
0
 10
789.8857116974400014
 20
79.8199784040453721
 30
0.0
 40
0.8023809755982497
 50
352.0199629454280057
 51
359.723512075107692
  0
ARC
  5
4C0A
  8
0
 10
790.5817370267209299
 20
79.7224057096945842
 30
0.0
 40
0.0995497798736794
 50
326.4756488078728012
 51
352.0199629454280057
  0
LINE
  5
4C0B
  8
0
 10
790.664726817072733
 20
79.667425227973439
 30
0.0
 11
790.6053148639725805
 21
79.6408430691734139
 31
0.0
  0
ARC
  5
4C0C
  8
0
 10
790.6410173586893961
 20
79.5610468811504177
 30
0.0
 40
0.0874191040448262
 50
114.104747299434095
 51
125.8092768824043048
  0
ARC
  5
4C0D
  8
0
 10
790.6030933895777935
 20
79.6136749688801899
 30
0.0
 40
0.0225504848272616
 50
125.9031526842964013
 51
170.9380309032569869
  0
LINE
  5
4C0E
  8
0
 10
790.580824367072637
 20
79.6172267293734137
 30
0.0
 11
790.5808651735726471
 21
79.5492092003734967
 31
0.0
  0
ARC
  5
4C0F
  8
0
 10
790.5797421919265844
 20
79.486014947382813
 30
0.0
 40
0.0632042300705915
 50
5.0547381674029799
 51
88.9819432259744474
  0
ARC
  5
4C10
  8
0
 10
789.8407969295559496
 20
79.7957279794416934
 30
0.0
 40
1.0671002085901471
 50
353.0253284664083822
 51
1.034137161236875
  0
LINE
  5
4C11
  8
0
 10
790.90000052067262
 20
79.6661494019734562
 30
0.0
 11
790.8801446145726004
 21
79.6391413939734036
 31
0.0
  0
ARC
  5
4C12
  8
0
 10
790.9133278448172177
 20
79.6147455516798743
 30
0.0
 40
0.0411859671572331
 50
143.6771995639207091
 51
179.0366539871446889
  0
LINE
  5
4C13
  8
0
 10
790.8721476990725705
 20
79.6154380017734127
 30
0.0
 11
790.8721705393726324
 21
79.5472271790734737
 31
0.0
  0
ARC
  5
4C14
  8
0
 10
790.9327880252209297
 20
79.4771369387743505
 30
0.0
 40
0.0926667220513844
 50
130.8548616674434868
 51
173.3635211077317138
  0
LINE
  5
4C15
  8
0
 10
791.2953030697201484
 20
78.1826410737025554
 30
0.0
 11
791.2974385566855062
 21
78.1445690206289356
 31
0.0
  0
LINE
  5
4C16
  8
0
 10
787.6427153668726078
 20
79.5129467408733888
 30
0.0
 11
787.7391358105231802
 21
78.1761935582710237
 31
0.0
  0
LINE
  5
4C17
  8
0
 10
787.7391358105231802
 20
78.1761935582710237
 30
0.0
 11
787.7387999072725506
 21
79.6581803993734354
 31
0.0
  0
ARC
  5
4C18
  8
0
 10
787.7692053682618507
 20
78.181171246932962
 30
0.0
 40
0.030478774368567
 50
189.3994541102645996
 51
268.7116396354750805
  0
LINE
  5
4C19
  8
0
 10
787.7685200763232842
 20
78.150700177671041
 30
0.0
 11
787.810383635123344
 21
78.150700177671041
 31
0.0
  0
ARC
  5
4C1A
  8
0
 10
787.8108660137772858
 20
78.1807072817002506
 30
0.0
 40
0.0300109810133689
 50
269.0790220684610858
 51
0.2690043197867162
  0
LINE
  5
4C1B
  8
0
 10
787.8408766640233125
 20
78.1808481830709923
 30
0.0
 11
787.8407370749725942
 21
79.6399747786734622
 31
0.0
  0
ARC
  5
4C1C
  8
0
 10
788.1196967759592553
 20
79.627314466549791
 30
0.0
 40
0.2792468411237063
 50
158.8672395550057956
 51
177.4014703973442977
  0
ARC
  5
4C1D
  8
0
 10
789.0461997581845708
 20
79.2616671451195032
 30
0.0
 40
1.2752864665776771
 50
153.2158546898455995
 51
158.5516498440514113
  0
LINE
  5
4C1E
  8
0
 10
787.9077380757726132
 20
79.8363501616734936
 30
0.0
 11
787.6880980781726294
 21
79.8374694609734803
 31
0.0
  0
ARC
  5
4C1F
  8
0
 10
786.987854974676452
 20
79.5082656451185983
 30
0.0
 40
0.7737671202418519
 50
16.5646992740270917
 51
25.17952620512213
  0
ARC
  5
4C20
  8
0
 10
787.4922654738195433
 20
79.6617301719976183
 30
0.0
 40
0.2465599881645391
 50
359.1750728977273184
 51
15.8003434661446303
  0
ARC
  5
4C21
  8
0
 10
786.8857264449400191
 20
79.8413414353454556
 30
0.0
 40
0.8023809755982497
 50
352.0199629454280057
 51
359.723512075107692
  0
ARC
  5
4C22
  8
0
 10
787.5817517742209475
 20
79.7437687409945681
 30
0.0
 40
0.0995497798736794
 50
326.4756488078728012
 51
352.0199629454280057
  0
LINE
  5
4C23
  8
0
 10
787.6647415645726369
 20
79.6887882592734229
 30
0.0
 11
787.6053296114725981
 21
79.6622061004734121
 31
0.0
  0
ARC
  5
4C24
  8
0
 10
787.6410321061894138
 20
79.5824099124504016
 30
0.0
 40
0.0874191040448262
 50
114.104747299434095
 51
125.8092768824043048
  0
ARC
  5
4C25
  8
0
 10
787.6031081370779248
 20
79.6350380001801739
 30
0.0
 40
0.0225504848272616
 50
125.9031526842964013
 51
170.9380309032569869
  0
LINE
  5
4C26
  8
0
 10
787.5808391145726546
 20
79.6385897606733835
 30
0.0
 11
787.5808799210726647
 21
79.5705722316734807
 31
0.0
  0
ARC
  5
4C27
  8
0
 10
787.579756939426602
 20
79.5073779786829107
 30
0.0
 40
0.0632042300705915
 50
5.0547381674029799
 51
88.9819432259744474
  0
ARC
  5
4C28
  8
0
 10
786.8408116770558536
 20
79.8170910107416773
 30
0.0
 40
1.0671002085901471
 50
353.0253284664083822
 51
1.034137161236875
  0
LINE
  5
4C29
  8
0
 10
787.9000152681726377
 20
79.6875124332734401
 30
0.0
 11
787.880159362072618
 21
79.6605044252733876
 31
0.0
  0
ARC
  5
4C2A
  8
0
 10
787.9133425923172354
 20
79.6361085829798583
 30
0.0
 40
0.0411859671572331
 50
143.6771995639207091
 51
179.0366539871446889
  0
LINE
  5
4C2B
  8
0
 10
787.8721624465725881
 20
79.6368010330733966
 30
0.0
 11
787.8721852868726501
 21
79.5685902103734435
 31
0.0
  0
ARC
  5
4C2C
  8
0
 10
787.9328027727208337
 20
79.4984999700743344
 30
0.0
 40
0.0926667220513844
 50
130.8548616674434868
 51
173.3635211077317138
  0
LINE
  5
4C2D
  8
0
 10
784.6427133650727228
 20
79.5433196371734255
 30
0.0
 11
784.7391322727412444
 21
78.6351944777462393
 31
0.0
  0
LINE
  5
4C2E
  8
0
 10
784.7391322727412444
 20
78.6351944777462393
 30
0.0
 11
784.738797905472552
 21
79.6885532956734721
 31
0.0
  0
ARC
  5
4C2F
  8
0
 10
784.7692018304798012
 20
78.6401721664081634
 30
0.0
 40
0.030478774368567
 50
189.3994541102645996
 51
268.7116396354750805
  0
LINE
  5
4C30
  8
0
 10
784.7685165385412347
 20
78.6097010971462566
 30
0.0
 11
784.8103800973411808
 21
78.6097010971462566
 31
0.0
  0
ARC
  5
4C31
  8
0
 10
784.8108624759952363
 20
78.6397082011753525
 30
0.0
 40
0.0300109810133689
 50
269.0790220684610858
 51
0.2690043197867162
  0
LINE
  5
4C32
  8
0
 10
784.8408731262411493
 20
78.6398491025462079
 30
0.0
 11
784.8407350731727092
 21
79.6703476749733852
 31
0.0
  0
ARC
  5
4C33
  8
0
 10
785.119694774159143
 20
79.657687362849714
 30
0.0
 40
0.2792468411237063
 50
158.8672395550057956
 51
177.4014703973442977
  0
ARC
  5
4C34
  8
0
 10
786.0461977563847995
 20
79.2920400414194262
 30
0.0
 40
1.2752864665776771
 50
153.2158546898455995
 51
158.5516498440514113
  0
LINE
  5
4C35
  8
0
 10
784.9077360739727283
 20
79.8667230579734166
 30
0.0
 11
784.6880966987724833
 21
79.8678455794734816
 31
0.0
  0
ARC
  5
4C36
  8
0
 10
783.9875283426954411
 20
79.5385285435993126
 30
0.0
 40
0.7741096380058535
 50
16.5656526887452813
 51
25.1768676662264888
  0
ARC
  5
4C37
  8
0
 10
784.4922634720195447
 20
79.692103068297655
 30
0.0
 40
0.2465599881645391
 50
359.1750728977273184
 51
15.8003434661446303
  0
ARC
  5
4C38
  8
0
 10
783.8855907778564642
 20
79.8717285081669957
 30
0.0
 40
0.8025153146455979
 50
352.0202854555603835
 51
359.7227762632265922
  0
ARC
  5
4C39
  8
0
 10
784.5817497724209488
 20
79.7741416372946048
 30
0.0
 40
0.0995497798736794
 50
326.4756488078728012
 51
352.0199629454280057
  0
LINE
  5
4C3A
  8
0
 10
784.6647395627726382
 20
79.7191611555734596
 30
0.0
 11
784.6053276096727132
 21
79.6925789967734346
 31
0.0
  0
ARC
  5
4C3B
  8
0
 10
784.6410301043893014
 20
79.6127828087504383
 30
0.0
 40
0.0874191040448262
 50
114.104747299434095
 51
125.8092768824043048
  0
ARC
  5
4C3C
  8
0
 10
784.6031061352780398
 20
79.6654108964800969
 30
0.0
 40
0.0225504848272616
 50
125.9031526842964013
 51
170.9380309032569869
  0
LINE
  5
4C3D
  8
0
 10
784.5808371127726559
 20
79.6689626569734344
 30
0.0
 11
784.5808779192726661
 21
79.6009451279734037
 31
0.0
  0
ARC
  5
4C3E
  8
0
 10
784.5797549376266034
 20
79.5377508749828337
 30
0.0
 40
0.0632042300705915
 50
5.0547381674029799
 51
88.9819432259744474
  0
ARC
  5
4C3F
  8
0
 10
783.8408096752559686
 20
79.8474639070416004
 30
0.0
 40
1.0671002085901471
 50
353.0253284664083822
 51
1.034137161236875
  0
LINE
  5
4C40
  8
0
 10
784.900013266372639
 20
79.7178853295734768
 30
0.0
 11
784.8801573602727331
 21
79.6908773215734243
 31
0.0
  0
ARC
  5
4C41
  8
0
 10
784.9133405905172367
 20
79.666481479279895
 30
0.0
 40
0.0411859671572331
 50
143.6771995639207091
 51
179.0366539871446889
  0
LINE
  5
4C42
  8
0
 10
784.8721604447724758
 20
79.6671739293734333
 30
0.0
 11
784.8721832850726514
 21
79.5989631066734944
 31
0.0
  0
ARC
  5
4C43
  8
0
 10
784.9328007709209487
 20
79.5288728663743711
 30
0.0
 40
0.0926667220513844
 50
130.8548616674434868
 51
173.3635211077317138
  0
LINE
  5
4C44
  8
0
 10
787.239676133501348
 20
78.201164304865145
 30
0.0
 11
785.6789248707351589
 21
78.2370601779289956
 31
0.0
  0
ARC
  5
4C45
  8
0
 10
785.661566151085708
 20
77.4823036752854506
 30
0.0
 40
0.7549560937104725
 50
88.6824809568247616
 51
103.9094705820871951
  0
ARC
  5
4C46
  8
0
 10
785.6586552742985532
 20
77.494057650817652
 30
0.0
 40
0.7428470415394756
 50
103.9094705820871951
 51
118.872036622225707
  0
LINE
  5
4C47
  8
0
 10
787.2711843263705305
 20
78.1731510750829131
 30
0.0
 11
785.496350004672081
 21
78.218959855871006
 31
0.0
  0
LINE
  5
4C48
  8
0
 10
784.8488579673891081
 20
78.4703013169697243
 30
0.0
 11
784.8488575740208262
 21
78.4386019125698368
 31
0.0
  0
LINE
  5
4C49
  8
0
 10
784.8488575740208262
 20
78.4386019125698368
 30
0.0
 11
784.8477866289916847
 21
78.4702995629679236
 31
0.0
  0
LINE
  5
4C4A
  8
0
 10
784.7434718021984281
 20
78.4712602488609292
 30
0.0
 11
784.7471619033293564
 21
78.4361245435932943
 31
0.0
  0
LINE
  5
4C4B
  8
0
 10
784.7471619033293564
 20
78.4361245435932943
 30
0.0
 11
784.7471587653939196
 21
78.4711881009601058
 31
0.0
  0
ARC
  5
4C4C
  8
0
 10
784.7769851922090538
 20
78.4392594548980497
 30
0.0
 40
0.029987601246064
 50
186.0006789997190992
 51
269.1523976073809763
  0
ARC
  5
4C4D
  8
0
 10
784.8188603709352265
 20
78.4386068987290201
 30
0.0
 40
0.0299972035000054
 50
269.0772982510105749
 51
359.9904762495579007
  0
LINE
  5
4C4E
  8
0
 10
784.8183773113449888
 20
78.408613584953244
 30
0.0
 11
784.7765415882352045
 21
78.4092751349290467
 31
0.0
  0
LINE
  5
4C4F
  8
0
 10
784.7439013182561212
 20
78.4080880777829208
 30
0.0
 11
784.7471696810716821
 21
78.3769710311788259
 31
0.0
  0
LINE
  5
4C50
  8
0
 10
784.7471696810716821
 20
78.3769710311788259
 30
0.0
 11
784.7471638604157533
 21
78.4080194871063014
 31
0.0
  0
LINE
  5
4C51
  8
0
 10
784.8479462885617295
 20
78.4064065737749729
 30
0.0
 11
784.8488551235542445
 21
78.3793532253979066
 31
0.0
  0
LINE
  5
4C52
  8
0
 10
784.8488551235542445
 20
78.3793532253979066
 30
0.0
 11
784.8488552708114412
 21
78.4063964854482833
 31
0.0
  0
ARC
  5
4C53
  8
0
 10
784.7769991281352304
 20
78.3801165134289732
 30
0.0
 40
0.0299948324000087
 50
186.0195311177236022
 51
269.0193304477868992
  0
ARC
  5
4C54
  8
0
 10
784.8188543193351734
 20
78.3793596174289888
 30
0.0
 40
0.0300008048999975
 50
268.9851742628960096
 51
359.987792447304912
  0
LINE
  5
4C55
  8
0
 10
784.7764857642728202
 20
78.3501260744816932
 30
0.0
 11
784.8183229713484934
 21
78.3493635182831696
 31
0.0
  0
LINE
  5
4C56
  8
0
 10
784.744741066700044
 20
78.3489805733275517
 30
0.0
 11
784.7471795955973448
 21
78.3257677710076479
 31
0.0
  0
LINE
  5
4C57
  8
0
 10
784.7471795955973448
 20
78.3257677710076479
 30
0.0
 11
784.7471704234881145
 21
78.3489131162596806
 31
0.0
  0
LINE
  5
4C58
  8
0
 10
784.8482387859696701
 20
78.3466154381080315
 30
0.0
 11
784.8488517565106122
 21
78.3280332878330938
 31
0.0
  0
LINE
  5
4C59
  8
0
 10
784.8488517565106122
 20
78.3280332878330938
 30
0.0
 11
784.8488525078454359
 21
78.3466045201282242
 31
0.0
  0
ARC
  5
4C5A
  8
0
 10
784.8188525796350632
 20
78.3280542512289486
 30
0.0
 40
0.0299991842000011
 50
268.8117373455033885
 51
359.9599617709009181
  0
ARC
  5
4C5B
  8
0
 10
784.7770082526352553
 20
78.3289312216290483
 30
0.0
 40
0.0299959363999988
 50
186.0538218366031913
 51
268.8332964787006745
  0
LINE
  5
4C5C
  8
0
 10
784.7763974930563791
 20
78.2989415038368435
 30
0.0
 11
784.8182304682815129
 21
78.2980615182736557
 31
0.0
  0
LINE
  5
4C5D
  8
0
 10
784.8488608841852283
 20
78.2955916058414942
 30
0.0
 11
784.8487224625351928
 21
78.179074760728966
 31
0.0
  0
ARC
  5
4C5E
  8
0
 10
784.8091062562984916
 20
78.1791218246589352
 30
0.0
 40
0.0396162341926241
 50
323.6022741988227835
 51
359.931932823964587
  0
ARC
  5
4C5F
  8
0
 10
784.8179771356933543
 20
78.1733208556082246
 30
0.0
 40
0.0290397774000307
 50
278.0752006068964874
 51
322.4291126774002123
  0
LINE
  5
4C60
  8
0
 10
784.7338880859364281
 20
78.298499669618721
 30
0.0
 11
784.7467863947350679
 21
78.1748645795290145
 31
0.0
  0
LINE
  5
4C61
  8
0
 10
784.7467863947350679
 20
78.1748645795290145
 30
0.0
 11
784.7472343474008767
 21
78.2981053518186201
 31
0.0
  0
ARC
  5
4C62
  8
0
 10
784.7839271409296771
 20
78.178214624432556
 30
0.0
 40
0.0372915248915001
 50
185.1540543096020883
 51
220.4378755007824111
  0
ARC
  5
4C63
  8
0
 10
784.7761725980617484
 20
78.1716061470702499
 30
0.0
 40
0.027103055519773
 50
220.4378755007824111
 51
266.0028073557513721
  0
LINE
  5
4C64
  8
0
 10
793.6426897246725503
 20
79.480306392673441
 30
0.0
 11
793.7391292493003903
 21
78.5782062739710909
 31
0.0
  0
LINE
  5
4C65
  8
0
 10
793.7391292493003903
 20
78.5782062739710909
 30
0.0
 11
793.7387742650724931
 21
79.6255400511734877
 31
0.0
  0
ARC
  5
4C66
  8
0
 10
793.7691988070390607
 20
78.5831839626330293
 30
0.0
 40
0.030478774368567
 50
189.3994541102645996
 51
268.7116396354750805
  0
LINE
  5
4C67
  8
0
 10
793.7685135151004943
 20
78.5527128933710941
 30
0.0
 11
793.810377073900554
 21
78.5527128933710941
 31
0.0
  0
ARC
  5
4C68
  8
0
 10
793.8108594525543822
 20
78.5827199974003179
 30
0.0
 40
0.0300109810133689
 50
269.0790220684610858
 51
0.2690043197867162
  0
LINE
  5
4C69
  8
0
 10
793.8408701028005225
 20
78.5828608987710595
 30
0.0
 11
793.8407114327726504
 21
79.6073344304734007
 31
0.0
  0
ARC
  5
4C6A
  8
0
 10
794.1196711337591978
 20
79.5946741183497295
 30
0.0
 40
0.2792468411237063
 50
158.8672395550057956
 51
177.4014703973442977
  0
ARC
  5
4C6B
  8
0
 10
795.0461741159847406
 20
79.2290267969194417
 30
0.0
 40
1.2752864665776771
 50
153.2158546898455995
 51
158.5516498440514113
  0
LINE
  5
4C6C
  8
0
 10
793.9077124335725557
 20
79.8037098134734322
 30
0.0
 11
793.6880724359724582
 21
79.8048291127734046
 31
0.0
  0
ARC
  5
4C6D
  8
0
 10
792.9878293324843526
 20
79.4756252969212937
 30
0.0
 40
0.7737671202334968
 50
16.5646992740063084
 51
25.17952620518572
  0
ARC
  5
4C6E
  8
0
 10
793.4922398316195995
 20
79.6290898237976705
 30
0.0
 40
0.2465599881645391
 50
359.1750728977273184
 51
15.8003434661446303
  0
ARC
  5
4C6F
  8
0
 10
792.8857008027398479
 20
79.8087010871453941
 30
0.0
 40
0.8023809755982497
 50
352.0199629454280057
 51
359.723512075107692
  0
ARC
  5
4C70
  8
0
 10
793.5817261320210037
 20
79.7111283927946204
 30
0.0
 40
0.0995497798736794
 50
326.4756488078728012
 51
352.0199629454280057
  0
LINE
  5
4C71
  8
0
 10
793.6647159223724657
 20
79.6561479110734751
 30
0.0
 11
793.6053039692726543
 21
79.6295657522734643
 31
0.0
  0
ARC
  5
4C72
  8
0
 10
793.6410064639893562
 20
79.5497695642504539
 30
0.0
 40
0.0874191040448262
 50
114.104747299434095
 51
125.8092768824043048
  0
ARC
  5
4C73
  8
0
 10
793.6030824948779809
 20
79.6023976519801124
 30
0.0
 40
0.0225504848272616
 50
125.9031526842964013
 51
170.9380309032569869
  0
LINE
  5
4C74
  8
0
 10
793.5808134723727107
 20
79.6059494124734499
 30
0.0
 11
793.5808542788727209
 21
79.5379318834734192
 31
0.0
  0
ARC
  5
4C75
  8
0
 10
793.5797312972265445
 20
79.4747376304828492
 30
0.0
 40
0.0632042300705915
 50
5.0547381674029799
 51
88.9819432259744474
  0
ARC
  5
4C76
  8
0
 10
792.8407860348559097
 20
79.7844506625416159
 30
0.0
 40
1.0671002085901471
 50
353.0253284664083822
 51
1.034137161236875
  0
LINE
  5
4C77
  8
0
 10
793.8999896259725801
 20
79.6548720850734924
 30
0.0
 11
793.8801337198725605
 21
79.6278640770734398
 31
0.0
  0
ARC
  5
4C78
  8
0
 10
793.9133169501171778
 20
79.6034682347799105
 30
0.0
 40
0.0411859671572331
 50
143.6771995639207091
 51
179.0366539871446889
  0
LINE
  5
4C79
  8
0
 10
793.8721368043726443
 20
79.6041606848734489
 30
0.0
 11
793.8721596446724789
 21
79.5359498621733962
 31
0.0
  0
ARC
  5
4C7A
  8
0
 10
793.9327771305208898
 20
79.4658596218743867
 30
0.0
 40
0.0926667220513844
 50
130.8548616674434868
 51
173.3635211077317138
  0
LINE
  5
4C7B
  8
0
 10
796.6426799281725835
 20
79.479743515673448
 30
0.0
 11
796.7391194528004235
 21
78.1777120005417032
 31
0.0
  0
LINE
  5
4C7C
  8
0
 10
796.7391194528004235
 20
78.1777120005417032
 30
0.0
 11
796.73876446857264
 21
79.6249771741734946
 31
0.0
  0
ARC
  5
4C7D
  8
0
 10
796.7691890105390939
 20
78.1826896892036558
 30
0.0
 40
0.030478774368567
 50
189.3994541102645996
 51
268.7116396354750805
  0
LINE
  5
4C7E
  8
0
 10
796.7685037186005275
 20
78.1522186199417348
 30
0.0
 11
796.8103672774003599
 21
78.1522186199417348
 31
0.0
  0
ARC
  5
4C7F
  8
0
 10
796.8108496560545291
 20
78.1822257239709444
 30
0.0
 40
0.0300109810133689
 50
269.0790220684610858
 51
0.2690043197867162
  0
LINE
  5
4C80
  8
0
 10
796.8408603063005557
 20
78.182366625341686
 30
0.0
 11
796.8407016362726836
 21
79.6067715534733935
 31
0.0
  0
ARC
  5
4C81
  8
0
 10
797.119661337259231
 20
79.5941112413497365
 30
0.0
 40
0.2792468411237063
 50
158.8672395550057956
 51
177.4014703973442977
  0
ARC
  5
4C82
  8
0
 10
798.0461643194846602
 20
79.2284639199194487
 30
0.0
 40
1.2752864665776771
 50
153.2158546898455995
 51
158.5516498440514113
  0
LINE
  5
4C83
  8
0
 10
796.9077026370725889
 20
79.8031469364734249
 30
0.0
 11
796.6880632618725713
 21
79.8042694579733904
 31
0.0
  0
ARC
  5
4C84
  8
0
 10
795.9874949057955291
 20
79.4749524220993351
 30
0.0
 40
0.7741096380058535
 50
16.5656526887452813
 51
25.1768676662264888
  0
ARC
  5
4C85
  8
0
 10
796.4922300351196327
 20
79.6285269467976633
 30
0.0
 40
0.2465599881645391
 50
359.1750728977273184
 51
15.8003434661446303
  0
ARC
  5
4C86
  8
0
 10
795.8855573409615545
 20
79.8081523866664924
 30
0.0
 40
0.8025153146405173
 50
352.0202854555467979
 51
359.7227762632609256
  0
ARC
  5
4C87
  8
0
 10
796.5817163355209232
 20
79.7105655157945137
 30
0.0
 40
0.0995497798736794
 50
326.4756488078728012
 51
352.0199629454280057
  0
LINE
  5
4C88
  8
0
 10
796.6647061258727263
 20
79.6555850340734821
 30
0.0
 11
796.6052941727724601
 21
79.6290028752734713
 31
0.0
  0
ARC
  5
4C89
  8
0
 10
796.6409966674893894
 20
79.5492066872504608
 30
0.0
 40
0.0874191040448262
 50
114.104747299434095
 51
125.8092768824043048
  0
ARC
  5
4C8A
  8
0
 10
796.6030726983777868
 20
79.6018347749801194
 30
0.0
 40
0.0225504848272616
 50
125.9031526842964013
 51
170.9380309032569869
  0
LINE
  5
4C8B
  8
0
 10
796.5808036758726303
 20
79.6053865354734569
 30
0.0
 11
796.5808444823726404
 21
79.5373690064734262
 31
0.0
  0
ARC
  5
4C8C
  8
0
 10
796.579721500726464
 20
79.4741747534828562
 30
0.0
 40
0.0632042300705915
 50
5.0547381674029799
 51
88.9819432259744474
  0
ARC
  5
4C8D
  8
0
 10
795.8407762383560566
 20
79.7838877855416229
 30
0.0
 40
1.0671002085901471
 50
353.0253284664083822
 51
1.034137161236875
  0
LINE
  5
4C8E
  8
0
 10
796.8999798294726133
 20
79.6543092080733857
 30
0.0
 11
796.8801239233725937
 21
79.6273012000734468
 31
0.0
  0
ARC
  5
4C8F
  8
0
 10
796.9133071536170974
 20
79.6029053577799175
 30
0.0
 40
0.0411859671572331
 50
143.6771995639207091
 51
179.0366539871446889
  0
LINE
  5
4C90
  8
0
 10
796.8721270078725638
 20
79.6035978078734558
 30
0.0
 11
796.8721498481727394
 21
79.5353869851734032
 31
0.0
  0
ARC
  5
4C91
  8
0
 10
796.932767334020923
 20
79.4652967448743937
 30
0.0
 40
0.0926667220513844
 50
130.8548616674434868
 51
173.3635211077317138
  0
LINE
  5
4C92
  8
0
 10
799.6426719726724741
 20
79.4899301047734923
 30
0.0
 11
799.7391114973004278
 21
78.5902962175752293
 31
0.0
  0
LINE
  5
4C93
  8
0
 10
799.7391114973004278
 20
78.5902962175752293
 30
0.0
 11
799.7387565130726443
 21
79.6351637632734253
 31
0.0
  0
ARC
  5
4C94
  8
0
 10
799.7691810550389846
 20
78.5952739062372814
 30
0.0
 40
0.030478774368567
 50
189.3994541102645996
 51
268.7116396354750805
  0
LINE
  5
4C95
  8
0
 10
799.7684957631005318
 20
78.5648028369752467
 30
0.0
 11
799.8103593219003642
 21
78.5648028369752467
 31
0.0
  0
ARC
  5
4C96
  8
0
 10
799.8108417005544197
 20
78.5948099410044563
 30
0.0
 40
0.0300109810133689
 50
269.0790220684610858
 51
0.2690043197867162
  0
LINE
  5
4C97
  8
0
 10
799.8408523508004464
 20
78.5949508423753116
 30
0.0
 11
799.8406936807724605
 21
79.6169581425734521
 31
0.0
  0
ARC
  5
4C98
  8
0
 10
800.1196533817592353
 20
79.6042978304497808
 30
0.0
 40
0.2792468411237063
 50
158.8672395550057956
 51
177.4014703973442977
  0
ARC
  5
4C99
  8
0
 10
801.0461563639846645
 20
79.238650509019493
 30
0.0
 40
1.2752864665776771
 50
153.2158546898455995
 51
158.5516498440514113
  0
LINE
  5
4C9A
  8
0
 10
799.9076946815724796
 20
79.8133335255734835
 30
0.0
 11
799.6880546839726094
 21
79.8144528248733565
 31
0.0
  0
ARC
  5
4C9B
  8
0
 10
798.9878115804849585
 20
79.4852490090214445
 30
0.0
 40
0.7737671202329901
 50
16.5646992740109411
 51
25.1795262051967796
  0
ARC
  5
4C9C
  8
0
 10
799.492222079619637
 20
79.6387135358977218
 30
0.0
 40
0.2465599881645391
 50
359.1750728977273184
 51
15.8003434661446303
  0
ARC
  5
4C9D
  8
0
 10
798.8856830507398854
 20
79.8183247992454596
 30
0.0
 40
0.8023809755982497
 50
352.0199629454280057
 51
359.723512075107692
  0
ARC
  5
4C9E
  8
0
 10
799.5817083800209275
 20
79.720752104894558
 30
0.0
 40
0.0995497798736794
 50
326.4756488078728012
 51
352.0199629454280057
  0
LINE
  5
4C9F
  8
0
 10
799.6646981703727306
 20
79.6657716231734128
 30
0.0
 11
799.6052862172724645
 21
79.639189464373402
 31
0.0
  0
ARC
  5
4CA0
  8
0
 10
799.6409887119892801
 20
79.5593932763503915
 30
0.0
 40
0.0874191040448262
 50
114.104747299434095
 51
125.8092768824043048
  0
ARC
  5
4CA1
  8
0
 10
799.6030647428779048
 20
79.6120213640801637
 30
0.0
 40
0.0225504848272616
 50
125.9031526842964013
 51
170.9380309032569869
  0
LINE
  5
4CA2
  8
0
 10
799.5807957203726346
 20
79.6155731245733875
 30
0.0
 11
799.5808365268726448
 21
79.5475555955734706
 31
0.0
  0
ARC
  5
4CA3
  8
0
 10
799.5797135452264683
 20
79.4843613425829005
 30
0.0
 40
0.0632042300705915
 50
5.0547381674029799
 51
88.9819432259711789
  0
ARC
  5
4CA4
  8
0
 10
798.8407682828559473
 20
79.7940743746416672
 30
0.0
 40
1.0671002085901471
 50
353.0253284664083822
 51
1.034137161236875
  0
LINE
  5
4CA5
  8
0
 10
799.899971873972504
 20
79.66449579717343
 30
0.0
 11
799.880115967872598
 21
79.6374877891734911
 31
0.0
  0
ARC
  5
4CA6
  8
0
 10
799.9132991981172154
 20
79.6130919468798339
 30
0.0
 40
0.0411859671572331
 50
143.6771995639207091
 51
179.0366539871446889
  0
LINE
  5
4CA7
  8
0
 10
799.8721190523726818
 20
79.6137843969735002
 30
0.0
 11
799.8721418926726301
 21
79.5455735742734333
 31
0.0
  0
ARC
  5
4CA8
  8
0
 10
799.9327593785209274
 20
79.4754833339743243
 30
0.0
 40
0.0926667220513844
 50
130.8548616674434868
 51
173.3635211077317138
  0
LINE
  5
4CA9
  8
0
 10
802.6426692744726097
 20
79.5103034145734853
 30
0.0
 11
802.7391591162721625
 21
78.607753410282271
 31
0.0
  0
LINE
  5
4CAA
  8
0
 10
802.7391591162721625
 20
78.607753410282271
 30
0.0
 11
802.7387538148725525
 21
79.6555370730734182
 31
0.0
  0
ARC
  5
4CAB
  8
0
 10
802.7692286740109466
 20
78.6127310989442094
 30
0.0
 40
0.030478774368567
 50
189.3994541102645996
 51
268.7116396354750805
  0
LINE
  5
4CAC
  8
0
 10
802.7685433820722665
 20
78.5822600296822884
 30
0.0
 11
802.8104069408723262
 21
78.5822600296822884
 31
0.0
  0
ARC
  5
4CAD
  8
0
 10
802.8108893195262681
 20
78.6122671337114838
 30
0.0
 40
0.0300109810133689
 50
269.0790220684610858
 51
0.2690043197867162
  0
LINE
  5
4CAE
  8
0
 10
802.8408999697721811
 20
78.6124080350822254
 30
0.0
 11
802.8406909825725961
 21
79.637331452373445
 31
0.0
  0
ARC
  5
4CAF
  8
0
 10
803.1196506835592572
 20
79.6246711402497738
 30
0.0
 40
0.2792468411237063
 50
158.8672395550057956
 51
177.4014703973442977
  0
ARC
  5
4CB0
  8
0
 10
804.0461536657846864
 20
79.259023818819486
 30
0.0
 40
1.2752864665776771
 50
153.2158546898455995
 51
158.5516498440514113
  0
LINE
  5
4CB1
  8
0
 10
802.9076919833725015
 20
79.8337068353734765
 30
0.0
 11
802.6880526081727112
 21
79.8348293568734277
 31
0.0
  0
ARC
  5
4CB2
  8
0
 10
801.9874842520955553
 20
79.5055123209993724
 30
0.0
 40
0.7741096380058535
 50
16.5656526887452813
 51
25.1768676662264888
  0
ARC
  5
4CB3
  8
0
 10
802.4922193814195452
 20
79.6590868456977148
 30
0.0
 40
0.2465599881645391
 50
359.1750728977273184
 51
15.8003434661446303
  0
ARC
  5
4CB4
  8
0
 10
801.885546687261467
 20
79.838712285566487
 30
0.0
 40
0.8025153146404868
 50
352.0202854555499812
 51
359.7227762632641088
  0
ARC
  5
4CB5
  8
0
 10
802.5817056818208357
 20
79.741125414694551
 30
0.0
 40
0.0995497798736794
 50
326.4756488078728012
 51
352.0199629454280057
  0
LINE
  5
4CB6
  8
0
 10
802.6646954721726388
 20
79.6861449329734057
 30
0.0
 11
802.6052835190724863
 21
79.6595627741733949
 31
0.0
  0
ARC
  5
4CB7
  8
0
 10
802.6409860137894157
 20
79.5797665861503845
 30
0.0
 40
0.0874191040448262
 50
114.104747299434095
 51
125.8092768824043048
  0
ARC
  5
4CB8
  8
0
 10
802.603062044677813
 20
79.6323946738801567
 30
0.0
 40
0.0225504848272616
 50
125.9031526842964013
 51
170.9380309032569869
  0
LINE
  5
4CB9
  8
0
 10
802.5807930221726565
 20
79.6359464343734942
 30
0.0
 11
802.580833828672553
 21
79.5679289053734635
 31
0.0
  0
ARC
  5
4CBA
  8
0
 10
802.5797108470266039
 20
79.5047346523828935
 30
0.0
 40
0.0632042300705915
 50
5.0547381674029799
 51
88.9819432259711789
  0
ARC
  5
4CBB
  8
0
 10
801.8407655846558555
 20
79.8144476844416602
 30
0.0
 40
1.0671002085901471
 50
353.0253284664083822
 51
1.034137161236875
  0
LINE
  5
4CBC
  8
0
 10
802.8999691757727533
 20
79.684869106973423
 30
0.0
 11
802.8801132696726199
 21
79.6578610989734841
 31
0.0
  0
ARC
  5
4CBD
  8
0
 10
802.9132964999172373
 20
79.6334652566798411
 30
0.0
 40
0.0411859671572331
 50
143.6771995639207091
 51
179.0366539871446889
  0
LINE
  5
4CBE
  8
0
 10
802.87211635417259
 20
79.6341577067734931
 30
0.0
 11
802.872139194472652
 21
79.5659468840734405
 31
0.0
  0
ARC
  5
4CBF
  8
0
 10
802.9327566803209493
 20
79.4958566437743173
 30
0.0
 40
0.0926667220513844
 50
130.8548616674434868
 51
173.3635211077317138
  0
LINE
  5
4CC0
  8
0
 10
805.6426524809726288
 20
79.5398258271734164
 30
0.0
 11
805.738463233000175
 21
78.6653081275572532
 31
0.0
  0
LINE
  5
4CC1
  8
0
 10
805.7383728221725505
 20
78.1777106020587382
 30
0.0
 11
805.7387370213725717
 21
79.6850594856734631
 31
0.0
  0
ARC
  5
4CC2
  8
0
 10
805.7684423799113347
 20
78.1826882907207903
 30
0.0
 40
0.030478774368567
 50
189.3994541102645996
 51
268.7116396354750805
  0
LINE
  5
4CC3
  8
0
 10
805.7677570879726545
 20
78.1522172214587556
 30
0.0
 11
805.8096206467724869
 21
78.1522172214587556
 31
0.0
  0
ARC
  5
4CC4
  8
0
 10
805.8101030254266561
 20
78.1822243254879652
 30
0.0
 40
0.0300109810133689
 50
269.0790220684610858
 51
0.2690043197867162
  0
LINE
  5
4CC5
  8
0
 10
805.8401136756725691
 20
78.1823652268588205
 30
0.0
 11
805.8406741890726153
 21
79.6668538649734899
 31
0.0
  0
ARC
  5
4CC6
  8
0
 10
806.1196338900592764
 20
79.6541935528498186
 30
0.0
 40
0.2792468411237063
 50
158.8672395550057956
 51
177.4014703973442977
  0
ARC
  5
4CC7
  8
0
 10
807.0461368722847055
 20
79.2885462314194029
 30
0.0
 40
1.2752864665776771
 50
153.2158546898455995
 51
158.5516498440514113
  0
LINE
  5
4CC8
  8
0
 10
805.9076751898725206
 20
79.8632292479734076
 30
0.0
 11
805.6880351922726504
 21
79.8643485472733943
 31
0.0
  0
ARC
  5
4CC9
  8
0
 10
804.9877920887847722
 20
79.5351447314212834
 30
0.0
 40
0.7737671202330655
 50
16.5646992740152292
 51
25.1795262051991813
  0
ARC
  5
4CCA
  8
0
 10
805.4922025879194507
 20
79.688609258297646
 30
0.0
 40
0.2465599881645391
 50
359.1750728977273184
 51
15.8003434661446303
  0
ARC
  5
4CCB
  8
0
 10
804.8856635590400401
 20
79.8682205216453838
 30
0.0
 40
0.8023809755982497
 50
352.0199629454280057
 51
359.723512075107692
  0
ARC
  5
4CCC
  8
0
 10
805.5816888883209685
 20
79.7706478272945958
 30
0.0
 40
0.0995497798736794
 50
326.4756488078728012
 51
352.0199629454280057
  0
LINE
  5
4CCD
  8
0
 10
805.664678678672658
 20
79.7156673455734506
 30
0.0
 11
805.6052667255725055
 21
79.6890851867734398
 31
0.0
  0
ARC
  5
4CCE
  8
0
 10
805.6409692202894348
 20
79.6092889987504151
 30
0.0
 40
0.0874191040448262
 50
114.104747299434095
 51
125.8092768824043048
  0
ARC
  5
4CCF
  8
0
 10
805.6030452511778321
 20
79.6619170864800736
 30
0.0
 40
0.0225504848272616
 50
125.9031526842964013
 51
170.9380309032569869
  0
LINE
  5
4CD0
  8
0
 10
805.5807762286726756
 20
79.6654688469734253
 30
0.0
 11
805.5808170351725721
 21
79.5974513179733947
 31
0.0
  0
ARC
  5
4CD1
  8
0
 10
805.5796940535263957
 20
79.5342570649828247
 30
0.0
 40
0.0632042300705915
 50
5.0547381674029799
 51
88.9819432259711789
  0
ARC
  5
4CD2
  8
0
 10
805.1180358326223541
 20
79.8392846309962749
 30
0.0
 40
0.7900023159464542
 50
351.3053188087387753
 51
1.736875464294104
  0
LINE
  5
4CD3
  8
0
 10
805.8989593820725759
 20
79.7198607258734171
 30
0.0
 11
805.8790005008727348
 21
79.6947953436734622
 31
0.0
  0
ARC
  5
4CD4
  8
0
 10
805.9055635247856344
 20
79.6726376530857152
 30
0.0
 40
0.0345912921352646
 50
140.1666419070170093
 51
178.9722542078854985
  0
LINE
  5
4CD5
  8
0
 10
805.8709777974726194
 20
79.6732581027734739
 30
0.0
 11
805.8708931291724866
 21
79.6343166291734121
 31
0.0
  0
ARC
  5
4CD6
  8
0
 10
805.8641935389523496
 20
79.5548054278219468
 30
0.0
 40
0.0670746738110081
 50
91.7710898372270236
 51
110.5198933201319988
  0
LINE
  5
4CD7
  8
0
 10
793.8816396744351778
 20
78.3922700005289954
 30
0.0
 11
796.0329297074888473
 21
78.3922594077012604
 31
0.0
  0
LINE
  5
4CD8
  8
0
 10
797.5681750297542294
 20
78.3958608111673527
 30
0.0
 11
799.7022756485350783
 21
78.4058180387290378
 31
0.0
  0
LINE
  5
4CD9
  8
0
 10
799.8890839111352307
 20
78.4071135343289853
 30
0.0
 11
802.7206505010352657
 21
78.4323848436290092
 31
0.0
  0
LINE
  5
4CDA
  8
0
 10
802.8892048987351018
 20
78.4342462973290395
 30
0.0
 11
804.9672895865431883
 21
78.4591431325256252
 31
0.0
  0
LINE
  5
4CDB
  8
0
 10
804.7335653932651667
 20
78.3899901373022487
 30
0.0
 11
802.8892863294352082
 21
78.3642347387289675
 31
0.0
  0
ARC
  5
4CDC
  8
0
 10
802.1089952306252826
 20
132.0521247581226021
 30
0.0
 40
53.6935600322179027
 50
270.6527812235510737
 51
270.832668954816711
  0
LINE
  5
4CDD
  8
0
 10
802.7207224789351585
 20
78.3620495234289933
 30
0.0
 11
799.8891709661352252
 21
78.332031562628984
 31
0.0
  0
ARC
  5
4CDE
  8
0
 10
799.4549266949431967
 20
119.2936755334183943
 30
0.0
 40
40.963945670269247
 50
270.371050147915696
 51
270.6073836300803919
  0
LINE
  5
4CDF
  8
0
 10
799.7202092687350614
 20
78.3305888573290332
 30
0.0
 11
797.7764089983352278
 21
78.3180344145290093
 31
0.0
  0
ARC
  5
4CE0
  8
0
 10
797.7801266090175432
 20
77.5666743550709299
 30
0.0
 40
0.751369256476427
 50
90.2834881374559046
 51
129.7151431811415137
  0
LINE
  5
4CE1
  8
0
 10
797.2193049004456498
 20
79.5369465581623132
 30
0.0
 11
797.29554029013525
 21
78.1784203439289769
 31
0.0
  0
ARC
  5
4CE2
  8
0
 10
797.670094157844801
 20
78.1983727069918615
 30
0.0
 40
0.3750849191956456
 50
183.0492455335908062
 51
188.2471858489039107
  0
LINE
  5
4CE3
  8
0
 10
797.4451959459204318
 20
78.2392642825120248
 30
0.0
 11
799.7069667693350539
 21
78.2568469419289414
 31
0.0
  0
ARC
  5
4CE4
  8
0
 10
799.4340882810074618
 20
113.3589659446613069
 30
0.0
 40
35.1031796444620667
 50
270.4453996284544814
 51
270.7429032083899756
  0
LINE
  5
4CE5
  8
0
 10
799.8892271114350478
 20
78.2587370309290264
 30
0.0
 11
802.7231371674351976
 21
78.2954001051289907
 31
0.0
  0
ARC
  5
4CE6
  8
0
 10
802.3012332770896364
 20
110.9068955567482959
 30
0.0
 40
32.6142244807949169
 50
270.7412099145922753
 51
271.0332496797025215
  0
LINE
  5
4CE7
  8
0
 10
802.8893535677352702
 20
78.2979741853290108
 30
0.0
 11
805.0303572025396761
 21
78.3336979088339831
 31
0.0
  0
ARC
  5
4CE8
  8
0
 10
804.7451356697439451
 20
77.6404568989880204
 30
0.0
 40
0.7496225361044137
 50
42.2593775088538166
 51
90.8843842104882924
  0
LINE
  5
4CE9
  8
0
 10
805.1320063511401486
 20
78.2825319525504426
 30
0.0
 11
802.8894448269351187
 21
78.2381818552290156
 31
0.0
  0
ARC
  5
4CEA
  8
0
 10
801.282746709156072
 20
159.4808306329491927
 30
0.0
 40
81.2585346856665751
 50
271.0156756664648015
 51
271.132964320901408
  0
LINE
  5
4CEB
  8
0
 10
802.723131928035059
 20
78.2350630528289486
 30
0.0
 11
799.8792986310352262
 21
78.1887883595289424
 31
0.0
  0
ARC
  5
4CEC
  8
0
 10
799.3987057607082534
 20
107.7238519001155055
 30
0.0
 40
29.5389733716914193
 50
270.6244539080370828
 51
270.9322313864387866
  0
LINE
  5
4CED
  8
0
 10
799.7206380626352029
 20
78.1866328799289505
 30
0.0
 11
797.3211050752117899
 21
78.1615314732770941
 31
0.0
  0
LINE
  5
4CEE
  8
0
 10
799.3024480637177476
 20
78.1445690206289356
 30
0.0
 11
799.2992856280898195
 21
78.1822251310633902
 31
0.0
  0
ARC
  5
4CEF
  8
0
 10
793.7913269046878213
 20
74.8130488916290943
 30
0.0
 40
3.580360337001617
 50
88.5545897755588243
 51
91.1820076591020552
  0
ARC
  5
4CF0
  8
0
 10
793.7715028993204669
 20
71.747316187292725
 30
0.0
 40
6.5674343617539197
 50
89.152730487188208
 51
90.4712120151007753
  0
ARC
  5
4CF1
  8
0
 10
793.7849239578171137
 20
74.1920781436176213
 30
0.0
 40
4.0450758633730199
 50
88.6686039366854715
 51
90.9177401931149944
  0
ARC
  5
4CF2
  8
0
 10
793.7564574782107911
 20
69.8139096603196805
 30
0.0
 40
8.3456178443221187
 50
89.0904450484050443
 51
90.3262753078873004
  0
LINE
  5
4CF3
  8
0
 10
793.88893633233522
 20
78.1584759496290218
 30
0.0
 11
796.2852922031310072
 21
78.1563197211623475
 31
0.0
  0
LINE
  5
4CF4
  8
0
 10
793.8686162323350572
 20
78.3140324973289239
 30
0.0
 11
795.8260103634352163
 21
78.3123956095290055
 31
0.0
  0
ARC
  5
4CF5
  8
0
 10
795.8253588457297383
 20
77.5566800593141608
 30
0.0
 40
0.7557158310581351
 50
51.1372076152014117
 51
89.9506041584815534
  0
LINE
  5
4CF6
  8
0
 10
796.1858062398149514
 20
79.5371620365585557
 30
0.0
 11
796.3024534624825037
 21
78.1445690206289356
 31
0.0
  0
LINE
  5
4CF7
  8
0
 10
793.8789119175352198
 20
78.2360619472289756
 30
0.0
 11
796.1605321918424352
 21
78.2340021727635104
 31
0.0
  0
ARC
  5
4CF8
  8
0
 10
799.7078443593416068
 20
91.0721840623632062
 30
0.0
 40
12.6663672477635103
 50
269.9748101700695884
 51
270.8198574676567887
  0
LINE
  5
4CF9
  8
0
 10
793.7418116437123672
 20
78.3930668219899047
 30
0.0
 11
793.7471255783352717
 21
78.3425081109289323
 31
0.0
  0
LINE
  5
4CFA
  8
0
 10
793.7471255783352717
 20
78.3425081109289323
 30
0.0
 11
793.7473763547970975
 21
78.3931394619832247
 31
0.0
  0
ARC
  5
4CFB
  8
0
 10
793.7771951360738285
 20
78.3474857995909844
 30
0.0
 40
0.030478774368567
 50
189.3994541102645996
 51
268.7116396354750805
  0
LINE
  5
4CFC
  8
0
 10
793.7765098441351483
 20
78.3170147303289497
 30
0.0
 11
793.8183734029352081
 21
78.3170147303289497
 31
0.0
  0
ARC
  5
4CFD
  8
0
 10
793.81885578158915
 20
78.347021834358145
 30
0.0
 40
0.0300109810133689
 50
269.0790220684610858
 51
0.2690043197867162
  0
LINE
  5
4CFE
  8
0
 10
793.8488664318350629
 20
78.3471627357290146
 30
0.0
 11
793.848864540073464
 21
78.392946873875033
 31
0.0
  0
LINE
  5
4CFF
  8
0
 10
793.7418467507214928
 20
78.3146835905066183
 30
0.0
 11
793.7471184600352672
 21
78.2645266264290314
 31
0.0
  0
LINE
  5
4D00
  8
0
 10
793.7471184600352672
 20
78.2645266264290314
 30
0.0
 11
793.7473669988394249
 21
78.3147061981154451
 31
0.0
  0
ARC
  5
4D01
  8
0
 10
793.777188017773824
 20
78.2695043150909555
 30
0.0
 40
0.030478774368567
 50
189.3994541102645996
 51
268.7116396354750805
  0
LINE
  5
4D02
  8
0
 10
793.7765027258351438
 20
78.2390332458290487
 30
0.0
 11
793.8183662846352036
 21
78.2390332458290487
 31
0.0
  0
ARC
  5
4D03
  8
0
 10
793.8188486632891454
 20
78.2690403498581446
 30
0.0
 40
0.0300109810133689
 50
269.0790220684610858
 51
0.2690043197867162
  0
LINE
  5
4D04
  8
0
 10
793.8488593135350584
 20
78.2691812512289999
 30
0.0
 11
793.848857449474508
 21
78.3142949728162989
 31
0.0
  0
LINE
  5
4D05
  8
0
 10
793.7418819171138011
 20
78.2369250039048012
 30
0.0
 11
793.7471283506351938
 21
78.1870085229290481
 31
0.0
  0
LINE
  5
4D06
  8
0
 10
793.7471283506351938
 20
78.1870085229290481
 30
0.0
 11
793.7473758574346903
 21
78.2369797345837839
 31
0.0
  0
ARC
  5
4D07
  8
0
 10
793.7771979083737506
 20
78.1919862115909865
 30
0.0
 40
0.030478774368567
 50
189.3994541102645996
 51
268.7116396354750805
  0
LINE
  5
4D08
  8
0
 10
793.7765126164350704
 20
78.1615151423289518
 30
0.0
 11
793.8183761752352439
 21
78.1615151423289518
 31
0.0
  0
ARC
  5
4D09
  8
0
 10
793.8188585538891857
 20
78.1915222463581614
 30
0.0
 40
0.0300109810133689
 50
269.0790220684610858
 51
0.2690043197867162
  0
LINE
  5
4D0A
  8
0
 10
793.8488692041352124
 20
78.1916631477290167
 30
0.0
 11
793.8488673453755382
 21
78.2366485761395438
 31
0.0
  0
LINE
  5
4D0B
  8
0
 10
799.7455089875602425
 20
78.1869144255678634
 30
0.0
 11
799.7471520824454956
 21
78.1712814218814884
 31
0.0
  0
LINE
  5
4D0C
  8
0
 10
799.7471520824454956
 20
78.1712814218814884
 30
0.0
 11
799.7472296128320295
 21
78.1869346781373338
 31
0.0
  0
ARC
  5
4D0D
  8
0
 10
799.7772216401840524
 20
78.1762591105435405
 30
0.0
 40
0.030478774368567
 50
189.3994541102645996
 51
268.7116396354750805
  0
LINE
  5
4D0E
  8
0
 10
799.7765363482454859
 20
78.1457880412815058
 30
0.0
 11
799.818399907045432
 21
78.1457880412815058
 31
0.0
  0
ARC
  5
4D0F
  8
0
 10
799.8188822856993738
 20
78.1757951453107154
 30
0.0
 40
0.0300109810133689
 50
269.0790220684610858
 51
0.2690043197867162
  0
LINE
  5
4D10
  8
0
 10
799.8488929359454005
 20
78.1759360466815707
 30
0.0
 11
799.8488924246953502
 21
78.1883092468805927
 31
0.0
  0
LINE
  5
4D11
  8
0
 10
799.7428085027798943
 20
78.2571438697883224
 30
0.0
 11
799.7471482704338541
 21
78.2158537383765662
 31
0.0
  0
LINE
  5
4D12
  8
0
 10
799.7471482704338541
 20
78.2158537383765662
 30
0.0
 11
799.7473529793705893
 21
78.2571841326202531
 31
0.0
  0
ARC
  5
4D13
  8
0
 10
799.7772178281725246
 20
78.2208314270386182
 30
0.0
 40
0.030478774368567
 50
189.3994541102645996
 51
268.7116396354750805
  0
LINE
  5
4D14
  8
0
 10
799.7765325362338444
 20
78.1903603577765836
 30
0.0
 11
799.8183960950337905
 21
78.1903603577765836
 31
0.0
  0
ARC
  5
4D15
  8
0
 10
799.8188784736878461
 20
78.2203674618057931
 30
0.0
 40
0.0300109810133689
 50
269.0790220684610858
 51
0.2690043197867162
  0
LINE
  5
4D16
  8
0
 10
799.8488891239339864
 20
78.2205083631766342
 30
0.0
 11
799.8488875650130012
 21
78.2582371387610038
 31
0.0
  0
LINE
  5
4D17
  8
0
 10
799.7424350248786595
 20
78.3307388242786402
 30
0.0
 11
799.7471452096496023
 21
78.2859244093911713
 31
0.0
  0
LINE
  5
4D18
  8
0
 10
799.7471452096496023
 20
78.2859244093911713
 30
0.0
 11
799.7473673478348246
 21
78.3307737399503168
 31
0.0
  0
ARC
  5
4D19
  8
0
 10
799.7772147673882728
 20
78.2909020980532233
 30
0.0
 40
0.030478774368567
 50
189.3994541102645996
 51
268.7116396354750805
  0
LINE
  5
4D1A
  8
0
 10
799.7765294754497063
 20
78.2604310287911744
 30
0.0
 11
799.8183930342496524
 21
78.2604310287911744
 31
0.0
  0
ARC
  5
4D1B
  8
0
 10
799.8188754129035942
 20
78.2904381328203982
 30
0.0
 40
0.0300109810133689
 50
269.0790220684610858
 51
0.2690043197867162
  0
LINE
  5
4D1C
  8
0
 10
799.8488860631496209
 20
78.2905790341912535
 30
0.0
 11
799.8488843671946142
 21
78.3316242880370766
 31
0.0
  0
LINE
  5
4D1D
  8
0
 10
799.7422703196518796
 20
78.4058635979002503
 30
0.0
 11
799.7471430613841221
 21
78.3595025568259445
 31
0.0
  0
LINE
  5
4D1E
  8
0
 10
799.7471430613841221
 20
78.3595025568259445
 30
0.0
 11
799.7473727608312402
 21
78.4058784936233479
 31
0.0
  0
ARC
  5
4D1F
  8
0
 10
799.7772126191225652
 20
78.3644802454879965
 30
0.0
 40
0.030478774368567
 50
189.3994541102645996
 51
268.7116396354750805
  0
LINE
  5
4D20
  8
0
 10
799.7765273271839988
 20
78.3340091762259618
 30
0.0
 11
799.8183908859839448
 21
78.3340091762259618
 31
0.0
  0
ARC
  5
4D21
  8
0
 10
799.8188732646381141
 20
78.3640162802551714
 30
0.0
 40
0.0300109810133689
 50
269.0790220684610858
 51
0.2690043197867162
  0
LINE
  5
4D22
  8
0
 10
799.8488839148842544
 20
78.364157181625913
 30
0.0
 11
799.848882161098004
 21
78.4066020546665214
 31
0.0
  0
LINE
  5
4D23
  8
0
 10
802.7450326921099304
 20
78.2354542785637506
 30
0.0
 11
802.7471578794958305
 21
78.2152344710905965
 31
0.0
  0
LINE
  5
4D24
  8
0
 10
802.7471578794958305
 20
78.2152344710905965
 30
0.0
 11
802.7472582265028223
 21
78.2354943650917249
 31
0.0
  0
ARC
  5
4D25
  8
0
 10
802.7772274372345009
 20
78.2202121597526485
 30
0.0
 40
0.030478774368567
 50
189.3994541102645996
 51
268.7116396354750805
  0
LINE
  5
4D26
  8
0
 10
802.7765421452960481
 20
78.1897410904906138
 30
0.0
 11
802.8184057040957669
 21
78.1897410904906138
 31
0.0
  0
ARC
  5
4D27
  8
0
 10
802.8188880827498224
 20
78.2197481945198234
 30
0.0
 40
0.0300109810133689
 50
269.0790220684610858
 51
0.2690043197867162
  0
LINE
  5
4D28
  8
0
 10
802.8488987329958491
 20
78.219889095890565
 30
0.0
 11
802.8488980098693446
 21
78.2373901016364499
 31
0.0
  0
LINE
  5
4D29
  8
0
 10
802.7438577398123698
 20
78.2956747567126996
 30
0.0
 11
802.7471539078510432
 21
78.2643138124586386
 31
0.0
  0
LINE
  5
4D2A
  8
0
 10
802.7471539078510432
 20
78.2643138124586386
 30
0.0
 11
802.7473094711740487
 21
78.2957217889621262
 31
0.0
  0
ARC
  5
4D2B
  8
0
 10
802.7772234655897137
 20
78.269291501120577
 30
0.0
 40
0.030478774368567
 50
189.3994541102645996
 51
268.7116396354750805
  0
LINE
  5
4D2C
  8
0
 10
802.7765381736511472
 20
78.238820431858656
 30
0.0
 11
802.8184017324510933
 21
78.238820431858656
 31
0.0
  0
ARC
  5
4D2D
  8
0
 10
802.8188841111051488
 20
78.2688275358877519
 30
0.0
 40
0.0300109810133689
 50
269.0790220684610858
 51
0.2690043197867162
  0
LINE
  5
4D2E
  8
0
 10
802.8488947613509481
 20
78.2689684372586072
 30
0.0
 11
802.8488935919721143
 21
78.2972695750971326
 31
0.0
  0
LINE
  5
4D2F
  8
0
 10
802.7431909490129556
 20
78.3623102238539815
 30
0.0
 11
802.7471504393955684
 21
78.324638189023247
 31
0.0
  0
LINE
  5
4D30
  8
0
 10
802.7471504393955684
 20
78.324638189023247
 30
0.0
 11
802.7473372718997098
 21
78.3623593612453107
 31
0.0
  0
ARC
  5
4D31
  8
0
 10
802.7772199971341252
 20
78.3296158776851854
 30
0.0
 40
0.030478774368567
 50
189.3994541102645996
 51
268.7116396354750805
  0
LINE
  5
4D32
  8
0
 10
802.776534705195445
 20
78.2991448084231507
 30
0.0
 11
802.8183982639955047
 21
78.2991448084231507
 31
0.0
  0
ARC
  5
4D33
  8
0
 10
802.8188806426494466
 20
78.3291519124523603
 30
0.0
 40
0.0300109810133689
 50
269.0790220684610858
 51
0.2690043197867162
  0
LINE
  5
4D34
  8
0
 10
802.8488912928953596
 20
78.3292928138232156
 30
0.0
 11
802.8488898727558762
 21
78.3636628239981547
 31
0.0
  0
LINE
  5
4D35
  8
0
 10
802.7427824299683152
 20
78.4327790917444219
 30
0.0
 11
802.7471478147182324
 21
78.3912452299459375
 31
0.0
  0
LINE
  5
4D36
  8
0
 10
802.7471478147182324
 20
78.3912452299459375
 30
0.0
 11
802.7473539068092805
 21
78.4328548807859107
 31
0.0
  0
ARC
  5
4D37
  8
0
 10
802.7772173724566755
 20
78.3962229186078758
 30
0.0
 40
0.030478774368567
 50
189.3994541102645996
 51
268.7116396354750805
  0
LINE
  5
4D38
  8
0
 10
802.7765320805182228
 20
78.3657518493459548
 30
0.0
 11
802.8183956393180551
 21
78.3657518493459548
 31
0.0
  0
ARC
  5
4D39
  8
0
 10
802.8188780179721107
 20
78.3957589533751644
 30
0.0
 40
0.0300109810133689
 50
269.0790220684610858
 51
0.2690043197867162
  0
LINE
  5
4D3A
  8
0
 10
802.8488886682181374
 20
78.3958998547459061
 30
0.0
 11
802.8488870922972183
 21
78.4340400625143843
 31
0.0
  0
ARC
  5
4D3B
  8
0
 10
802.9243772892798461
 20
67.6171703201250267
 30
0.0
 40
10.8171331596528209
 50
90.1863001088098031
 51
91.0791561077560345
  0
LINE
  5
4D3C
  8
0
 10
800.0964020919170707
 20
78.192321054668767
 30
0.0
 11
800.098146476435204
 21
78.1720408466289456
 31
0.0
  0
ARC
  5
4D3D
  8
0
 10
800.1336027169199951
 20
78.1750905844248365
 30
0.0
 40
0.035587159059695
 50
184.9161467203005031
 51
239.054481674080705
  0
ARC
  5
4D3E
  8
0
 10
800.1951766489943338
 20
78.6218119521247019
 30
0.0
 40
0.4776408659869854
 50
272.3389602431195158
 51
297.3326449047377764
  0
LINE
  5
4D3F
  8
0
 10
800.771078754252585
 20
78.1445690206289356
 30
0.0
 11
802.7148584417351458
 21
78.185995795928946
 31
0.0
  0
ARC
  5
4D40
  8
0
 10
800.823606958244568
 20
166.9251310752005111
 30
0.0
 40
88.7592866256071318
 50
271.2209306020561144
 51
271.3189340152048885
  0
ARC
  5
4D41
  8
0
 10
777.2333358753390939
 20
153.2704901731235907
 30
0.0
 40
0.1248825629406399
 50
90.0283943685522985
 51
134.9811033256987116
  0
LINE
  5
4D42
  8
0
 10
811.1954408211350938
 20
153.7030794844289971
 30
0.0
 11
804.7091601002350671
 21
153.3631479160289075
 31
0.0
  0
ARC
  5
4D43
  8
0
 10
804.7215972219634068
 20
153.1134818986332107
 30
0.0
 40
0.2499756032878986
 50
92.8518339193787057
 51
136.5033570417662929
  0
LINE
  5
4D44
  8
0
 10
804.54026124433517
 20
153.2855431245289139
 30
0.0
 11
803.4897071812351896
 21
152.1776671610290066
 31
0.0
  0
LINE
  5
4D45
  8
0
 10
777.2332739866379825
 20
153.3953727207290001
 30
0.0
 11
802.1136680783167776
 21
153.3953727207290001
 31
0.0
  0
LINE
  5
4D46
  8
0
 10
802.2018912174353318
 20
153.3588241356289075
 30
0.0
 11
803.3726506573352708
 21
152.1880646958288992
 31
0.0
  0
ARC
  5
4D47
  8
0
 10
802.1135984373258907
 20
153.2704512057458999
 30
0.0
 40
0.1249215343947455
 50
45.0259939716470967
 51
89.968058869309516
  0
ARC
  5
4D48
  8
0
 10
803.5803941576263014
 20
152.0916238802336977
 30
0.0
 40
0.125010295003969
 50
136.5051353268954983
 51
180.0006595371779099
  0
LINE
  5
4D49
  8
0
 10
803.4553838626352444
 20
152.0916224412289068
 30
0.0
 11
803.454921164039888
 21
151.8461310266501982
 31
0.0
  0
ARC
  5
4D4A
  8
0
 10
803.3291843655206321
 20
151.8463680135124036
 30
0.0
 40
0.1257370218537775
 50
315.0677095625497941
 51
359.8920098882218781
  0
LINE
  5
4D4B
  8
0
 10
803.4181988735350615
 20
151.7575636440288918
 30
0.0
 11
802.9790232623192878
 21
151.318981589243208
 31
0.0
  0
ARC
  5
4D4C
  8
0
 10
803.1553640133992076
 20
151.1424021868421903
 30
0.0
 40
0.2495522908003727
 50
134.9612555099421911
 51
180.0445499313804021
  0
LINE
  5
4D4D
  8
0
 10
802.9058117980350744
 20
151.1422081492289919
 30
0.0
 11
802.9058117980350744
 21
82.3164690206289862
 31
0.0
  0
ARC
  5
4D4E
  8
0
 10
780.3441877966014317
 20
151.9502632536473072
 30
0.0
 40
0.0306776052286878
 50
4.7387984938895684
 51
89.3034685275918463
  0
ARC
  5
4D4F
  8
0
 10
773.3188116638590373
 20
151.7315351923633955
 30
0.0
 40
7.059417224577845
 50
0.668770486979876
 51
1.7961086950061069
  0
LINE
  5
4D50
  8
0
 10
780.3777480016352683
 20
151.8139325824282935
 30
0.0
 11
780.3814081377350931
 21
151.5183797356282014
 31
0.0
  0
ARC
  5
4D51
  8
0
 10
782.9255850223420339
 20
151.5498869051951942
 30
0.0
 40
2.5443719700353249
 50
180.7095165333016098
 51
185.1354085012858945
  0
LINE
  5
4D52
  8
0
 10
780.3445607279309115
 20
151.9809385920281954
 30
0.0
 11
780.3512070701351604
 21
152.0026117402281898
 31
0.0
  0
ARC
  5
4D53
  8
0
 10
780.4297536376018343
 20
151.8070534847227862
 30
0.0
 40
0.2107429584994842
 50
102.6044753017912967
 51
111.883011289094398
  0
ARC
  5
4D54
  8
0
 10
780.5187295391466478
 20
151.9503998351183043
 30
0.0
 40
0.0303859647891173
 50
90.0709225513599137
 51
175.4740042968161049
  0
ARC
  5
4D55
  8
0
 10
787.5443872008114568
 20
151.7315351923633955
 30
0.0
 40
7.059417224577845
 50
178.2038913049939026
 51
179.3312295130201051
  0
LINE
  5
4D56
  8
0
 10
780.4854508630352257
 20
151.8139325824282935
 30
0.0
 11
780.4817907269351736
 21
151.5183797356282014
 31
0.0
  0
ARC
  5
4D57
  8
0
 10
777.9376138423283464
 20
151.5498869051951942
 30
0.0
 40
2.5443719700353249
 50
354.8645914987141055
 51
359.2904834666983902
  0
LINE
  5
4D58
  8
0
 10
780.518691926435622
 20
151.9807857766282098
 30
0.0
 11
780.5119917945352199
 21
152.0026117402281898
 31
0.0
  0
ARC
  5
4D59
  8
0
 10
780.433445227068546
 20
151.8070534847227862
 30
0.0
 40
0.2107429584994842
 50
68.1169887109056162
 51
77.3955246982087033
  0
LINE
  5
4D5A
  8
0
 10
780.479433441735182
 20
152.0127174795281917
 30
0.0
 11
780.383765421235239
 21
152.0127174789282947
 31
0.0
  0
LINE
  5
4D5B
  8
0
 10
780.3914263166351475
 20
151.3221406073282935
 30
0.0
 11
780.4717725480352328
 21
151.3221406073282935
 31
0.0
  0
ARC
  5
4D5C
  8
0
 10
758.3945914464637781
 20
-1105.1984869392028941
 30
0.0
 40
1257.373929890529098
 50
88.9046134378811814
 51
88.991801109217036
  0
ARC
  5
4D5D
  8
0
 10
778.0169340778935521
 20
82.1914690207854051
 30
0.0
 40
0.1249999998435153
 50
89.9999999809341773
 51
149.5344550792491134
  0
ARC
  5
4D5E
  8
0
 10
776.05609368952355
 20
82.7680330284283201
 30
0.0
 40
0.1244854085328435
 50
180.0074218463676914
 51
225.0074217794316098
  0
LINE
  5
4D5F
  8
0
 10
775.9680806159351505
 20
82.6799971504289744
 30
0.0
 11
777.134268061535181
 21
81.5138097048289438
 31
0.0
  0
ARC
  5
4D60
  8
0
 10
779.7324087073128567
 20
84.1119503506066337
 30
0.0
 40
3.674325738211472
 50
224.9999999999996874
 51
225.6383867515272073
  0
ARC
  5
4D61
  8
0
 10
777.1200572236683684
 20
81.4407979767741637
 30
0.0
 40
0.0619070468382871
 50
0.5329522997051451
 51
45.5925230429217194
  0
ARC
  5
4D62
  8
0
 10
777.6835765421589031
 20
81.4456382954679867
 30
0.0
 40
0.5016330767515025
 50
180.4870885910993081
 51
185.2886956950428043
  0
LINE
  5
4D63
  8
0
 10
777.184078965935214
 20
81.3994007021289718
 30
0.0
 11
777.1871445396352556
 21
81.3963351283289853
 31
0.0
  0
ARC
  5
4D64
  8
0
 10
777.0833547333451179
 20
81.3797456163607222
 30
0.0
 40
0.1051072585366636
 50
2.440263116130112
 51
9.0812032673735352
  0
ARC
  5
4D65
  8
0
 10
777.3192616086065527
 20
81.3881281301807462
 30
0.0
 40
0.1309532368233747
 50
181.7098016814508128
 51
271.3505210921941284
  0
LINE
  5
4D66
  8
0
 10
782.4317302726352636
 20
151.9456637155282124
 30
0.0
 11
784.1762974538352182
 21
151.9456081682282047
 31
0.0
  0
ARC
  5
4D67
  8
0
 10
784.1762733835531662
 20
151.9145874023417946
 30
0.0
 40
0.0310207752250099
 50
1.706733300839167
 51
89.9555418682138992
  0
LINE
  5
4D68
  8
0
 10
784.207280396935289
 20
151.9155113161282884
 30
0.0
 11
784.224954055635294
 21
151.9728472478282129
 31
0.0
  0
ARC
  5
4D69
  8
0
 10
783.791066487129342
 20
152.0206642441166025
 30
0.0
 40
0.4365144754048897
 50
353.7110421783444849
 51
358.9568701935319837
  0
ARC
  5
4D6A
  8
0
 10
786.8246785252754307
 20
151.8318067756760001
 30
0.0
 40
2.6187362242751151
 50
178.1683019949661002
 51
180.726629722800709
  0
ARC
  5
4D6B
  8
0
 10
3274.5570633957040627
 20
183.3174420402542069
 30
0.0
 40
2490.5503598740469897
 50
180.7251188548650873
 51
180.7588751190668006
  0
ARC
  5
4D6C
  8
0
 10
787.8165464024660878
 20
150.4131450878693954
 30
0.0
 40
3.5923220995526681
 50
181.3040319331971091
 51
184.477901704109911
  0
ARC
  5
4D6D
  8
0
 10
784.3744237230044973
 20
151.9145822128785142
 30
0.0
 40
0.031032708322962
 50
91.8552743861478831
 51
178.284337594052289
  0
LINE
  5
4D6E
  8
0
 10
784.3434049262351664
 20
151.9155113161282884
 30
0.0
 11
784.3257312675351614
 21
151.9728472478282129
 31
0.0
  0
ARC
  5
4D6F
  8
0
 10
784.7596188360411134
 20
152.0206642441166025
 30
0.0
 40
0.4365144754048897
 50
181.0431298064613941
 51
186.2889578216554867
  0
ARC
  5
4D70
  8
0
 10
781.7260067978951383
 20
151.8318067756760001
 30
0.0
 40
2.6187362242751151
 50
359.2733702771992057
 51
1.831698005033858
  0
ARC
  5
4D71
  8
0
 10
-1706.0063780725340621
 20
183.3174420402542069
 30
0.0
 40
2490.5503598740469897
 50
359.2411248809265771
 51
359.2748811451348843
  0
ARC
  5
4D72
  8
0
 10
780.7341389207044813
 20
150.4131450878693954
 30
0.0
 40
3.5923220995526681
 50
355.5220982958837794
 51
358.6959680668027772
  0
LINE
  5
4D73
  8
0
 10
784.2351897931353051
 20
150.1326760098282023
 30
0.0
 11
784.3154955300351503
 21
150.1326760098282023
 31
0.0
  0
LINE
  5
4D74
  8
0
 10
784.2275086209352821
 20
152.0127174789282947
 30
0.0
 11
784.3231767022352869
 21
152.0127174789282947
 31
0.0
  0
LINE
  5
4D75
  8
0
 10
784.3734190394352481
 20
151.9455986536281955
 30
0.0
 11
787.1771945577352199
 21
151.9453707281282107
 31
0.0
  0
ARC
  5
4D76
  8
0
 10
787.1771704874530542
 20
151.9143499622418005
 30
0.0
 40
0.0310207752250099
 50
1.706733300839167
 51
89.9555418682138992
  0
LINE
  5
4D77
  8
0
 10
787.2081775008352906
 20
151.9152738760282944
 30
0.0
 11
787.2258511595352957
 21
151.9726098077281904
 31
0.0
  0
ARC
  5
4D78
  8
0
 10
786.7919635910293437
 20
152.0204268040166937
 30
0.0
 40
0.4365144754048897
 50
353.7110421783444849
 51
358.9568701935319837
  0
ARC
  5
4D79
  8
0
 10
789.8255756291754324
 20
151.8315693355760061
 30
0.0
 40
2.6187362242751151
 50
178.1683019949661002
 51
180.726629722800709
  0
ARC
  5
4D7A
  8
0
 10
3277.5579604996050875
 20
183.3172046001542128
 30
0.0
 40
2490.5503598740469897
 50
180.7251188548650873
 51
180.7588751190668006
  0
ARC
  5
4D7B
  8
0
 10
790.8174435063660894
 20
150.4129076477694014
 30
0.0
 40
3.5923220995526681
 50
181.3040319331971091
 51
184.477901704109911
  0
ARC
  5
4D7C
  8
0
 10
787.3753652115676687
 20
151.9143256366629942
 30
0.0
 40
0.0310776511114371
 50
93.4442910398760631
 51
178.2515233548658102
  0
LINE
  5
4D7D
  8
0
 10
787.344302030135168
 20
151.9152738760282944
 30
0.0
 11
787.326628371435163
 21
151.9726098077281904
 31
0.0
  0
ARC
  5
4D7E
  8
0
 10
787.7605159399410013
 20
152.0204268040166937
 30
0.0
 40
0.4365144754048897
 50
181.0431298064613941
 51
186.2889578216554867
  0
ARC
  5
4D7F
  8
0
 10
784.72690390179514
 20
151.8315693355760061
 30
0.0
 40
2.6187362242751151
 50
359.2733702771992057
 51
1.831698005033858
  0
ARC
  5
4D80
  8
0
 10
-1703.0054809686330373
 20
183.3172046001542128
 30
0.0
 40
2490.5503598740469897
 50
359.2411248809265771
 51
359.2748811451348843
  0
ARC
  5
4D81
  8
0
 10
783.7350360246044829
 20
150.4129076477694014
 30
0.0
 40
3.5923220995526681
 50
355.5220982958837794
 51
358.6959680668027772
  0
LINE
  5
4D82
  8
0
 10
787.2360868970353067
 20
150.1324385697282935
 30
0.0
 11
787.3163926339351519
 21
150.1324385697282935
 31
0.0
  0
LINE
  5
4D83
  8
0
 10
787.2284057248352838
 20
152.0124800388283006
 30
0.0
 11
787.3240738061352886
 21
152.0124800388283006
 31
0.0
  0
ARC
  5
4D84
  8
0
 10
790.5560032365532379
 20
151.9137288123417875
 30
0.0
 40
0.0310207752250099
 50
1.706733300839167
 51
89.9555418682138992
  0
LINE
  5
4D85
  8
0
 10
790.587010249935247
 20
151.914652726128196
 30
0.0
 11
790.604683908635252
 21
151.9719886578282058
 31
0.0
  0
ARC
  5
4D86
  8
0
 10
790.1707963401293
 20
152.0198056541165954
 30
0.0
 40
0.4365144754048897
 50
353.7110421783444849
 51
358.9568701935319837
  0
ARC
  5
4D87
  8
0
 10
793.2044083782753887
 20
151.830948185675993
 30
0.0
 40
2.6187362242751151
 50
178.1683019949661002
 51
180.726629722800709
  0
ARC
  5
4D88
  8
0
 10
3377.8081579005988715
 20
184.5385843896009135
 30
0.0
 40
2587.4294317115900412
 50
180.7250293882574113
 51
180.7581476690704108
  0
ARC
  5
4D89
  8
0
 10
794.1966316406660553
 20
150.3840224497693043
 30
0.0
 40
3.5923220995526681
 50
181.3040319331971091
 51
184.477901704109911
  0
ARC
  5
4D8A
  8
0
 10
790.7540505488898361
 20
151.9137680422479093
 30
0.0
 40
0.0309284250958021
 50
90.643167492978364
 51
178.3608745935964919
  0
LINE
  5
4D8B
  8
0
 10
790.7231347792352381
 20
151.914652726128196
 30
0.0
 11
790.705461120535233
 21
151.9719886578282058
 31
0.0
  0
ARC
  5
4D8C
  8
0
 10
791.1393486890410713
 20
152.0198056541165954
 30
0.0
 40
0.4365144754048897
 50
181.0431298064613941
 51
186.2889578216554867
  0
ARC
  5
4D8D
  8
0
 10
788.1057366508950963
 20
151.830948185675993
 30
0.0
 40
2.6187362242751151
 50
359.2733702771992057
 51
1.831698005033858
  0
ARC
  5
4D8E
  8
0
 10
-1796.4820357286339458
 20
183.3087320899952886
 30
0.0
 40
2587.3981856740801959
 50
359.2690795302805213
 51
359.3021980110675031
  0
ARC
  5
4D8F
  8
0
 10
787.1142241589044488
 20
150.3840224497693043
 30
0.0
 40
3.5923220995526681
 50
355.5220982958837794
 51
358.6959680668027772
  0
LINE
  5
4D90
  8
0
 10
790.6152750313352726
 20
150.1035533717283101
 30
0.0
 11
790.6955807682352315
 21
150.1035533717283101
 31
0.0
  0
LINE
  5
4D91
  8
0
 10
790.6072384739352401
 20
152.0118588889282876
 30
0.0
 11
790.7029065552352449
 21
152.0118588889282876
 31
0.0
  0
ARC
  5
4D92
  8
0
 10
793.3066425524532406
 20
151.9126711874417879
 30
0.0
 40
0.0310207752250099
 50
1.706733300839167
 51
89.9555418682138992
  0
LINE
  5
4D93
  8
0
 10
793.3376495658352496
 20
151.9135951012283101
 30
0.0
 11
793.3553232245352547
 21
151.9709310329282062
 31
0.0
  0
ARC
  5
4D94
  8
0
 10
792.9214356560294164
 20
152.0187480292165958
 30
0.0
 40
0.4365144754048897
 50
353.7110421783444849
 51
358.9568701935319837
  0
ARC
  5
4D95
  8
0
 10
795.9550476941752777
 20
151.8298905607759934
 30
0.0
 40
2.6187362242751151
 50
178.1683019949661002
 51
180.726629722800709
  0
ARC
  5
4D96
  8
0
 10
3480.2611709845868972
 20
184.1138886245583137
 30
0.0
 40
2687.1189908425658359
 50
180.6890964940791946
 51
180.7215946405694922
  0
ARC
  5
4D97
  8
0
 10
796.9466763057660046
 20
150.3544159046693096
 30
0.0
 40
3.5923220995526681
 50
181.3040319331971091
 51
184.477901704109911
  0
ARC
  5
4D98
  8
0
 10
793.5046059023488851
 20
151.9127466171260039
 30
0.0
 40
0.0308434800456836
 50
91.1233685231612185
 51
178.4236314550751104
  0
LINE
  5
4D99
  8
0
 10
793.4737740951352407
 20
151.9135951012283101
 30
0.0
 11
793.4561004364352357
 21
151.9709310329282062
 31
0.0
  0
ARC
  5
4D9A
  8
0
 10
793.8899880049411877
 20
152.0187480292165958
 30
0.0
 40
0.4365144754048897
 50
181.0431298064613941
 51
186.2889578216554867
  0
ARC
  5
4D9B
  8
0
 10
790.8563759667949853
 20
151.8298905607759934
 30
0.0
 40
2.6187362242751151
 50
359.2733702771992057
 51
1.831698005033858
  0
ARC
  5
4D9C
  8
0
 10
-1893.4605040799090148
 20
184.9576946762502985
 30
0.0
 40
2687.1400274585780608
 50
359.2604177312805973
 51
359.2929157505636795
  0
ARC
  5
4D9D
  8
0
 10
789.8642688240045118
 20
150.3544159046693096
 30
0.0
 40
3.5923220995526681
 50
355.5220982958837794
 51
358.6959680668027772
  0
LINE
  5
4D9E
  8
0
 10
793.3653196964352219
 20
150.073946826628287
 30
0.0
 11
793.4456254333352945
 21
150.073946826628287
 31
0.0
  0
LINE
  5
4D9F
  8
0
 10
793.3578777898352428
 20
152.010801264028288
 30
0.0
 11
793.4535458711352476
 21
152.010801264028288
 31
0.0
  0
ARC
  5
4DA0
  8
0
 10
796.9346696761531348
 20
151.9094942132417998
 30
0.0
 40
0.0310207752250099
 50
1.706733300839167
 51
89.9555418682138992
  0
LINE
  5
4DA1
  8
0
 10
796.9656766895352575
 20
151.9104181270282936
 30
0.0
 11
796.9833503482352626
 21
151.9677540587283033
 31
0.0
  0
ARC
  5
4DA2
  8
0
 10
796.5494627797291969
 20
152.0155710550166077
 30
0.0
 40
0.4365144754048897
 50
353.7110421783444849
 51
358.9568701935319837
  0
ARC
  5
4DA3
  8
0
 10
799.5830748178753993
 20
151.8267135865760054
 30
0.0
 40
2.6187362242751151
 50
178.1683019949661002
 51
180.726629722800709
  0
ARC
  5
4DA4
  8
0
 10
3774.4994076027451229
 20
186.2574868174068001
 30
0.0
 40
2977.7343063565490411
 50
180.6631501259278139
 51
180.6940217209701132
  0
ARC
  5
4DA5
  8
0
 10
800.5749426950660563
 20
150.2709329984382975
 30
0.0
 40
3.5923220995526681
 50
181.3040319331971091
 51
184.477901704109911
  0
ARC
  5
4DA6
  8
0
 10
797.132535214658219
 20
151.9096118135749975
 30
0.0
 40
0.0307445709130558
 50
85.2103578529788734
 51
178.4971767672221858
  0
LINE
  5
4DA7
  8
0
 10
797.1018012188352486
 20
151.9104181270282936
 30
0.0
 11
797.0841275601352436
 21
151.9677540587283033
 31
0.0
  0
ARC
  5
4DA8
  8
0
 10
797.5180151286410819
 20
152.0155710550166077
 30
0.0
 40
0.4365144754048897
 50
181.0431298064613941
 51
186.2889578216554867
  0
ARC
  5
4DA9
  8
0
 10
794.4844030904951069
 20
151.8267135865760054
 30
0.0
 40
2.6187362242751151
 50
359.2733702771992057
 51
1.831698005033858
  0
ARC
  5
4DAA
  8
0
 10
-2180.4319296947642215
 20
186.2574868174341987
 30
0.0
 40
2977.7343063569410333
 50
359.3059782790298868
 51
359.3368498740720725
  0
ARC
  5
4DAB
  8
0
 10
793.4925352133044498
 20
150.2709329984382975
 30
0.0
 40
3.5923220995526681
 50
355.5220982958837794
 51
358.6959680668027772
  0
LINE
  5
4DAC
  8
0
 10
796.9935860857351599
 20
149.9904639203973034
 30
0.0
 11
797.0738918226352325
 21
149.9904639203973034
 31
0.0
  0
LINE
  5
4DAD
  8
0
 10
796.9859049135352507
 20
152.0076242898281862
 30
0.0
 11
797.0815729948352555
 21
152.0076242898281862
 31
0.0
  0
ARC
  5
4DAE
  8
0
 10
799.9340232619531434
 20
151.9043574594417976
 30
0.0
 40
0.0310207752250099
 50
1.706733300839167
 51
89.9555418682138992
  0
LINE
  5
4DAF
  8
0
 10
799.9650302753351525
 20
151.9052813732282914
 30
0.0
 11
799.9827039340351575
 21
151.9626173049283011
 31
0.0
  0
ARC
  5
4DB0
  8
0
 10
799.5488163655293192
 20
152.0104343012166055
 30
0.0
 40
0.4365144754048897
 50
353.7110421783444849
 51
358.9568701935319837
  0
ARC
  5
4DB1
  8
0
 10
802.5824284036755216
 20
151.8215768327758894
 30
0.0
 40
2.6187362242751151
 50
178.1683019949661002
 51
180.726629722800709
  0
ARC
  5
4DB2
  8
0
 10
4250.2593426840739994
 20
188.8874431489666108
 30
0.0
 40
3450.4948868491378562
 50
180.6160453878260057
 51
180.6447242123529975
  0
ARC
  5
4DB3
  8
0
 10
803.5742962808659513
 20
150.143113774035811
 30
0.0
 40
3.5923220995526681
 50
181.3040319331971091
 51
184.477901704109911
  0
ARC
  5
4DB4
  8
0
 10
800.1354984699347597
 20
151.900210920722003
 30
0.0
 40
0.034715944965244
 50
87.8709559503931388
 51
171.6015980306393089
  0
LINE
  5
4DB5
  8
0
 10
800.1011548046352573
 20
151.9052813732282914
 30
0.0
 11
800.0834811459352522
 21
151.9626173049283011
 31
0.0
  0
ARC
  5
4DB6
  8
0
 10
800.5173687144410906
 20
152.0104343012166055
 30
0.0
 40
0.4365144754048897
 50
181.0431298064613941
 51
186.2889578216554867
  0
ARC
  5
4DB7
  8
0
 10
797.4837566762951155
 20
151.8215768327758894
 30
0.0
 40
2.6187362242751151
 50
359.2733702771992057
 51
1.831698005033858
  0
ARC
  5
4DB8
  8
0
 10
-2650.1931576048950774
 20
188.8874431489981021
 30
0.0
 40
3450.4948868499291166
 50
359.3552757876469173
 51
359.3839546121740227
  0
ARC
  5
4DB9
  8
0
 10
796.4918887991044585
 20
150.143113774035811
 30
0.0
 40
3.5923220995526681
 50
355.5220982958837794
 51
358.6959680668027772
  0
LINE
  5
4DBA
  8
0
 10
799.9929396715351686
 20
149.8626446959947884
 30
0.0
 11
800.0732454084353549
 21
149.8626446959947884
 31
0.0
  0
LINE
  5
4DBB
  8
0
 10
799.9852584993352593
 20
152.0024875360282124
 30
0.0
 11
800.0809265806352641
 21
152.0024875360282124
 31
0.0
  0
LINE
  5
4DBC
  8
0
 10
787.3734981278352052
 20
151.9453471517282992
 30
0.0
 11
790.5560273068352899
 21
151.9447495782281976
 31
0.0
  0
LINE
  5
4DBD
  8
0
 10
790.7537033725352558
 20
151.9446945187281983
 30
0.0
 11
793.3066666227352925
 21
151.943691953328198
 31
0.0
  0
LINE
  5
4DBE
  8
0
 10
793.5040012090352093
 20
151.9435841690282132
 30
0.0
 11
796.9346937464353005
 21
151.9405149791282952
 31
0.0
  0
LINE
  5
4DBF
  8
0
 10
797.1351023155351641
 20
151.9402490235281959
 30
0.0
 11
799.9340473322351954
 21
151.935378225328293
 31
0.0
  0
LINE
  5
4DC0
  8
0
 10
800.1367881769351698
 20
151.9349029009289893
 30
0.0
 11
803.1080207652350964
 21
151.9243234723288936
 31
0.0
  0
ARC
  5
4DC1
  8
0
 10
803.1040768329418142
 20
151.8341069293954888
 30
0.0
 40
0.0903027088231296
 50
2.5030464023370889
 51
87.4968350515239308
  0
LINE
  5
4DC2
  8
0
 10
803.5676104451350739
 20
86.7954989763955638
 30
0.0
 11
803.5676104451350739
 21
82.3164690206289862
 31
0.0
  0
ARC
  5
4DC3
  8
0
 10
803.9830626415046027
 20
145.4760260218183134
 30
0.0
 40
6.5468255487898572
 50
89.7432952068164838
 51
93.6841708766025931
  0
ARC
  5
4DC4
  8
0
 10
804.0143867463907554
 20
151.9927688553632095
 30
0.0
 40
0.030083042370172
 50
93.797046929094293
 51
179.8112038939314061
  0
LINE
  5
4DC5
  8
0
 10
803.9843038673377578
 20
151.9928679822278923
 30
0.0
 11
803.9900432193729785
 21
82.3164690206289862
 31
0.0
  0
LINE
  5
4DC6
  8
0
 10
804.0123945729352499
 20
152.0227858619290089
 30
0.0
 11
804.8434897883350914
 21
152.0655999588288978
 31
0.0
  0
ARC
  5
4DC7
  8
0
 10
805.4700372161684072
 20
139.9032373914320999
 30
0.0
 40
12.1784902553699794
 50
92.063934973655094
 51
92.9490008571246165
  0
LINE
  5
4DC8
  8
0
 10
805.0314328990350532
 20
152.0738269890289871
 30
0.0
 11
805.0274175677352559
 21
152.0685940862290124
 31
0.0
  0
ARC
  5
4DC9
  8
0
 10
805.0534035978563452
 20
151.5684037816074863
 30
0.0
 40
0.5008648666045661
 50
92.9739730640723252
 51
141.8605903360322031
  0
LINE
  5
4DCA
  8
0
 10
804.6594681607351731
 20
151.8777264060290122
 30
0.0
 11
804.0890836842352201
 21
151.13438583512891
 31
0.0
  0
ARC
  5
4DCB
  8
0
 10
804.5377084796592726
 20
150.800924615022808
 30
0.0
 40
0.5589817460203655
 50
143.3767086333992893
 51
171.8332146855202893
  0
LINE
  5
4DCC
  8
0
 10
803.5858732323353024
 20
152.029809689428987
 30
0.0
 11
811.0410136586350518
 21
152.4136906920290073
 31
0.0
  0
ARC
  5
4DCD
  8
0
 10
811.0323236806058276
 20
152.5768190618894096
 30
0.0
 40
0.1633596669055417
 50
273.0493095115722895
 51
356.8775287801859122
  0
LINE
  5
4DCE
  8
0
 10
804.8404480450523124
 20
152.0217420075809116
 30
0.0
 11
811.0409715820352403
 21
152.3348135795289977
 31
0.0
  0
ARC
  5
4DCF
  8
0
 10
811.0322571573483401
 20
152.4979885790893093
 30
0.0
 40
0.1634075325042381
 50
273.0569994008009189
 51
357.0005067135458034
  0
ARC
  5
4DD0
  8
0
 10
810.4558985439155094
 20
151.5516118895230875
 30
0.0
 40
0.7534588945878899
 50
95.4591476824205216
 51
179.8989500615645056
  0
LINE
  5
4DD1
  8
0
 10
809.7024408211351556
 20
151.5529407297289026
 30
0.0
 11
809.7024408211351556
 21
148.142497384428907
 31
0.0
  0
ARC
  5
4DD2
  8
0
 10
808.3174416087806549
 20
148.142497384428907
 30
0.0
 40
1.384999212354511
 50
326.8341029140296996
 51
0.0
  0
ARC
  5
4DD3
  8
0
 10
809.8953413645300543
 20
147.1112895447099049
 30
0.0
 40
0.4999828161783243
 50
146.8341029140296996
 51
203.4687043052539082
  0
ARC
  5
4DD4
  8
0
 10
801.4982511387025852
 20
143.4660529456552922
 30
0.0
 40
8.6541896824421105
 50
0.0000846605284631
 51
23.4658519223276016
  0
LINE
  5
4DD5
  8
0
 10
810.1524408211352011
 20
143.4660657331289997
 30
0.0
 11
810.1524408211352011
 21
82.3164690206289862
 31
0.0
  0
LINE
  5
4DD6
  8
0
 10
809.1065470839350837
 20
149.7932310978291923
 30
0.0
 11
809.1065470839350837
 21
148.1636988585289885
 31
0.0
  0
ARC
  5
4DD7
  8
0
 10
808.3168329855164984
 20
148.1636988585289885
 30
0.0
 40
0.7897140984186706
 50
302.3087083789803273
 51
0.0
  0
ARC
  5
4DD8
  8
0
 10
808.8645312761515243
 20
147.2976173054209994
 30
0.0
 40
0.2350154630746979
 50
122.3087083789803984
 51
207.365847806769608
  0
ARC
  5
4DD9
  8
0
 10
801.463363861324865
 20
143.47506195598001
 30
0.0
 40
8.0950031479729372
 50
1.217571092402246
 51
27.3139882674339098
  0
LINE
  5
4DDA
  8
0
 10
809.5274518576353557
 20
133.093797887063289
 30
0.0
 11
809.5274518576353557
 21
114.6718784154683988
 31
0.0
  0
LINE
  5
4DDB
  8
0
 10
809.5274518576353557
 20
114.6096472043043946
 30
0.0
 11
809.5274518576353557
 21
105.7721014858231996
 31
0.0
  0
LINE
  5
4DDC
  8
0
 10
809.5274518576353557
 20
104.4443575283343932
 30
0.0
 11
809.5274518576353557
 21
99.4913112773917447
 31
0.0
  0
LINE
  5
4DDD
  8
0
 10
809.5274518576353557
 20
98.1635673199034073
 30
0.0
 11
809.5274330095351161
 21
82.5067685526289978
 31
0.0
  0
LINE
  5
4DDE
  8
0
 10
809.5348539761350821
 20
82.4758916353290061
 30
0.0
 11
810.1424437752352787
 21
82.4767685528290144
 31
0.0
  0
LINE
  5
4DDF
  8
0
 10
809.5348539761350821
 20
82.4758916353290061
 30
0.0
 11
809.2282596429351997
 21
82.4619446385290331
 31
0.0
  0
ARC
  5
4DE0
  8
0
 10
809.346915440712678
 20
79.8535554833853922
 30
0.0
 40
2.6110865904861891
 50
92.6045932451319374
 51
96.7637509109855927
  0
ARC
  5
4DE1
  8
0
 10
811.0454408211351165
 20
80.6414690206290317
 30
0.0
 40
0.1500000000000052
 50
269.999999997502016
 51
0.0
  0
LINE
  5
4DE2
  8
0
 10
811.0454408211351165
 20
80.4914690206289407
 30
0.0
 11
810.8058650950350739
 21
80.4914690206289407
 31
0.0
  0
ARC
  5
4DE3
  8
0
 10
810.8058650950350739
 20
80.6414691145868829
 30
0.0
 40
0.1500000939578499
 50
186.0000323148115058
 51
270.0
  0
LINE
  5
4DE4
  8
0
 10
810.6566867261352627
 20
80.6257897511289485
 30
0.0
 11
810.6408496968351756
 21
80.7764690206290226
 31
0.0
  0
ARC
  5
4DE5
  8
0
 10
811.1354408207282631
 20
80.836469020899429
 30
0.0
 40
0.0600000004789604
 50
269.9952234484600808
 51
0.0
  0
LINE
  5
4DE6
  8
0
 10
811.1354358187352318
 20
80.7764690206290226
 30
0.0
 11
796.8949371287352506
 21
80.7764690206290226
 31
0.0
  0
LINE
  5
4DE7
  8
0
 10
796.8949371287352506
 20
80.7764690206290226
 30
0.0
 11
796.8025610855351033
 21
80.6164690204289656
 31
0.0
  0
ARC
  5
4DE8
  8
0
 10
796.5860547349188892
 20
80.7414690202577532
 30
0.0
 40
0.2499999996288045
 50
269.9999999349860218
 51
329.9999999961868866
  0
LINE
  5
4DE9
  8
0
 10
796.5860547347350575
 20
80.4914690206289407
 30
0.0
 11
795.9214879076351963
 21
80.4914690206289407
 31
0.0
  0
ARC
  5
4DEA
  8
0
 10
795.9214879076351963
 20
80.7414690206289407
 30
0.0
 40
0.25
 50
210.0000000000009095
 51
270.0
  0
LINE
  5
4DEB
  8
0
 10
795.7049815567352198
 20
80.6164690206289549
 30
0.0
 11
795.6126055136352306
 21
80.7764690206290226
 31
0.0
  0
LINE
  5
4DEC
  8
0
 10
795.6126055136352306
 20
80.7764690206290226
 30
0.0
 11
786.8949371287352506
 21
80.7764690206290226
 31
0.0
  0
LINE
  5
4DED
  8
0
 10
786.8949371287352506
 20
80.7764690206290226
 30
0.0
 11
786.802561085535217
 21
80.6164690204289656
 31
0.0
  0
ARC
  5
4DEE
  8
0
 10
786.5860547349187755
 20
80.7414690202577532
 30
0.0
 40
0.2499999996288103
 50
269.9999999349893187
 51
329.9999999961868866
  0
LINE
  5
4DEF
  8
0
 10
786.5860547347350575
 20
80.4914690206289407
 30
0.0
 11
785.9214879076350826
 21
80.4914690206289407
 31
0.0
  0
ARC
  5
4DF0
  8
0
 10
785.9214879076350826
 20
80.7414690206289407
 30
0.0
 40
0.25
 50
210.0000000000009095
 51
270.0
  0
LINE
  5
4DF1
  8
0
 10
785.7049815567352198
 20
80.6164690206289549
 30
0.0
 11
785.6126055136352306
 21
80.7764690206290226
 31
0.0
  0
LINE
  5
4DF2
  8
0
 10
785.6126055136352306
 20
80.7764690206290226
 30
0.0
 11
781.9375341263352084
 21
80.7764690206290226
 31
0.0
  0
ARC
  5
4DF3
  8
0
 10
781.9375341263352084
 20
80.6287424022280703
 30
0.0
 40
0.147726618400938
 50
90.0
 51
160.7384951456405133
  0
ARC
  5
4DF4
  8
0
 10
781.3929731441329523
 20
80.8243469392383957
 30
0.0
 40
0.43090661740731
 50
271.2138484922019188
 51
340.0716238444849182
  0
ARC
  5
4DF5
  8
0
 10
403.9600104555836992
 20
-33633.1671435151292826
 30
0.0
 40
33715.6734515603529871
 50
89.3585686315049657
 51
89.359264429069583
  0
ARC
  5
4DF6
  8
0
 10
781.0002088430802587
 20
80.8179359173193461
 30
0.0
 40
0.4198851492468955
 50
212.5998343354897031
 51
268.9733262083872205
  0
ARC
  5
4DF7
  8
0
 10
780.4412726184915527
 20
80.6289752832900746
 30
0.0
 40
0.1372094340144854
 50
26.0549328184716984
 51
89.9605793510420426
  0
LINE
  5
4DF8
  8
0
 10
802.8666423157352483
 20
78.1893605606289412
 30
0.0
 11
804.9215148236353343
 21
78.2370729377290246
 31
0.0
  0
ARC
  5
4DF9
  8
0
 10
804.938909093212942
 20
77.4879380481514914
 30
0.0
 40
0.7493368023769033
 50
61.197163390160199
 51
91.330119854925897
  0
LINE
  5
4DFA
  8
0
 10
802.7470767714789872
 20
78.1866883000186164
 30
0.0
 11
802.7471578794958305
 21
78.1859166087803743
 31
0.0
  0
LINE
  5
4DFB
  8
0
 10
802.7471578794958305
 20
78.1859166087803743
 30
0.0
 11
802.7471617107923976
 21
78.1866901411802502
 31
0.0
  0
ARC
  5
4DFC
  8
0
 10
802.7772274372345009
 20
78.1908942974424264
 30
0.0
 40
0.030478774368567
 50
189.3994541102645996
 51
268.7116396354750805
  0
LINE
  5
4DFD
  8
0
 10
802.7765421452960481
 20
78.1604232281803917
 30
0.0
 11
802.8184057040957669
 21
78.1604232281803917
 31
0.0
  0
ARC
  5
4DFE
  8
0
 10
802.8188880827498224
 20
78.1904303322096013
 30
0.0
 40
0.0300109810133689
 50
269.0790220684610858
 51
357.1783721094856219
  0
LINE
  5
4DFF
  8
0
 10
802.7076852600351913
 20
78.1571837534290239
 30
0.0
 11
802.2152688096608699
 21
78.1445690206289356
 31
0.0
  0
ARC
  5
4E00
  8
0
 10
802.5835222853747837
 20
86.6067673318228231
 30
0.0
 40
8.4504957897474231
 50
270.841876096779572
 51
272.0761587259975158
  0
LINE
  5
4E01
  8
0
 10
802.8896658013351271
 20
78.1618188275289896
 30
0.0
 11
805.1035667071505486
 21
78.2189602869163565
 31
0.0
  0
LINE
  5
4E02
  8
0
 10
784.8721832850726514
 20
79.5989631066734944
 30
0.0
 11
787.5808799210726647
 21
79.5705722316734807
 31
0.0
  0
LINE
  5
4E03
  8
0
 10
787.8721852868726501
 20
79.5685902103734435
 30
0.0
 11
790.5808651735726471
 21
79.5492092003734967
 31
0.0
  0
LINE
  5
4E04
  8
0
 10
790.8721705393726324
 20
79.5472271790734737
 30
0.0
 11
793.5808542788727209
 21
79.5379318834734192
 31
0.0
  0
LINE
  5
4E05
  8
0
 10
793.8721596446724789
 20
79.5359498621733962
 30
0.0
 11
796.5808444823726404
 21
79.5373690064734262
 31
0.0
  0
LINE
  5
4E06
  8
0
 10
796.8721498481727394
 20
79.5353869851734032
 30
0.0
 11
799.5808365268726448
 21
79.5475555955734706
 31
0.0
  0
LINE
  5
4E07
  8
0
 10
799.8721418926726301
 20
79.5455735742734333
 30
0.0
 11
802.580833828672553
 21
79.5679289053734635
 31
0.0
  0
LINE
  5
4E08
  8
0
 10
802.872139194472652
 20
79.5659468840734405
 30
0.0
 11
805.5808170351725721
 21
79.5974513179733947
 31
0.0
  0
LINE
  5
4E09
  8
0
 10
805.8621205004726562
 20
79.6218480588734963
 30
0.0
 11
808.5133472022351953
 21
79.6453253326290138
 31
0.0
  0
ARC
  5
4E0A
  8
0
 10
805.8556046724692123
 20
79.6357528663528171
 30
0.0
 40
0.0153557704335351
 50
295.1079073294226873
 51
354.6332368480522064
  0
ARC
  5
4E0B
  8
0
 10
808.4590071926755854
 20
81.2279545581363465
 30
0.0
 40
1.713251096907163
 50
280.8179402512420779
 51
291.9174584171551032
  0
ARC
  5
4E0C
  8
0
 10
810.5935968058405479
 20
76.1272408527907203
 30
0.0
 40
3.8163394007147189
 50
113.0639651734887963
 51
119.655773962060195
  0
LINE
  5
4E0D
  8
0
 10
808.7053177407352678
 20
79.443692057577735
 30
0.0
 11
807.4231457650352013
 21
78.7256187834289705
 31
0.0
  0
ARC
  5
4E0E
  8
0
 10
806.4625549225038412
 20
80.4845506967760258
 30
0.0
 40
2.004139776199767
 50
273.02168025859811
 51
298.6399104345820774
  0
ARC
  5
4E0F
  8
0
 10
806.9087258277206729
 20
77.7043211172054953
 30
0.0
 40
0.7514230374181622
 50
116.3194675532312061
 51
144.1344249147527989
  0
ARC
  5
4E10
  8
0
 10
808.3968757134346106
 20
81.328643460621791
 30
0.0
 40
1.8812091059768501
 50
281.9159024981082098
 51
292.3630726534515247
  0
ARC
  5
4E11
  8
0
 10
810.6224060312583788
 20
76.0373331518195954
 30
0.0
 40
3.859168463220648
 50
113.0303436482206934
 51
117.8926625643542963
  0
LINE
  5
4E12
  8
0
 10
808.8170228335852698
 20
79.4481648300290146
 30
0.0
 11
807.4230334099352149
 21
78.6650115532290357
 31
0.0
  0
ARC
  5
4E13
  8
0
 10
806.3986924112539327
 20
80.604489421863363
 30
0.0
 40
2.1933647404164218
 50
280.1646584059965903
 51
297.8409073608547146
  0
ARC
  5
4E14
  8
0
 10
808.3881761773133121
 20
81.2788206407188483
 30
0.0
 40
1.8853336354338459
 50
282.6553434949777284
 51
292.7802616729092051
  0
ARC
  5
4E15
  8
0
 10
810.8293890460489592
 20
75.5605664801816346
 30
0.0
 40
4.3322653273897727
 50
113.265552028547404
 51
117.3896961561759014
  0
LINE
  5
4E16
  8
0
 10
808.8363732015352525
 20
79.4071767685290268
 30
0.0
 11
807.4222408864352474
 21
78.6099947484289743
 31
0.0
  0
ARC
  5
4E17
  8
0
 10
806.4550405418203809
 20
80.3585617042126046
 30
0.0
 40
1.998239951928015
 50
272.6086532925918959
 51
298.9486865824342772
  0
ARC
  5
4E18
  8
0
 10
808.405500068393053
 20
81.158529204418258
 30
0.0
 40
1.8070600064583631
 50
283.4304620741331178
 51
292.2120231657494855
  0
ARC
  5
4E19
  8
0
 10
810.5038785914977097
 20
76.2308199982882115
 30
0.0
 40
3.5491284043369351
 50
113.5006130712745005
 51
118.2329199523005059
  0
LINE
  5
4E1A
  8
0
 10
808.8249383787350553
 20
79.3577149745290029
 30
0.0
 11
807.4210283489720723
 21
78.562778926503313
 31
0.0
  0
ARC
  5
4E1B
  8
0
 10
806.4503077695520687
 20
80.3104557536230033
 30
0.0
 40
1.9991680107886649
 50
270.4449266948277
 51
299.0493180978165242
  0
ARC
  5
4E1C
  8
0
 10
808.3578985786151634
 20
81.2437933948340856
 30
0.0
 40
1.9336830248285299
 50
285.0676994811566942
 51
292.4209404593394197
  0
ARC
  5
4E1D
  8
0
 10
810.5769749068634837
 20
76.044236402426634
 30
0.0
 40
3.7198211069421552
 50
113.4710883743779988
 51
118.1902130173450018
  0
LINE
  5
4E1E
  8
0
 10
808.8197306047851498
 20
79.3228277966789932
 30
0.0
 11
807.4241622096351421
 21
78.5339552355290209
 31
0.0
  0
ARC
  5
4E1F
  8
0
 10
806.4288982038654012
 20
80.297744984366787
 30
0.0
 40
2.025217202989904
 50
276.6578413985403131
 51
299.4349888117711203
  0
ARC
  5
4E20
  8
0
 10
806.7440068829235997
 20
77.542014746649059
 30
0.0
 40
0.7484910527310272
 50
96.1590843310352739
 51
126.3872961243694988
  0
ARC
  5
4E21
  8
0
 10
808.4015704712371644
 20
81.0907246346801713
 30
0.0
 40
1.791502888947031
 50
287.0381131090201734
 51
291.9584249455273266
  0
ARC
  5
4E22
  8
0
 10
810.4328666837282071
 20
76.3336935711084976
 30
0.0
 40
3.3816358725216329
 50
113.7398237932191023
 51
118.6477754599587939
  0
LINE
  5
4E23
  8
0
 10
808.8116300042353259
 20
79.3013614776290439
 30
0.0
 11
807.4233219531352006
 21
78.5144556829290252
 31
0.0
  0
ARC
  5
4E24
  8
0
 10
806.4360687835571753
 20
80.2556885728486549
 30
0.0
 40
2.0016395274323209
 50
272.3622866389483761
 51
299.552592259423875
  0
ARC
  5
4E25
  8
0
 10
808.4448652786353477
 20
80.9692692071290168
 30
0.0
 40
1.664967703800019
 50
290.528628255097999
 51
349.1788368810990164
  0
ARC
  5
4E26
  8
0
 10
810.2262184760056698
 20
80.6277036675370056
 30
0.0
 40
0.1488400699885662
 50
91.8155377398792751
 51
168.7734004852295868
  0
ARC
  5
4E27
  8
0
 10
806.294264190190006
 20
79.5543850732650242
 30
0.0
 40
0.0774003693878584
 50
113.4323769079681057
 51
181.8045592850816945
  0
LINE
  5
4E28
  8
0
 10
806.2169022069189168
 20
79.5519477128579808
 30
0.0
 11
806.2973225543978515
 21
78.1445690206289356
 31
0.0
  0
ARC
  5
4E29
  8
0
 10
805.1307280463956886
 20
79.5441262423443902
 30
0.0
 40
0.059307570921513
 50
0.3866635924433277
 51
54.8410232244224787
  0
LINE
  5
4E2A
  8
0
 10
805.190034266801149
 20
79.5445264795793889
 30
0.0
 11
805.3057744853012991
 21
78.1445690206289356
 31
0.0
  0
LINE
  5
4E2B
  8
0
 10
789.8155666410353888
 20
89.5206520888480952
 30
0.0
 11
788.8638884153353956
 21
90.4685063204480571
 31
0.0
  0
LINE
  5
4E2C
  8
0
 10
788.8638884153353956
 20
90.4685063204480571
 30
0.0
 11
788.5621716003819301
 21
90.7511430147275746
 31
0.0
  0
LINE
  5
4E2D
  8
0
 10
789.7363198729353826
 20
89.4413852176480333
 30
0.0
 11
788.7922441851372923
 21
90.3959719280220071
 31
0.0
  0
LINE
  5
4E2E
  8
0
 10
788.7922441851372923
 20
90.3959719280220071
 30
0.0
 11
788.505903565947051
 21
90.6941758635772146
 31
0.0
  0
LINE
  5
4E2F
  8
0
 10
788.5621716003819301
 20
90.7511430147275746
 30
0.0
 11
788.505903565947051
 21
90.6941758635772146
 31
0.0
  0
LINE
  5
4E30
  8
0
 10
789.8580037731352377
 20
89.5206520888480952
 30
0.0
 11
790.8096819988352308
 21
90.4685063204480571
 31
0.0
  0
LINE
  5
4E31
  8
0
 10
790.8096819988352308
 20
90.4685063204480571
 30
0.0
 11
791.1113988137886963
 21
90.7511430147275746
 31
0.0
  0
LINE
  5
4E32
  8
0
 10
789.9372505412352439
 20
89.4413852176480333
 30
0.0
 11
790.8813262290331068
 21
90.3959719280220071
 31
0.0
  0
LINE
  5
4E33
  8
0
 10
790.8813262290331068
 20
90.3959719280220071
 30
0.0
 11
791.1676668482234618
 21
90.6941758635772146
 31
0.0
  0
LINE
  5
4E34
  8
0
 10
791.1113988137886963
 20
90.7511430147275746
 30
0.0
 11
791.1676668482234618
 21
90.6941758635772146
 31
0.0
  0
ARC
  5
4E35
  8
0
 10
789.8367852070853132
 20
89.5418903773454247
 30
0.0
 40
0.0300215329974018
 50
225.0266155590074959
 51
314.9733844409878998
  0
LINE
  5
4E36
  8
0
 10
789.8155666410353888
 20
89.3314326851289735
 30
0.0
 11
788.8638884153353956
 21
88.3835784535289832
 31
0.0
  0
LINE
  5
4E37
  8
0
 10
788.8638884153353956
 20
88.3835784535289832
 30
0.0
 11
788.5621716003819301
 21
88.1009417592494657
 31
0.0
  0
LINE
  5
4E38
  8
0
 10
789.7363317627354036
 20
89.3989725116479832
 30
0.0
 11
788.7922441851372923
 21
88.4561128459550332
 31
0.0
  0
LINE
  5
4E39
  8
0
 10
788.7922441851372923
 20
88.4561128459550332
 30
0.0
 11
788.505903565947051
 21
88.1579089103998541
 31
0.0
  0
LINE
  5
4E3A
  8
0
 10
788.5621716003819301
 20
88.1009417592494657
 30
0.0
 11
788.505903565947051
 21
88.1579089103998541
 31
0.0
  0
LINE
  5
4E3B
  8
0
 10
789.8580037731352377
 20
89.3314326851289735
 30
0.0
 11
790.8096819988352308
 21
88.3835784535289832
 31
0.0
  0
LINE
  5
4E3C
  8
0
 10
790.8096819988352308
 20
88.3835784535289832
 30
0.0
 11
791.1113988137886963
 21
88.1009417592494657
 31
0.0
  0
LINE
  5
4E3D
  8
0
 10
789.9372280641354109
 20
89.3989725844480319
 30
0.0
 11
790.8813262290331068
 21
88.4561128459550332
 31
0.0
  0
LINE
  5
4E3E
  8
0
 10
790.8813262290331068
 20
88.4561128459550332
 30
0.0
 11
791.1676668482234618
 21
88.1579089103998541
 31
0.0
  0
LINE
  5
4E3F
  8
0
 10
791.1113988137886963
 20
88.1009417592494657
 30
0.0
 11
791.1676668482234618
 21
88.1579089103998541
 31
0.0
  0
ARC
  5
4E40
  8
0
 10
789.8367852070853132
 20
89.3101943966316441
 30
0.0
 40
0.0300215329974018
 50
45.0266155590120505
 51
134.9733844409925041
  0
ARC
  5
4E41
  8
0
 10
789.715115238189469
 20
89.4201729185632246
 30
0.0
 40
0.0299933020384013
 50
315.0217713100382753
 51
45.0103528058462317
  0
ARC
  5
4E42
  8
0
 10
789.9584240268095527
 20
89.4201676739413216
 30
0.0
 40
0.0299750004556466
 50
134.940450982838712
 51
224.9988198078320067
  0
LINE
  5
4E43
  8
0
 10
789.7807633413352733
 20
143.4999829980282868
 30
0.0
 11
789.7807661712353138
 21
141.2361467979281997
 31
0.0
  0
ARC
  5
4E44
  8
0
 10
805.8723741627442223
 20
141.2361669131828137
 30
0.0
 40
16.0916079915216486
 50
180.0000716223736958
 51
182.5438129522073893
  0
ARC
  5
4E45
  8
0
 10
804.433877633697648
 20
143.5157354127759959
 30
0.0
 40
14.6531227594531597
 50
177.3345970896905897
 51
180.061594178306791
  0
LINE
  5
4E46
  8
0
 10
789.8928271250142643
 20
143.4999829980282868
 30
0.0
 11
789.8928242951143375
 21
141.2361467979281997
 31
0.0
  0
ARC
  5
4E47
  8
0
 10
773.8012163036053153
 20
141.2361669131828137
 30
0.0
 40
16.0916079915216486
 50
357.4561870477925822
 51
359.9999283776263042
  0
ARC
  5
4E48
  8
0
 10
775.2397128326520033
 20
143.5157354127759959
 30
0.0
 40
14.6531227594531597
 50
359.9384058216930953
 51
2.6654029103093348
  0
LINE
  5
4E49
  8
0
 10
789.7966232502957382
 20
140.5219678136942036
 30
0.0
 11
789.876967216053913
 21
140.5219678136942036
 31
0.0
  0
LINE
  5
4E4A
  8
0
 10
789.7966075413306726
 20
144.1971536739847011
 30
0.0
 11
789.8769829250187513
 21
144.1971536739847011
 31
0.0
  0
ARC
  5
4E4B
  8
0
 10
789.6749213113547512
 20
82.4338403377434474
 30
0.0
 40
3.4806108137277012
 50
175.4633530758144104
 51
178.6992041702650909
  0
LINE
  5
4E4C
  8
0
 10
786.1952074715602521
 20
82.5128544490193576
 30
0.0
 11
786.195179393649596
 21
82.3164690206283041
 31
0.0
  0
LINE
  5
4E4D
  8
0
 10
786.20521543704956
 20
82.7091452277282571
 30
0.0
 11
786.2855665372494514
 21
82.7091452277282571
 31
0.0
  0
ARC
  5
4E4E
  8
0
 10
782.8158606629442602
 20
82.4338403377434474
 30
0.0
 40
3.4806108137277012
 50
1.3007958297348969
 51
4.5366469241855532
  0
LINE
  5
4E4F
  8
0
 10
786.2955745027387593
 20
82.5128544490193576
 30
0.0
 11
786.2956025806496427
 21
82.3164690206283041
 31
0.0
  0
ARC
  5
4E50
  8
0
 10
794.6750373758361548
 20
82.4338403377434474
 30
0.0
 40
3.4806108137277012
 50
175.4633530758144104
 51
178.6992041702650909
  0
LINE
  5
4E51
  8
0
 10
791.1953235360416556
 20
82.5128544490193576
 30
0.0
 11
791.1952954581309996
 21
82.3164690206283041
 31
0.0
  0
LINE
  5
4E52
  8
0
 10
791.2053315015309636
 20
82.7091452277282571
 30
0.0
 11
791.2856826017309686
 21
82.7091452277282571
 31
0.0
  0
ARC
  5
4E53
  8
0
 10
787.8159767274256637
 20
82.4338403377434474
 30
0.0
 40
3.4806108137277012
 50
1.3007958297348969
 51
4.5366469241855532
  0
LINE
  5
4E54
  8
0
 10
791.2956905672202765
 20
82.5128544490193576
 30
0.0
 11
791.2957186451310463
 21
82.3164690206283041
 31
0.0
  0
ARC
  5
4E55
  8
0
 10
799.6750126208874008
 20
82.4338403377434474
 30
0.0
 40
3.4806108137277012
 50
175.4633530758144104
 51
178.6992041702650909
  0
LINE
  5
4E56
  8
0
 10
796.1952987810929017
 20
82.5128544490193576
 30
0.0
 11
796.1952707031821319
 21
82.3164690206283041
 31
0.0
  0
LINE
  5
4E57
  8
0
 10
796.2053067465820959
 20
82.7091452277282571
 30
0.0
 11
796.2856578467821009
 21
82.7091452277282571
 31
0.0
  0
ARC
  5
4E58
  8
0
 10
792.8159519724767961
 20
82.4338403377434474
 30
0.0
 40
3.4806108137277012
 50
1.3007958297348969
 51
4.5366469241855532
  0
LINE
  5
4E59
  8
0
 10
796.2956658122714089
 20
82.5128544490193576
 30
0.0
 11
796.2956938901821786
 21
82.3164690206283041
 31
0.0
  0
ARC
  5
4E5A
  8
0
 10
804.6748791319480461
 20
82.4338403377434474
 30
0.0
 40
3.4806108137277012
 50
175.4633530758144104
 51
178.6992041702650909
  0
LINE
  5
4E5B
  8
0
 10
801.1951652921535469
 20
82.5128544490193576
 30
0.0
 11
801.1951372142427772
 21
82.3164690206283041
 31
0.0
  0
LINE
  5
4E5C
  8
0
 10
801.2051732576427412
 20
82.7091452277282571
 30
0.0
 11
801.2855243578426325
 21
82.7091452277282571
 31
0.0
  0
ARC
  5
4E5D
  8
0
 10
797.8158184835374414
 20
82.4338403377434474
 30
0.0
 40
3.4806108137277012
 50
1.3007958297348969
 51
4.5366469241855532
  0
LINE
  5
4E5E
  8
0
 10
801.2955323233319405
 20
82.5128544490193576
 30
0.0
 11
801.2955604012427102
 21
82.3164690206283041
 31
0.0
  0
LINE
  5
4E5F
  8
0
 10
795.3467164730034256
 20
80.7764690206290226
 30
0.0
 11
795.348757310535234
 21
79.9119064853289842
 31
0.0
  0
ARC
  5
4E60
  8
0
 10
795.0892711661439307
 20
79.9112939569798328
 30
0.0
 40
0.2594868673401808
 50
332.1293693794316937
 51
0.1352489325914697
  0
LINE
  5
4E61
  8
0
 10
795.2434207878756069
 20
80.7764690206290226
 30
0.0
 11
795.246891878835072
 21
79.904044398628983
 31
0.0
  0
ARC
  5
4E62
  8
0
 10
795.4858507042445126
 20
79.9049951372919196
 30
0.0
 40
0.2389607167401801
 50
180.2279598808677861
 51
208.7746366182585973
  0
LINE
  5
4E63
  8
0
 10
795.2763968916351587
 20
79.7899676426289517
 30
0.0
 11
795.3186589506351538
 21
79.7899898818289586
 31
0.0
  0
ARC
  5
4E64
  8
0
 10
777.3536507141953962
 20
108.6409606438096063
 30
0.0
 40
0.0300363936453368
 50
91.1928970280562083
 51
179.6137848173922862
  0
ARC
  5
4E65
  8
0
 10
777.5318628945049113
 20
208.4264766169737015
 30
0.0
 40
99.755646395330885
 50
269.8972826162249135
 51
270.2148312525339975
  0
LINE
  5
4E66
  8
0
 10
777.9058970804352384
 20
108.6715314454283003
 30
0.0
 11
780.431599432335247
 21
108.6715314986282976
 31
0.0
  0
LINE
  5
4E67
  8
0
 10
780.431599432335247
 20
108.6715314986282976
 30
0.0
 11
782.4317676327351592
 21
108.6603565510283005
 31
0.0
  0
LINE
  5
4E68
  8
0
 10
782.4317676327351592
 20
108.6603565510283005
 30
0.0
 11
788.1812072550352468
 21
108.6603331220282058
 31
0.0
  0
ARC
  5
4E69
  8
0
 10
788.1812071328022284
 20
108.6303373412257969
 30
0.0
 40
0.0299957808027291
 50
0.0352281148421193
 51
89.9997665193634475
  0
LINE
  5
4E6A
  8
0
 10
788.2112029079352169
 20
108.6303557840282963
 30
0.0
 11
788.2213265864352252
 21
107.4236669750282971
 31
0.0
  0
ARC
  5
4E6B
  8
0
 10
793.2408150423075313
 20
107.4657786503689039
 30
0.0
 40
5.0196651035537361
 50
180.4806793917861967
 51
183.667595104730907
  0
ARC
  5
4E6C
  8
0
 10
777.3536188700146567
 20
108.8266033222438978
 30
0.0
 40
0.0300038671593786
 50
180.0041798122217926
 51
268.8665828220912886
  0
ARC
  5
4E6D
  8
0
 10
777.8721206951671547
 20
140.4042650904841025
 30
0.0
 40
31.6119220511854593
 50
269.0591110633890253
 51
270.061218823964623
  0
LINE
  5
4E6E
  8
0
 10
777.9058970804352384
 20
108.7923610838282968
 30
0.0
 11
780.4315994324352914
 21
108.7923610838282968
 31
0.0
  0
LINE
  5
4E6F
  8
0
 10
780.4315994324352914
 20
108.7923610838282968
 30
0.0
 11
788.1821744701126136
 21
108.7811851606287945
 31
0.0
  0
ARC
  5
4E70
  8
0
 10
788.1812098043352535
 20
108.8111636118282064
 30
0.0
 40
0.0299939679999937
 50
271.8430642684919007
 51
0.0023560787105407
  0
LINE
  5
4E71
  8
0
 10
788.2112061038352522
 20
108.8111700886283018
 30
0.0
 11
788.211202299135266
 21
120.7323457807282949
 31
0.0
  0
ARC
  5
4E72
  8
0
 10
788.1812202306844028
 20
120.7323457711594017
 30
0.0
 40
0.0299820684508161
 50
0.0000182862210367
 51
90.024681826475927
  0
LINE
  5
4E73
  8
0
 10
788.1812073150352944
 20
120.7623278368283053
 30
0.0
 11
777.9058970804352384
 21
120.7733746147282972
 31
0.0
  0
ARC
  5
4E74
  8
0
 10
777.7610891413115723
 20
-13.9216932501189294
 30
0.0
 40
134.6951457048658085
 50
89.9384024917414564
 51
90.1735798749333952
  0
ARC
  5
4E75
  8
0
 10
777.3554000792149736
 20
120.7387576677080006
 30
0.0
 40
0.034159305720309
 50
93.9863093055693071
 51
158.512168332301286
  0
ARC
  5
4E76
  8
0
 10
777.3546481073500445
 20
120.930010881003895
 30
0.0
 40
0.0316040737866854
 50
190.9075828730136095
 51
267.0568181233809923
  0
LINE
  5
4E77
  8
0
 10
777.3530253763850624
 20
120.8984484947801974
 30
0.0
 11
777.9058970804352384
 21
120.894204253228196
 31
0.0
  0
LINE
  5
4E78
  8
0
 10
777.9058970804352384
 20
120.894204253228196
 30
0.0
 11
788.1819824189725523
 21
120.883168435232804
 31
0.0
  0
ARC
  5
4E79
  8
0
 10
788.181207831335314
 20
120.9131477276282993
 30
0.0
 40
0.0299892974000001
 50
271.4800459629670968
 51
0.0016072025996795
  0
LINE
  5
4E7A
  8
0
 10
788.2112020609353067
 20
120.9131582767282964
 30
0.0
 11
788.2112022572352998
 21
132.9370812770283123
 31
0.0
  0
LINE
  5
4E7B
  8
0
 10
788.2112022572352998
 20
132.9370812770283123
 30
0.0
 11
788.2214220357352588
 21
134.1206752300282119
 31
0.0
  0
ARC
  5
4E7C
  8
0
 10
793.3504395835666401
 20
134.0763885697859052
 30
0.0
 40
5.1292087415348124
 50
176.3883044275438863
 51
179.5052901184133987
  0
ARC
  5
4E7D
  8
0
 10
788.3619989691178489
 20
108.6303375291712001
 30
0.0
 40
0.0299953275374379
 50
90.0237655655247835
 51
179.9651303580087074
  0
LINE
  5
4E7E
  8
0
 10
788.3320036471352523
 20
108.6303557840282963
 30
0.0
 11
788.321879968635244
 21
107.4236669750282971
 31
0.0
  0
ARC
  5
4E7F
  8
0
 10
783.302391512762938
 20
107.4657786503689039
 30
0.0
 40
5.0196651035537361
 50
356.332404895269292
 51
359.5193206082137181
  0
ARC
  5
4E80
  8
0
 10
788.36202514282013
 20
108.8111751045776998
 30
0.0
 40
0.0300223618123969
 50
180.0195793356731997
 51
268.1033214487915188
  0
LINE
  5
4E81
  8
0
 10
788.332000451235217
 20
108.8111700886283018
 30
0.0
 11
788.3320042559353169
 21
120.7323457807282949
 31
0.0
  0
ARC
  5
4E82
  8
0
 10
788.3619913019839487
 20
120.732343708741297
 30
0.0
 40
0.0299870461204316
 50
90.0027058134334936
 51
179.9960410868908127
  0
ARC
  5
4E83
  8
0
 10
788.3619987237351552
 20
120.9131477276282993
 30
0.0
 40
0.0299892974000001
 50
179.9983927974002995
 51
269.1819812308480095
  0
LINE
  5
4E84
  8
0
 10
788.3320044941352762
 20
120.9131582767282964
 30
0.0
 11
788.3320042978351694
 21
132.9370812770283123
 31
0.0
  0
LINE
  5
4E85
  8
0
 10
788.3320042978351694
 20
132.9370812770283123
 30
0.0
 11
788.3217845193350968
 21
134.1206752300282119
 31
0.0
  0
ARC
  5
4E86
  8
0
 10
783.1927669715039428
 20
134.0763885697859052
 30
0.0
 40
5.1292087415348124
 50
0.4947098815865475
 51
3.6116955724560662
  0
LINE
  5
4E87
  8
0
 10
788.2314304320351539
 20
107.1446811913283028
 30
0.0
 11
788.3117761230352016
 21
107.1446811913283028
 31
0.0
  0
LINE
  5
4E88
  8
0
 10
788.2314180125351868
 20
134.399499184828187
 30
0.0
 11
788.3117885425351687
 21
134.399499184828187
 31
0.0
  0
LINE
  5
4E89
  8
0
 10
788.2112549510277404
 20
132.9431839586171975
 30
0.0
 11
782.5215992748352392
 21
132.943180738628314
 31
0.0
  0
ARC
  5
4E8A
  8
0
 10
782.5215993427439116
 20
132.8231875973926037
 30
0.0
 40
0.119993141235598
 50
90.0000324258243865
 51
180.0136935499332083
  0
LINE
  5
4E8B
  8
0
 10
782.4016062049352058
 20
132.8231589193281934
 30
0.0
 11
782.4016039835736365
 21
120.8893761692341968
 31
0.0
  0
LINE
  5
4E8C
  8
0
 10
782.4016039610812641
 20
120.7685413713245026
 30
0.0
 11
782.4016017312990243
 21
108.7895204437096055
 31
0.0
  0
LINE
  5
4E8D
  8
0
 10
788.2112022563544542
 20
132.883137637116107
 30
0.0
 11
782.5215993775351535
 21
132.8831340694283085
 31
0.0
  0
ARC
  5
4E8E
  8
0
 10
782.5215994151632231
 20
132.8231264932371118
 30
0.0
 40
0.0600075761911392
 50
90.0000359275424273
 51
179.9690354525390887
  0
LINE
  5
4E8F
  8
0
 10
782.4615918477352352
 20
132.8231589233282932
 30
0.0
 11
782.4615918477352352
 21
120.8893117463406952
 31
0.0
  0
LINE
  5
4E90
  8
0
 10
782.4615918477352352
 20
120.7684768795625985
 30
0.0
 11
782.4615918477352352
 21
108.7894339411042068
 31
0.0
  0
LINE
  5
4E91
  8
0
 10
788.361570577457087
 20
120.8831614866281967
 30
0.0
 11
802.9058117980350744
 21
120.8831614866281967
 31
0.0
  0
LINE
  5
4E92
  8
0
 10
788.3619898858352144
 20
120.762330754828298
 30
0.0
 11
802.9058117980350744
 21
120.762330754828298
 31
0.0
  0
LINE
  5
4E93
  8
0
 10
795.1924415818352827
 20
132.9764690915282017
 30
0.0
 11
795.1924415818352827
 21
120.8831614866281967
 31
0.0
  0
LINE
  5
4E94
  8
0
 10
795.1924415818352827
 20
120.762330754828298
 30
0.0
 11
795.1924415818352827
 21
114.5894641190844965
 31
0.0
  0
LINE
  5
4E95
  8
0
 10
795.1924415818352827
 20
114.5294657641690037
 30
0.0
 11
795.1924415818352827
 21
108.7811691909282956
 31
0.0
  0
LINE
  5
4E96
  8
0
 10
795.1924415818352827
 20
108.6603328541282991
 30
0.0
 11
795.1924415818352827
 21
82.3164690206283041
 31
0.0
  0
LINE
  5
4E97
  8
0
 10
795.2524412637352498
 20
132.9764690128282894
 30
0.0
 11
795.2524412637352498
 21
120.8831614866281967
 31
0.0
  0
LINE
  5
4E98
  8
0
 10
795.2524412637352498
 20
120.762330754828298
 30
0.0
 11
795.2524412637352498
 21
114.5894640200340007
 31
0.0
  0
LINE
  5
4E99
  8
0
 10
795.2524412637352498
 20
114.5294656636231991
 30
0.0
 11
795.2524412637352498
 21
108.7811691909282956
 31
0.0
  0
LINE
  5
4E9A
  8
0
 10
795.2524412637352498
 20
108.6603328541282991
 30
0.0
 11
795.2524412637352498
 21
82.3164690206283041
 31
0.0
  0
LINE
  5
4E9B
  8
0
 10
795.3274418669351462
 20
132.9764690073282054
 30
0.0
 11
795.3274418669351462
 21
120.8831614866281967
 31
0.0
  0
LINE
  5
4E9C
  8
0
 10
795.3274418669351462
 20
120.762330754828298
 30
0.0
 11
795.3274418669351462
 21
114.5894638962190015
 31
0.0
  0
LINE
  5
4E9D
  8
0
 10
795.3274418669351462
 20
114.5294655379392026
 30
0.0
 11
795.3274418669351462
 21
108.7811691909282956
 31
0.0
  0
LINE
  5
4E9E
  8
0
 10
795.3274418669351462
 20
108.6603328541282991
 30
0.0
 11
795.3274418669351462
 21
82.3164690206283041
 31
0.0
  0
LINE
  5
4E9F
  8
0
 10
795.3874414706351672
 20
132.9764690784282095
 30
0.0
 11
795.3874414706351672
 21
120.8831614866281967
 31
0.0
  0
LINE
  5
4EA0
  8
0
 10
795.3874414706351672
 20
120.762330754828298
 30
0.0
 11
795.3874414706351672
 21
114.5894637971684062
 31
0.0
  0
LINE
  5
4EA1
  8
0
 10
795.3874414706351672
 20
114.529465437393398
 30
0.0
 11
795.3874414706351672
 21
108.7811691909282956
 31
0.0
  0
LINE
  5
4EA2
  8
0
 10
795.3874414706351672
 20
108.6603328541282991
 30
0.0
 11
795.3874414706351672
 21
82.3164690206283041
 31
0.0
  0
ARC
  5
4EA3
  8
0
 10
795.2899415260673095
 20
132.9739691295986859
 30
0.0
 40
0.0975319892901957
 50
1.468771498530139
 51
178.5312208032594015
  0
ARC
  5
4EA4
  8
0
 10
795.2899415652591415
 20
132.9754319997956884
 30
0.0
 40
0.0375146372822293
 50
1.584014366320613
 51
178.4159772303613067
  0
LINE
  5
4EA5
  8
0
 10
788.3320022954088699
 20
114.5894754446621988
 30
0.0
 11
795.1924415818352827
 21
114.5894641190844965
 31
0.0
  0
LINE
  5
4EA6
  8
0
 10
795.2524412637352498
 20
114.5894640200340007
 30
0.0
 11
795.3274418669351462
 21
114.5894638962190015
 31
0.0
  0
LINE
  5
4EA7
  8
0
 10
795.3874414706351672
 20
114.5894637971684062
 30
0.0
 11
800.2720311293352324
 21
114.589455733428295
 31
0.0
  0
ARC
  5
4EA8
  8
0
 10
800.2720309312087466
 20
114.4694410369260993
 30
0.0
 40
0.1200146965023193
 50
359.9930786113313275
 51
89.9999054130843348
  0
LINE
  5
4EA9
  8
0
 10
800.3920456268352837
 20
114.4694265390282055
 30
0.0
 11
800.3920456268352837
 21
108.7811691909282956
 31
0.0
  0
LINE
  5
4EAA
  8
0
 10
788.3320022762602548
 20
114.5294772607134064
 30
0.0
 11
795.1924415818352827
 21
114.5294657641690037
 31
0.0
  0
LINE
  5
4EAB
  8
0
 10
795.2524412637352498
 20
114.5294656636231991
 30
0.0
 11
795.3274418669351462
 21
114.5294655379392026
 31
0.0
  0
LINE
  5
4EAC
  8
0
 10
795.3874414706351672
 20
114.529465437393398
 30
0.0
 11
800.2719104726352271
 21
114.5294572521282959
 31
0.0
  0
ARC
  5
4EAD
  8
0
 10
800.2719103720125986
 20
114.4694117887995048
 30
0.0
 40
0.0600454633289286
 50
0.1287102061600091
 51
89.9999039852353349
  0
LINE
  5
4EAE
  8
0
 10
800.33195568383519
 20
114.4695466758281981
 30
0.0
 11
800.33195568383519
 21
108.7811691909282956
 31
0.0
  0
LINE
  5
4EAF
  8
0
 10
788.3619865274351923
 20
108.6603328541282991
 30
0.0
 11
802.9058117980350744
 21
108.6603328541282991
 31
0.0
  0
LINE
  5
4EB0
  8
0
 10
788.3610314855061461
 20
108.7811691909282956
 30
0.0
 11
802.9058117980350744
 21
108.7811691909282956
 31
0.0
  0
ARC
  5
4EB1
  8
0
 10
806.1270994867279569
 20
134.8324064215364899
 30
0.0
 40
2.1443754703084581
 50
183.0324661622350106
 51
217.8783777314637859
  0
ARC
  5
4EB2
  8
0
 10
802.8824127533216597
 20
132.2540118103327984
 30
0.0
 40
2.0002705382235471
 50
0.0006013236987601
 51
39.1093357519507308
  0
LINE
  5
4EB3
  8
0
 10
804.8826832914352281
 20
132.2540328033288972
 30
0.0
 11
804.8826832914352281
 21
128.9649866394289859
 31
0.0
  0
ARC
  5
4EB4
  8
0
 10
802.8823483334998627
 20
128.9649866394289859
 30
0.0
 40
2.0003349579352072
 50
320.6593373180792241
 51
0.0
  0
ARC
  5
4EB5
  8
0
 10
805.9877939957824537
 20
126.4405426113928002
 30
0.0
 40
2.0017737879112918
 50
141.1245678033183992
 51
178.8759506586370094
  0
ARC
  5
4EB6
  8
0
 10
808.8993373915227494
 20
131.9727690356905896
 30
0.0
 40
0.6752099664656991
 50
275.6002109614353799
 51
338.4739102921737981
  0
ARC
  5
4EB7
  8
0
 10
807.7086316476467118
 20
151.3927600801430913
 30
0.0
 40
20.13123510575425
 50
269.361887159763512
 51
273.5787446654807127
  0
ARC
  5
4EB8
  8
0
 10
805.5007129709294986
 20
209.5618839524481984
 30
0.0
 40
78.3242353384207917
 50
269.5478939620205097
 51
271.4512856952720199
  0
ARC
  5
4EB9
  8
0
 10
808.8980934108489009
 20
129.3885076782306953
 30
0.0
 40
0.6738748062327659
 50
20.9424812732790784
 51
86.0594514652805032
  0
ARC
  5
4EBA
  8
0
 10
808.8025460420612944
 20
115.0334222102215023
 30
0.0
 40
15.0280367061931006
 50
89.4591492345405186
 51
94.8870255148546846
  0
ARC
  5
4EBB
  8
0
 10
806.4643816999147248
 20
151.3372165414118911
 30
0.0
 40
21.3566083083510208
 50
268.7902893296572984
 51
272.8393265209822971
  0
ARC
  5
4EBC
  8
0
 10
805.850091067971789
 20
-94.2868666796406814
 30
0.0
 40
224.2722944135686873
 50
89.9582522490004663
 51
90.2471484705639426
  0
ARC
  5
4EBD
  8
0
 10
815.5762452584529001
 20
129.9708306542997889
 30
0.0
 40
6.6324523696975417
 50
179.2228496067621109
 51
190.959533110488195
  0
ARC
  5
4EBE
  8
0
 10
808.87034314140476
 20
128.6530348969004081
 30
0.0
 40
0.2025594492394806
 50
266.516991536313185
 51
16.3032746526913215
  0
ARC
  5
4EBF
  8
0
 10
809.1403222093763361
 20
131.4902360725693882
 30
0.0
 40
3.0524670297040251
 50
242.9514502096108117
 51
264.6938377069677131
  0
ARC
  5
4EC0
  8
0
 10
815.7764801541416091
 20
144.554611250170808
 30
0.0
 40
17.7056690347532886
 50
239.2864684010527014
 51
243.0506619699536941
  0
ARC
  5
4EC1
  8
0
 10
803.990552775971878
 20
124.4193964066542009
 30
0.0
 40
5.626860902381039
 50
60.8267123130884784
 51
80.8773423427467719
  0
ARC
  5
4EC2
  8
0
 10
808.1274904075620498
 20
133.4411792101062133
 30
0.0
 40
2.0256376667716198
 50
325.6944002793571826
 51
358.5074550730936949
  0
ARC
  5
4EC3
  8
0
 10
809.8371307533860772
 20
132.2770937979325936
 30
0.0
 40
0.0427314754449347
 50
148.3502547594563055
 51
179.3461306772211117
  0
LINE
  5
4EC4
  8
0
 10
809.7944020605351625
 20
132.2775814463188055
 30
0.0
 11
809.7944020605351625
 21
129.0983883804289007
 31
0.0
  0
ARC
  5
4EC5
  8
0
 10
809.8378343925124909
 20
129.0983883804289007
 30
0.0
 40
0.0434323319772361
 50
180.0
 51
211.5333189228209108
  0
ARC
  5
4EC6
  8
0
 10
808.1994608897665557
 20
127.9588041254433932
 30
0.0
 40
1.952366167278335
 50
10.9820746596721808
 51
34.8939582727813615
  0
ARC
  5
4EC7
  8
0
 10
808.1187664725194963
 20
127.9475746424990064
 30
0.0
 40
2.0337267008189932
 50
0.4111116167044116
 51
10.8595622496311606
  0
ARC
  5
4EC8
  8
0
 10
612.2255003374998523
 20
140.2257415110692875
 30
0.0
 40
197.9270960822726977
 50
356.755711298311212
 51
357.7036792861874801
  0
ARC
  5
4EC9
  8
0
 10
612.3226236503667224
 20
140.3411711902232071
 30
0.0
 40
197.8199073939682933
 50
356.727251496195322
 51
357.7161980633002258
  0
ARC
  5
4ECA
  8
0
 10
613.829539944973817
 20
124.6529059012684968
 30
0.0
 40
196.3129282999692862
 50
1.086056374523231
 51
2.2310604368343601
  0
ARC
  5
4ECB
  8
0
 10
808.1369185006178668
 20
118.8711433644309068
 30
0.0
 40
2.015772708272352
 50
334.4807736588725788
 51
359.0969165392199898
  0
ARC
  5
4ECC
  8
0
 10
808.1125046104825742
 20
118.8827982505075056
 30
0.0
 40
2.0428258855534152
 50
325.7336133385782091
 51
334.4807736588725788
  0
ARC
  5
4ECD
  8
0
 10
809.8370824965417114
 20
117.7101939863535023
 30
0.0
 40
0.0426833767196471
 50
148.3315548705465119
 51
180.6725693449427865
  0
LINE
  5
4ECE
  8
0
 10
809.7944020605351625
 20
117.709692956929004
 30
0.0
 11
809.7944020605351625
 21
114.5611742931289996
 31
0.0
  0
ARC
  5
4ECF
  8
0
 10
809.8378343911607544
 20
114.5611742931289996
 30
0.0
 40
0.0434323306256275
 50
180.0
 51
211.5333229576067993
  0
ARC
  5
4ED0
  8
0
 10
808.1944621144334633
 20
113.4189400727909032
 30
0.0
 40
1.9579822816190711
 50
27.3975838227543811
 51
34.8738821882206196
  0
ARC
  5
4ED1
  8
0
 10
808.200251340423506
 20
113.4218712191162979
 30
0.0
 40
1.9514936031777299
 50
5.6765111352369351
 51
27.3993926936282897
  0
LINE
  5
4ED2
  8
0
 10
809.4949284200350803
 20
114.6715850114289026
 30
0.0
 11
809.5109028110351801
 21
114.609354324828999
 31
0.0
  0
LINE
  5
4ED3
  8
0
 10
809.5109028110351801
 20
114.609354324828999
 30
0.0
 11
809.5274407784351069
 21
114.6096408012290055
 31
0.0
  0
ARC
  5
4ED4
  8
0
 10
809.5124266493745608
 20
114.635632438342796
 30
0.0
 40
0.0300164833267842
 50
300.0129772877946834
 51
359.2889279735155128
  0
LINE
  5
4ED5
  8
0
 10
809.5424408211351874
 20
114.6460902120288949
 30
0.0
 11
809.5424408146496944
 21
110.6145260986876053
 31
0.0
  0
LINE
  5
4ED6
  8
0
 10
809.5424408106460987
 20
108.1257666244723055
 30
0.0
 11
809.5424408068406592
 21
105.760255599623207
 31
0.0
  0
ARC
  5
4ED7
  8
0
 10
810.033805258794132
 20
110.7409924696877965
 30
0.0
 40
0.5073783203521325
 50
183.6424166660713126
 51
234.9022764899038123
  0
ARC
  5
4ED8
  8
0
 10
809.5780032100669814
 20
110.0459943076129008
 30
0.0
 40
0.3244228054394812
 50
359.969266879523218
 51
59.6195628887388125
  0
LINE
  5
4ED9
  8
0
 10
809.9024259688352458
 20
110.0458202891289972
 30
0.0
 11
809.9024259688352458
 21
108.6956146462290036
 31
0.0
  0
ARC
  5
4EDA
  8
0
 10
809.5774085785581065
 20
108.6956146462290036
 30
0.0
 40
0.3250173902770967
 50
303.0605177334539917
 51
0.0
  0
ARC
  5
4EDB
  8
0
 10
810.0275662713498832
 20
108.0040328874128051
 30
0.0
 40
0.5001657878760958
 50
123.0605177334540059
 51
179.1787852732556132
  0
ARC
  5
4EDC
  8
0
 10
809.907268820746026
 20
110.8040158625151008
 30
0.0
 40
0.399128542404937
 50
116.3196995652731971
 51
156.0727850106445942
  0
ARC
  5
4EDD
  8
0
 10
809.3156055386294838
 20
111.9901177213802015
 30
0.0
 40
0.9263568528341029
 50
296.5939967237050041
 51
314.4213338931550084
  0
ARC
  5
4EDE
  8
0
 10
809.5330410685329525
 20
111.7788085042653989
 30
0.0
 40
0.6232916004010089
 50
313.741667432729173
 51
353.5938639928713769
  0
ARC
  5
4EDF
  8
0
 10
809.4489237479297117
 20
111.8762261672850968
 30
0.0
 40
0.7124126327178698
 50
293.7437244766636013
 51
350.9361773415585048
  0
ARC
  5
4EE0
  8
0
 10
809.8822818431722226
 20
110.8910522802826932
 30
0.0
 40
0.3638618798223053
 50
113.7437244766636013
 51
159.0645512177621015
  0
LINE
  5
4EE1
  8
0
 10
809.8681057221913306
 20
117.8382876783953037
 30
0.0
 11
809.9525900542364525
 21
116.0972261313639962
 31
0.0
  0
LINE
  5
4EE2
  8
0
 10
809.9525900542364525
 20
116.0972261313639962
 30
0.0
 11
810.0362958131763662
 21
118.1960837848719024
 31
0.0
  0
ARC
  5
4EE3
  8
0
 10
810.6330293445090547
 20
115.920315304991604
 30
0.0
 40
0.6723219116636538
 50
178.1915509908839113
 51
181.80958098316259
  0
ARC
  5
4EE4
  8
0
 10
487.8469625395587741
 20
102.2368569895840977
 30
0.0
 40
322.4036865818508204
 50
2.107556623434018
 51
2.4287019486091168
  0
LINE
  5
4EE5
  8
0
 10
810.0163128293932004
 20
114.1361876416661971
 30
0.0
 11
809.9522666214654691
 21
115.7434264227398018
 31
0.0
  0
LINE
  5
4EE6
  8
0
 10
809.9522666214654691
 20
115.7434264227398018
 30
0.0
 11
809.8876549546904471
 21
114.4021962046493002
 31
0.0
  0
ARC
  5
4EE7
  8
0
 10
809.5124279821758364
 20
114.6458958938793984
 30
0.0
 40
0.0300134680091733
 50
0.3709563865151994
 51
61.0062917933862607
  0
LINE
  5
4EE8
  8
0
 10
809.5269759174967703
 20
114.6721478621833938
 30
0.0
 11
809.4949284200350803
 21
114.6715850114289026
 31
0.0
  0
ARC
  5
4EE9
  8
0
 10
809.4875658223357959
 20
114.642518522584993
 30
0.0
 40
0.0299844729584849
 50
14.7970606317788107
 51
75.7858373504405023
  0
LINE
  5
4EEA
  8
0
 10
809.5165565648352413
 20
114.6501766160290003
 30
0.0
 11
809.5195653186350455
 21
114.6385397060289932
 31
0.0
  0
ARC
  5
4EEB
  8
0
 10
809.4909745323900552
 20
114.6311474827703023
 30
0.0
 40
0.0295309671838921
 50
312.4406768547215734
 51
14.4965121710195906
  0
ARC
  5
4EEC
  8
0
 10
806.1270994867279569
 20
120.284060029874297
 30
0.0
 40
2.1443754703084581
 50
183.0324661622350106
 51
217.8783777314637859
  0
ARC
  5
4EED
  8
0
 10
802.8824127533216597
 20
117.705665418670506
 30
0.0
 40
2.0002705382235471
 50
0.0006013236987601
 51
39.1093357519507308
  0
LINE
  5
4EEE
  8
0
 10
804.8826832914352281
 20
117.7056864116667043
 30
0.0
 11
804.8826832914352281
 21
114.4166402477666935
 31
0.0
  0
ARC
  5
4EEF
  8
0
 10
802.8823483334998627
 20
114.4166402477666935
 30
0.0
 40
2.0003349579352072
 50
320.6593373180792241
 51
0.0
  0
ARC
  5
4EF0
  8
0
 10
805.9877939957824537
 20
111.8921962197303941
 30
0.0
 40
2.0017737879112918
 50
141.1245678033183992
 51
178.8759506586370094
  0
ARC
  5
4EF1
  8
0
 10
808.8993373915227494
 20
117.4244226440283967
 30
0.0
 40
0.6752099664656991
 50
275.6002109614353799
 51
338.4739102921737981
  0
ARC
  5
4EF2
  8
0
 10
807.7086316476467118
 20
136.8444136884808984
 30
0.0
 40
20.13123510575425
 50
269.361887159763512
 51
273.5787446654807127
  0
ARC
  5
4EF3
  8
0
 10
805.5007129709294986
 20
195.0135375607860055
 30
0.0
 40
78.3242353384207917
 50
269.5478939620205097
 51
271.4512856952720199
  0
ARC
  5
4EF4
  8
0
 10
808.8980934108489009
 20
114.8401612865685024
 30
0.0
 40
0.6738748062327659
 50
20.9424812732790784
 51
86.0594514652805032
  0
ARC
  5
4EF5
  8
0
 10
808.8025460420612944
 20
100.4850758185592952
 30
0.0
 40
15.0280367061931006
 50
89.4591492345405186
 51
94.8870255148546846
  0
ARC
  5
4EF6
  8
0
 10
806.4643816999147248
 20
136.7888701497496129
 30
0.0
 40
21.3566083083510208
 50
268.7902893296572984
 51
272.8393265209822971
  0
ARC
  5
4EF7
  8
0
 10
805.850091067971789
 20
-108.8352130713029027
 30
0.0
 40
224.2722944135686873
 50
89.9582522490004663
 51
90.2471484705639426
  0
ARC
  5
4EF8
  8
0
 10
815.5762452584529001
 20
115.422484262637596
 30
0.0
 40
6.6324523696975417
 50
179.2228496067621109
 51
190.959533110488195
  0
ARC
  5
4EF9
  8
0
 10
808.87034314140476
 20
114.1046885052382009
 30
0.0
 40
0.2025594492394806
 50
266.516991536313185
 51
16.3032746526913215
  0
ARC
  5
4EFA
  8
0
 10
809.1403222093763361
 20
116.9418896809071953
 30
0.0
 40
3.0524670297040251
 50
242.9514502096108117
 51
264.6938377069677131
  0
ARC
  5
4EFB
  8
0
 10
815.7764801541416091
 20
130.0062648585085867
 30
0.0
 40
17.7056690347532886
 50
239.2864684010527014
 51
243.0506619699536941
  0
ARC
  5
4EFC
  8
0
 10
803.990552775971878
 20
109.8710500149919937
 30
0.0
 40
5.626860902381039
 50
60.8267123130884784
 51
80.8773423427467719
  0
ARC
  5
4EFD
  8
0
 10
806.1270994867279569
 20
97.3275586255955005
 30
0.0
 40
2.1443754703084581
 50
183.0324661622350106
 51
217.8783777314637859
  0
ARC
  5
4EFE
  8
0
 10
802.8824127533216597
 20
94.7491640143918659
 30
0.0
 40
2.0002705382235471
 50
0.0006013236987601
 51
39.1093357519507308
  0
LINE
  5
4EFF
  8
0
 10
804.8826832914352281
 20
94.7491850073880215
 30
0.0
 11
804.8826832914352281
 21
91.4601388434879965
 31
0.0
  0
ARC
  5
4F00
  8
0
 10
802.8823483334998627
 20
91.4601388434879965
 30
0.0
 40
2.0003349579352072
 50
320.6593373180792241
 51
0.0
  0
ARC
  5
4F01
  8
0
 10
805.9877939957824537
 20
88.9356948154517823
 30
0.0
 40
2.0017737879112918
 50
141.1245678033183992
 51
178.8759506586370094
  0
ARC
  5
4F02
  8
0
 10
808.8993373915227494
 20
94.4679212397497423
 30
0.0
 40
0.6752099664656991
 50
275.6002109614353799
 51
338.4739102921737981
  0
ARC
  5
4F03
  8
0
 10
807.7086316476467118
 20
113.8879122842020024
 30
0.0
 40
20.13123510575425
 50
269.361887159763512
 51
273.5787446654807127
  0
ARC
  5
4F04
  8
0
 10
805.5007129709294986
 20
172.0570361565071948
 30
0.0
 40
78.3242353384207917
 50
269.5478939620205097
 51
271.4512856952720199
  0
ARC
  5
4F05
  8
0
 10
808.8980934108489009
 20
91.8836598822898196
 30
0.0
 40
0.6738748062327659
 50
20.9424812732790784
 51
86.0594514652805032
  0
ARC
  5
4F06
  8
0
 10
808.8025460420612944
 20
77.5285744142806408
 30
0.0
 40
15.0280367061931006
 50
89.4591492345405186
 51
94.8870255148546846
  0
ARC
  5
4F07
  8
0
 10
806.4643816999147248
 20
113.8323687454709017
 30
0.0
 40
21.3566083083510208
 50
268.7902893296572984
 51
272.8393265209822971
  0
ARC
  5
4F08
  8
0
 10
805.850091067971789
 20
-131.7917144755816139
 30
0.0
 40
224.2722944135686873
 50
89.9582522490004663
 51
90.2471484705639426
  0
ARC
  5
4F09
  8
0
 10
815.5762452584529001
 20
92.4659828583589416
 30
0.0
 40
6.6324523696975417
 50
179.2228496067621109
 51
190.959533110488195
  0
ARC
  5
4F0A
  8
0
 10
808.87034314140476
 20
91.1481871009595608
 30
0.0
 40
0.2025594492394806
 50
266.516991536313185
 51
16.3032746526913215
  0
ARC
  5
4F0B
  8
0
 10
809.1403222093763361
 20
93.9853882766285267
 30
0.0
 40
3.0524670297040251
 50
242.9514502096108117
 51
264.6938377069677131
  0
ARC
  5
4F0C
  8
0
 10
815.7764801541416091
 20
107.0497634542299039
 30
0.0
 40
17.7056690347532886
 50
239.2864684010527014
 51
243.0506619699536941
  0
ARC
  5
4F0D
  8
0
 10
803.990552775971878
 20
86.9145486107132257
 30
0.0
 40
5.626860902381039
 50
60.8267123130884784
 51
80.8773423427467719
  0
ARC
  5
4F0E
  8
0
 10
809.6627516067470651
 20
106.5383624891480991
 30
0.0
 40
0.7153911464894889
 50
214.2815746097514022
 51
240.8474287400802041
  0
ARC
  5
4F0F
  8
0
 10
808.5053408801461501
 20
104.4633883957954055
 30
0.0
 40
1.6605543659615249
 50
23.6675383417812917
 51
60.8474287400802467
  0
ARC
  5
4F10
  8
0
 10
808.5354674153849146
 20
104.5036520797386999
 30
0.0
 40
1.616988698772196
 50
0.249190300999759
 51
22.7893363661118009
  0
LINE
  5
4F11
  8
0
 10
809.0716385875350625
 20
106.1354110144099963
 30
0.0
 11
809.0716385875350625
 21
106.0216838587099062
 31
0.0
  0
ARC
  5
4F12
  8
0
 10
809.6001164115627944
 20
106.3339654854577958
 30
0.0
 40
0.6138473954439611
 50
210.5791687083616921
 51
241.5511636266948869
  0
ARC
  5
4F13
  8
0
 10
808.5198121200046444
 20
104.3400485070900032
 30
0.0
 40
1.65391852699653
 50
33.8267639584493622
 51
61.5511636266949367
  0
ARC
  5
4F14
  8
0
 10
808.4481736182224267
 20
104.3529529591097997
 30
0.0
 40
1.706996814942392
 50
3.2406313266198681
 51
32.1281122466881328
  0
ARC
  5
4F15
  8
0
 10
813.5332567456446213
 20
107.9403648436389034
 30
0.0
 40
4.856683365291607
 50
203.269711724690012
 51
206.6004472747050045
  0
ARC
  5
4F16
  8
0
 10
806.1091897337820456
 20
104.2766666829569999
 30
0.0
 40
3.4223728854395699
 50
2.8085269279536131
 51
25.7910195191193914
  0
ARC
  5
4F17
  8
0
 10
809.6627516067470651
 20
97.3973063165784225
 30
0.0
 40
0.7153911464894889
 50
119.1525712599196964
 51
145.7184253902485978
  0
ARC
  5
4F18
  8
0
 10
808.5053408801461501
 20
99.4722804099312441
 30
0.0
 40
1.6605543659615249
 50
299.1525712599196822
 51
336.3324616582186763
  0
ARC
  5
4F19
  8
0
 10
808.5354674153849146
 20
99.4320167259879355
 30
0.0
 40
1.616988698772196
 50
337.2106636338882026
 51
359.7508096990001718
  0
LINE
  5
4F1A
  8
0
 10
809.0716385875350625
 20
97.8002577913166249
 30
0.0
 11
809.0716385875350625
 21
97.9139849470166865
 31
0.0
  0
ARC
  5
4F1B
  8
0
 10
809.6001164115627944
 20
97.6017033202687969
 30
0.0
 40
0.6138473954439611
 50
118.4488363733049994
 51
149.4208312916381942
  0
ARC
  5
4F1C
  8
0
 10
808.5198121200046444
 20
99.5956202986364758
 30
0.0
 40
1.65391852699653
 50
298.4488363733050278
 51
326.1732360415506946
  0
ARC
  5
4F1D
  8
0
 10
808.4481736182224267
 20
99.582715846616864
 30
0.0
 40
1.706996814942392
 50
327.8718877533119098
 51
356.7593686733800951
  0
ARC
  5
4F1E
  8
0
 10
813.5332567456446213
 20
95.9953039620875899
 30
0.0
 40
4.856683365291607
 50
153.3995527252949955
 51
156.730288275309988
  0
ARC
  5
4F1F
  8
0
 10
806.1091897337820456
 20
99.6590021227695644
 30
0.0
 40
3.4223728854395699
 50
334.208980480880598
 51
357.1914730720463922
  0
LINE
  5
4F20
  8
0
 10
809.5274518576353557
 20
99.5764939038781023
 30
0.0
 11
810.1524408211352011
 21
99.5719740056925531
 31
0.0
  0
LINE
  5
4F21
  8
0
 10
810.1524408211352011
 20
104.3759183455250934
 30
0.0
 11
809.5274518576353557
 21
104.3495733518976039
 31
0.0
  0
ARC
  5
4F22
  8
0
 10
809.4099357640716335
 20
97.9546218252125271
 30
0.0
 40
0.7637705554742885
 50
298.3552162437895277
 51
346.4478935349295057
  0
ARC
  5
4F23
  8
0
 10
809.9068463722843489
 20
96.9110493130214223
 30
0.0
 40
0.394927942943071
 50
109.8603042191898993
 51
163.8769864757927053
  0
ARC
  5
4F24
  8
0
 10
809.9039488373111908
 20
96.9717867795839226
 30
0.0
 40
0.3920231486112874
 50
111.0103025604126969
 51
163.82077138978471
  0
ARC
  5
4F25
  8
0
 10
809.4546774008382499
 20
97.9759764174990408
 30
0.0
 40
0.7089735413131967
 50
295.8134439854314905
 51
349.7976156683582758
  0
ARC
  5
4F26
  8
0
 10
808.1306043522240543
 20
95.9193813767988672
 30
0.0
 40
2.0222828181205719
 50
325.677177048945282
 51
353.9638685478954017
  0
ARC
  5
4F27
  8
0
 10
809.8378143271081626
 20
94.7564951305108281
 30
0.0
 40
0.0434132900671266
 50
148.6106886348196952
 51
180.3934321183639895
  0
LINE
  5
4F28
  8
0
 10
809.7944020605351625
 20
94.7561970274289962
 30
0.0
 11
809.7944020605351625
 21
91.6076783637290362
 31
0.0
  0
ARC
  5
4F29
  8
0
 10
809.8378343925124909
 20
91.6076783637290362
 30
0.0
 40
0.0434323319772396
 50
180.0
 51
211.5333189228209108
  0
ARC
  5
4F2A
  8
0
 10
808.1201896648440197
 20
90.4368099852757297
 30
0.0
 40
2.035376994268141
 50
3.1758064588111479
 51
34.3397267990208519
  0
ARC
  5
4F2B
  8
0
 10
803.3748533877608224
 20
88.6034827784973942
 30
0.0
 40
0.1948996613185807
 50
275.9440745226465879
 51
351.4793981576938222
  0
LINE
  5
4F2C
  8
0
 10
803.3950367439351794
 20
88.4096310049289542
 30
0.0
 11
803.169529243235047
 21
88.3978090568289758
 31
0.0
  0
ARC
  5
4F2D
  8
0
 10
803.1777627038976561
 20
88.3660431522976779
 30
0.0
 40
0.0328155841814759
 50
104.5308311072083995
 51
159.2884159317769104
  0
ARC
  5
4F2E
  8
0
 10
803.2232869189911071
 20
88.3449693903408644
 30
0.0
 40
0.0829293933845666
 50
156.7924168280250115
 51
179.8926241193751139
  0
LINE
  5
4F2F
  8
0
 10
803.1403576712350514
 20
88.3451248051289468
 30
0.0
 11
803.1403576712350514
 21
87.9981589225289582
 31
0.0
  0
ARC
  5
4F30
  8
0
 10
803.5334076780920896
 20
87.9981589225289582
 30
0.0
 40
0.393050006856896
 50
180.0
 51
202.8357695610121993
  0
LINE
  5
4F31
  8
0
 10
803.1711645191352318
 20
87.8456197417289815
 30
0.0
 11
803.5138038538351566
 21
87.0322231633289931
 31
0.0
  0
ARC
  5
4F32
  8
0
 10
802.7606054979244163
 20
86.7365466547966548
 30
0.0
 40
0.8091553380190361
 50
4.1780785791455957
 51
21.4330494827982889
  0
ARC
  5
4F33
  8
0
 10
803.3583212451223972
 20
88.2988422451621346
 30
0.0
 40
0.1952387360361391
 50
273.5337266811374093
 51
323.3537284321096763
  0
LINE
  5
4F34
  8
0
 10
803.3703549940350968
 20
88.1039747185289599
 30
0.0
 11
803.1403576712350514
 21
88.0942365123039082
 31
0.0
  0
ARC
  5
4F35
  8
0
 10
803.308486882283205
 20
88.3388617623118648
 30
0.0
 40
0.2591199817869381
 50
322.8309346281528747
 51
0.3653699658867764
  0
LINE
  5
4F36
  8
0
 10
802.9058117980350744
 20
82.5872646301418882
 30
0.0
 11
803.4969707522352564
 21
82.6170139952290157
 31
0.0
  0
ARC
  5
4F37
  8
0
 10
803.4929909540192057
 20
82.696097812460664
 30
0.0
 40
0.0791838931966611
 50
272.8809110451584274
 51
340.4512169147669169
  0
ARC
  5
4F38
  8
0
 10
809.8365595226081268
 20
126.8649368030517053
 30
0.0
 40
0.3135262476309292
 50
189.6306043656925056
 51
230.2735080330645019
  0
ARC
  5
4F39
  8
0
 10
809.9824424834155252
 20
127.0404884564950976
 30
0.0
 40
0.5417809765647413
 50
230.2735080330645019
 51
243.4807583362606067
  0
ARC
  5
4F3A
  8
0
 10
809.3646870202506989
 20
125.7878739733965006
 30
0.0
 40
0.8548907451541312
 50
39.6343892367808976
 51
63.9185642436868875
  0
ARC
  5
4F3B
  8
0
 10
809.5993475093123379
 20
125.9767455759001962
 30
0.0
 40
0.5537090902302627
 50
2.7023978579145211
 51
40.0721951442042581
  0
ARC
  5
4F3C
  8
0
 10
809.8078629428705426
 20
126.7694845272609001
 30
0.0
 40
0.2806473178148247
 50
182.3510266210041948
 51
230.1115404164629865
  0
ARC
  5
4F3D
  8
0
 10
810.08432797436069
 20
127.1235702196998005
 30
0.0
 40
0.729783942769077
 50
231.2848351281801911
 51
244.5932578310300016
  0
ARC
  5
4F3E
  8
0
 10
809.3790204438311093
 20
125.7395275885181007
 30
0.0
 40
0.8241442100171468
 50
39.1794303671288304
 51
61.5828446609115403
  0
ARC
  5
4F3F
  8
0
 10
809.4946611670467291
 20
125.8563573249207934
 30
0.0
 40
0.6609274324855977
 50
5.594165800464725
 51
37.6615788786083883
  0
ARC
  5
4F40
  8
0
 10
809.820059825299154
 20
126.0902475700509058
 30
0.0
 40
0.2935977983395801
 50
184.7061284560697914
 51
226.045355489165388
  0
ARC
  5
4F41
  8
0
 10
809.9512270932358433
 20
126.2210619667687013
 30
0.0
 40
0.4788251794280757
 50
225.6110920976061038
 51
245.7612367235840054
  0
ARC
  5
4F42
  8
0
 10
809.3851533545600887
 20
125.0500052925188044
 30
0.0
 40
0.8221527533141445
 50
36.9673803478958831
 51
63.2931364792775781
  0
ARC
  5
4F43
  8
0
 10
809.5946693002674692
 20
125.2102935178304932
 30
0.0
 40
0.5583669993107157
 50
2.6463628132635848
 51
36.7547443414634074
  0
ARC
  5
4F44
  8
0
 10
809.885670581266595
 20
126.0677551719931984
 30
0.0
 40
0.3648351801313607
 50
190.9284996798585894
 51
243.9689291898125134
  0
ARC
  5
4F45
  8
0
 10
809.3982608081088301
 20
125.0075284221434941
 30
0.0
 40
0.8022075369282262
 50
40.5135022381197203
 51
65.9208902836336961
  0
ARC
  5
4F46
  8
0
 10
809.5767889227920477
 20
125.1439112564520997
 30
0.0
 40
0.5780137181054732
 50
5.1813141522612938
 51
41.7319707348138493
  0
ARC
  5
4F48
  8
0
 10
805.0836023517470039
 20
151.6861037791894944
 30
0.0
 40
1.89540925254457
 50
175.4019071449922933
 51
180.7930253071644984
  0
LINE
  5
4F49
  8
0
 10
803.1883746486352038
 20
151.659870441829014
 30
0.0
 11
803.1883746486352038
 21
151.5280500321115937
 31
0.0
  0
ARC
  5
4F4A
  8
0
 10
803.2694232697814414
 20
152.0849309309145099
 30
0.0
 40
0.1459193853009403
 50
359.9680589303825968
 51
44.9740058549403514
  0
LINE
  5
4F4B
  8
0
 10
803.415342632435113
 20
152.0848495843289925
 30
0.0
 11
803.4153426767352357
 21
151.9164550304288923
 31
0.0
  0
ARC
  5
4F4C
  8
0
 10
802.7817603362394721
 20
151.9164548637506869
 30
0.0
 40
0.6335823404958602
 50
354.3027297696152118
 51
0.0000150729558007
  0
LINE
  5
4F4D
  8
0
 10
803.4122129705351654
 20
151.8535576611288889
 30
0.0
 11
803.3774769935353106
 21
151.8188190206288937
 31
0.0
  0
LINE
  5
4F4E
  8
0
 10
803.4246275199352567
 20
151.8187327295046885
 30
0.0
 11
803.3303259886351952
 21
151.8189053126289139
 31
0.0
  0
ARC
  5
4F4F
  8
0
 10
803.3312398248181125
 20
152.3182439265584946
 30
0.0
 40
0.49933945013156
 50
254.0823661254212027
 51
269.8951435027473735
  0
LINE
  5
4F50
  8
0
 10
803.4564749410461673
 20
152.1081042206162124
 30
0.0
 11
803.4417916217352058
 21
152.092631230428907
 31
0.0
  0
ARC
  5
4F51
  8
0
 10
803.4871275205205166
 20
152.0496090692269036
 30
0.0
 40
0.0625000005853072
 50
136.5000002296939954
 51
179.999999814806813
  0
LINE
  5
4F52
  8
0
 10
803.4246275199352567
 20
152.0496090694290103
 30
0.0
 11
803.4246275199352567
 21
151.7645120244825989
 31
0.0
  0
ARC
  5
4F53
  8
0
 10
803.4646475374353258
 20
152.0259868911288095
 30
0.0
 40
0.0624993501000818
 50
121.2983698589970061
 51
135.4263937168778966
  0
LINE
  5
4F54
  8
0
 10
803.4201261614950909
 20
152.0698504961715116
 30
0.0
 11
803.4153426376252582
 21
152.065120913915905
 31
0.0
  0
LINE
  5
4F55
  8
0
 10
803.4022336440352774
 20
151.8435775694298968
 30
0.0
 11
803.4022336440352774
 21
151.8187737129862001
 31
0.0
  0
ARC
  5
4F56
  8
0
 10
803.5864024535626413
 20
152.0054959702528947
 30
0.0
 40
0.0243194781046651
 50
91.2469238164788692
 51
177.814743952386408
  0
LINE
  5
4F57
  8
0
 10
803.5621006615143642
 20
152.0064232881736075
 30
0.0
 11
803.5676015955352796
 21
88.3405141356290073
 31
0.0
  0
LINE
  5
4F58
  8
0
 10
809.5074837829351964
 20
82.3559042674290396
 30
0.0
 11
810.142788782935213
 21
82.3764165362290157
 31
0.0
  0
LINE
  5
4F59
  8
0
 10
809.5074837829351964
 20
82.3559042674290396
 30
0.0
 11
809.2282596429351997
 21
82.3617634617290406
 31
0.0
  0
ARC
  5
4F5A
  8
0
 10
809.346915440712678
 20
84.9701526168725678
 30
0.0
 40
2.6110865904861891
 50
263.2362490890145068
 51
267.3954067548680769
  0
LINE
  5
4F5B
  8
0
 10
809.0393928135629267
 20
82.4464694844289738
 30
0.0
 11
809.0393928135629267
 21
82.3772386158289862
 31
0.0
  0
ARC
  5
4F5C
  8
0
 10
810.1423058890728726
 20
82.3866660258572239
 30
0.0
 40
0.0102608588393428
 50
272.6974353723780951
 51
351.0143401430142944
  0
ARC
  5
4F5D
  8
0
 10
777.3536248843445264
 20
81.4314479157871602
 30
0.0
 40
0.0300098850239537
 50
180.0281215459523025
 51
268.1977646364235284
  0
LINE
  5
4F5E
  8
0
 10
777.352681080835282
 20
81.4014528756290048
 30
0.0
 11
777.407209287541491
 21
81.4014754134575043
 31
0.0
  0
LINE
  5
4F5F
  8
0
 10
809.5565392362351531
 20
133.3773032169289934
 30
0.0
 11
809.5565392645919474
 21
141.8184197909035902
 31
0.0
  0
LINE
  5
4F60
  8
0
 10
809.5565392693735021
 20
143.2417150743492016
 30
0.0
 11
809.5565392707353567
 21
143.6470728806575892
 31
0.0
  0
ARC
  5
4F61
  8
0
 10
806.2352844487891161
 20
141.8119843381576004
 30
0.0
 40
3.3212610506471951
 50
0.1110194310868668
 51
28.1635573047134002
  0
ARC
  5
4F62
  8
0
 10
808.1608192220890032
 20
133.3772579360978909
 30
0.0
 40
1.3957200148806781
 50
348.2821505901036971
 51
0.0018588259018996
  0
ARC
  5
4F63
  8
0
 10
809.9068703796820046
 20
144.0339253167323932
 30
0.0
 40
0.9904669331230477
 50
212.4919739913277112
 51
221.34843139951289
  0
LINE
  5
4F64
  8
0
 10
809.0714445015504452
 20
143.501864842952898
 30
0.0
 11
809.0688270045930039
 21
143.625658308414387
 31
0.0
  0
ARC
  5
4F65
  8
0
 10
809.6121788129966035
 20
143.9767461725311932
 30
0.0
 40
0.6469110263595267
 50
212.8686047890637951
 51
241.9123053530665004
  0
ARC
  5
4F66
  8
0
 10
808.5584114830162434
 20
142.000203968383687
 30
0.0
 40
1.592987414932661
 50
36.7434433936432825
 51
61.9460187413820407
  0
ARC
  5
4F67
  8
0
 10
808.5466099813045275
 20
141.9943476171600878
 30
0.0
 40
1.6059494278399951
 50
0.6962973778062693
 51
36.6589875106377079
  0
ARC
  5
4F68
  8
0
 10
809.5687703157658461
 20
132.4818199426688921
 30
0.0
 40
0.4173024140759367
 50
356.7531133940038899
 51
2.5792502973857978
  0
LINE
  5
4F69
  8
0
 10
809.9856499191351986
 20
132.5006004238290132
 30
0.0
 11
809.9806766723820601
 21
132.6233108680571888
 31
0.0
  0
ARC
  5
4F6A
  8
0
 10
808.3932380643866509
 20
132.5840581069911934
 30
0.0
 40
1.6106320670724259
 50
357.2866550521827094
 51
3.1344266125055582
  0
ARC
  5
4F6B
  8
0
 10
810.8925913102093546
 20
132.479575899670607
 30
0.0
 40
0.8909744351585978
 50
178.1839059555744882
 51
181.8203618772438119
  0
ARC
  5
4F6C
  8
0
 10
613.4295695525679548
 20
124.7659535029208939
 30
0.0
 40
196.722674603405693
 50
1.0315860690696139
 51
2.2389308744023588
  0
ARC
  5
4F6D
  8
0
 10
612.2691012244769126
 20
130.0399557658049048
 30
0.0
 40
197.8833412518833086
 50
359.4500054278694847
 51
359.9925892607586206
  0
ARC
  5
4F6E
  8
0
 10
542.4377164678635381
 20
129.3555443308904955
 30
0.0
 40
267.7188298339605126
 50
0.3173077890717015
 51
0.8089023258439674
  0
ARC
  5
4F6F
  8
0
 10
809.8663726655463506
 20
119.9735198960245981
 30
0.0
 40
0.3399137310015774
 50
114.5688949898490989
 51
175.6195688761580129
  0
ARC
  5
4F70
  8
0
 10
809.3914430167259297
 20
121.0123458520126007
 30
0.0
 40
0.8023285980001587
 50
294.5688949898491273
 51
320.222421798569485
  0
ARC
  5
4F71
  8
0
 10
809.5124281032362887
 20
120.9116250635217966
 30
0.0
 40
0.6449053837269025
 50
320.222421798569485
 51
352.9378431577886772
  0
ARC
  5
4F72
  8
0
 10
809.8384580223278135
 20
119.9211887647044961
 30
0.0
 40
0.3136460650439166
 50
134.284324995578487
 51
172.5609656980684861
  0
ARC
  5
4F73
  8
0
 10
809.9529442926314005
 20
119.802718896796307
 30
0.0
 40
0.478393865925287
 50
116.3859997708856042
 51
134.1934094664661927
  0
ARC
  5
4F74
  8
0
 10
809.3373604230550882
 20
121.0228174147226952
 30
0.0
 40
0.8882186210831612
 50
296.9808180177020063
 51
319.2495748411046179
  0
ARC
  5
4F75
  8
0
 10
809.5619756495296997
 20
120.8310535015911995
 30
0.0
 40
0.5928837692922617
 50
319.1192717944741162
 51
354.8229493449317147
  0
ARC
  5
4F76
  8
0
 10
618.9371051181981329
 20
124.3796342767421947
 30
0.0
 40
191.2102145260643056
 50
357.4707173601469208
 51
358.1573436598422973
  0
ARC
  5
4F77
  8
0
 10
612.205872953448079
 20
124.7687339185980022
 30
0.0
 40
197.936800050583912
 50
357.0053693435899049
 51
357.4296246012032725
  0
ARC
  5
4F78
  8
0
 10
809.4008604707066752
 20
115.9163288314555018
 30
0.0
 40
0.5432130783659181
 50
357.4296246012032725
 51
1.9037610630695361
  0
ARC
  5
4F79
  8
0
 10
613.2233212416424522
 20
107.0895660864738943
 30
0.0
 40
196.919189168394098
 50
2.5743593765015231
 51
3.1205594967694812
  0
ARC
  5
4F7A
  8
0
 10
611.9226269680239056
 20
116.6933436335180971
 30
0.0
 40
198.2298482567967994
 50
359.1382541893311782
 51
359.966243640983123
  0
ARC
  5
4F7B
  8
0
 10
373.102848321406384
 20
114.875186180988095
 30
0.0
 40
437.057167637108023
 50
0.3373373203217546
 51
0.4986027466449731
  0
ARC
  5
4F7C
  8
0
 10
809.907268820746026
 20
110.889553800231397
 30
0.0
 40
0.399128542404937
 50
203.9272149893552921
 51
243.6803004347268029
  0
ARC
  5
4F7D
  8
0
 10
809.3156055386294838
 20
109.7034519413662963
 30
0.0
 40
0.9263568528341029
 50
45.5786661068449703
 51
63.4060032762950669
  0
ARC
  5
4F7E
  8
0
 10
809.5330410685329525
 20
109.9147611584811983
 30
0.0
 40
0.6232916004010089
 50
6.4061360071285387
 51
46.2583325672709265
  0
ARC
  5
4F7F
  8
0
 10
809.4489237479297117
 20
109.8173434954614009
 30
0.0
 40
0.7124126327178698
 50
9.0638226584414117
 51
66.2562755233364129
  0
ARC
  5
4F80
  8
0
 10
809.8822818431722226
 20
110.8025173824637051
 30
0.0
 40
0.3638618798223053
 50
200.9354487822378985
 51
246.2562755233363987
  0
LINE
  5
4F81
  8
0
 10
809.7938053371350406
 20
111.1967313265498944
 30
0.0
 11
809.7938053371350406
 21
110.4968383361966033
 31
0.0
  0
LINE
  5
4F82
  8
0
 10
809.9442334837092403
 20
111.3097031966545956
 30
0.0
 11
809.9867600764176814
 21
110.342115204927893
 31
0.0
  0
LINE
  5
4F83
  8
0
 10
810.0839985332115702
 20
111.4873667583790962
 30
0.0
 11
810.0499677690113458
 21
110.2630127994867024
 31
0.0
  0
LINE
  5
4F84
  8
0
 10
810.1050787618164577
 20
111.5312902289938961
 30
0.0
 11
810.1294638120197078
 21
110.0957924546209057
 31
0.0
  0
LINE
  5
4F85
  8
0
 10
809.8375681561517467
 20
94.8349910556754168
 30
0.0
 11
809.9376538008468742
 21
92.922278776451293
 31
0.0
  0
ARC
  5
4F86
  8
0
 10
617.5248123308216464
 20
101.9220513382152973
 30
0.0
 40
192.623197870753188
 50
357.3255891187816928
 51
358.0090226363117267
  0
ARC
  5
4F87
  8
0
 10
810.4478822742620423
 20
92.9103823363290076
 30
0.0
 40
0.5102303455995453
 50
177.3255891187816928
 51
182.6744108812166019
  0
ARC
  5
4F88
  8
0
 10
808.6759844108944435
 20
92.8220458523862959
 30
0.0
 40
1.2638716429543591
 50
350.6839391582159919
 51
2.9265992282765141
  0
ARC
  5
4F89
  8
0
 10
606.9213783823233825
 20
102.405040266417501
 30
0.0
 40
203.2376216409880954
 50
356.9197726494585936
 51
357.3286306819671267
  0
ARC
  5
4F8A
  8
0
 10
810.1416975585718774
 20
82.4655899127372152
 30
0.0
 40
0.0112035130202472
 50
16.4799434199948784
 51
86.1809533406757993
  0
ARC
  5
4F8B
  8
0
 10
809.5589242239667556
 20
82.5073862340797604
 30
0.0
 40
0.0314972715763923
 50
181.1236785673912948
 51
267.2885795717813266
  0
ARC
  5
4F8C
  8
0
 10
809.5603709015513232
 20
82.3247701904058431
 30
0.0
 40
0.0329592728205657
 50
97.0314583944658438
 51
177.936120580399205
  0
LINE
  5
4F8D
  8
0
 10
809.5274330095351161
 20
82.3259571733290443
 30
0.0
 11
809.5274330095351161
 21
82.3164690206289862
 31
0.0
  0
ARC
  5
4F8E
  8
0
 10
808.8598807998422444
 20
148.4047475481220033
 30
0.0
 40
3.883864803935694
 50
103.6897302947236028
 51
105.219056599473106
  0
ARC
  5
4F8F
  8
0
 10
807.8890365331518524
 20
151.9357877516542032
 30
0.0
 40
0.2220235668827346
 50
102.6731633115881976
 51
120.3059474007933005
  0
ARC
  5
4F90
  8
0
 10
807.8125280218647504
 20
152.0666851832592954
 30
0.0
 40
0.0704066486309314
 50
120.3059474007933005
 51
143.3169809454593917
  0
ARC
  5
4F91
  8
0
 10
807.8055704356186197
 20
152.0718680012390962
 30
0.0
 40
0.0617308426980924
 50
143.3169809454593917
 51
215.7363531234259142
  0
ARC
  5
4F92
  8
0
 10
808.1152000869177527
 20
152.2946575052029061
 30
0.0
 40
0.4431829157559028
 50
215.7363531234259142
 51
236.6596987665703864
  0
ARC
  5
4F93
  8
0
 10
806.094362706875927
 20
149.313706573490208
 30
0.0
 40
3.1582336719234081
 50
43.2320520169408198
 51
55.7546113574381366
  0
ARC
  5
4F94
  8
0
 10
806.4262669846301606
 20
149.6033279906820042
 30
0.0
 40
2.7180844545899401
 50
23.8486118133389411
 51
43.5761857303598035
  0
ARC
  5
4F95
  8
0
 10
806.7762084840771877
 20
149.770523755678596
 30
0.0
 40
2.3304492299502382
 50
0.5582852611592805
 51
23.5675655785457892
  0
ARC
  5
4F96
  8
0
 10
809.6182495434078419
 20
143.8553384618568032
 30
0.0
 40
0.6511062532809535
 50
212.8800196351481873
 51
241.5145723083250004
  0
ARC
  5
4F97
  8
0
 10
808.5168891963402302
 20
141.8256541677320968
 30
0.0
 40
1.658138850191051
 50
33.8631132679384592
 51
61.514572308325107
  0
ARC
  5
4F98
  8
0
 10
808.5467271964541851
 20
141.8734408613165954
 30
0.0
 40
1.6069003748862849
 50
2.2021634183688081
 51
33.0410467275333133
  0
ARC
  5
4F99
  8
0
 10
806.9083815271718549
 20
77.7046643058576052
 30
0.0
 40
0.7509627869074182
 50
99.3967201862771219
 51
116.3075311759906043
  0
ARC
  5
4F9A
  8
0
 10
807.1956525924325661
 20
77.7103461702665896
 30
0.0
 40
0.99538648485331
 50
141.7695412979429079
 51
154.0840069052341903
  0
ARC
  5
4F9B
  8
0
 10
807.2001895366333883
 20
77.706518326471425
 30
0.0
 40
1.0013191710870679
 50
103.9051149190141956
 51
141.7581373360573878
  0
ARC
  5
4F9C
  8
0
 10
806.5046853659730459
 20
80.5174137414136339
 30
0.0
 40
1.894342957044201
 50
283.8937109571284054
 51
299.133887949080588
  0
LINE
  5
4F9D
  8
0
 10
807.4269502002352965
 20
78.8627346745290225
 30
0.0
 11
808.7772270611955037
 21
79.6058281406650963
 31
0.0
  0
ARC
  5
4F9E
  8
0
 10
810.1591205058725791
 20
77.0947863569679299
 30
0.0
 40
2.866175209563147
 50
111.5772146672382945
 51
118.8251648550691044
  0
ARC
  5
4F9F
  8
0
 10
808.475972940460224
 20
81.420603302950326
 30
0.0
 40
1.7756713399025681
 50
271.2060484151850233
 51
290.7497762547076832
  0
ARC
  5
4FA0
  8
0
 10
808.4235407789180954
 20
81.4658498147911985
 30
0.0
 40
1.893350103517583
 50
280.7663557518274047
 51
290.9326079274819108
  0
ARC
  5
4FA1
  8
0
 10
810.4044088740414509
 20
76.5507946591278738
 30
0.0
 40
3.406322702086193
 50
112.5161749599528065
 51
118.7156863307234005
  0
LINE
  5
4FA2
  8
0
 10
808.7677947277352359
 20
79.5381895927290117
 30
0.0
 11
807.4275948177350983
 21
78.7959624092290341
 31
0.0
  0
ARC
  5
4FA3
  8
0
 10
804.4641884285731521
 20
77.5939696290028422
 30
0.0
 40
1.0008176488995379
 50
33.3772741818619281
 51
90.5514120669910341
  0
LINE
  5
4FA4
  8
0
 10
804.8269045676948963
 20
78.5267466488577242
 30
0.0
 11
802.8191597731351976
 21
78.5059328407290309
 31
0.0
  0
LINE
  5
4FA5
  8
0
 10
802.8191597731351976
 20
78.5059328407290309
 30
0.0
 11
802.7771999238351555
 21
78.5054396394290137
 31
0.0
  0
LINE
  5
4FA6
  8
0
 10
802.7771999238351555
 20
78.5054396394290137
 30
0.0
 11
799.8190509273350699
 21
78.4827976481290221
 31
0.0
  0
LINE
  5
4FA7
  8
0
 10
799.8190509273350699
 20
78.4827976481290221
 30
0.0
 11
799.7771045341352192
 21
78.4825089571290277
 31
0.0
  0
LINE
  5
4FA8
  8
0
 10
799.7771045341352192
 20
78.4825089571290277
 30
0.0
 11
797.7150613044511829
 21
78.4729186195661157
 31
0.0
  0
ARC
  5
4FA9
  8
0
 10
798.1014108737903143
 20
77.5579407321727956
 30
0.0
 40
0.9932021567370597
 50
89.311993223141684
 51
143.7973216158661103
  0
LINE
  5
4FAA
  8
0
 10
798.1133369423209842
 20
78.5510712840322043
 30
0.0
 11
799.776177084635151
 21
78.5593669384290223
 31
0.0
  0
LINE
  5
4FAB
  8
0
 10
799.776177084635151
 20
78.5593669384290223
 30
0.0
 11
799.8190274462350544
 21
78.5595595178290154
 31
0.0
  0
LINE
  5
4FAC
  8
0
 10
799.8190274462350544
 20
78.5595595178290154
 30
0.0
 11
802.7771691501352507
 21
78.5794531411290222
 31
0.0
  0
LINE
  5
4FAD
  8
0
 10
802.7771691501352507
 20
78.5794531411290222
 30
0.0
 11
802.8191254174352025
 21
78.5798002091290329
 31
0.0
  0
LINE
  5
4FAE
  8
0
 10
802.8191254174352025
 20
78.5798002091290329
 30
0.0
 11
804.4545567521350904
 21
78.5947409301290207
 31
0.0
  0
LINE
  5
4FAF
  8
0
 10
802.7424369364957784
 20
78.5051735597765656
 30
0.0
 11
802.7471376193351489
 21
78.4604495497289918
 31
0.0
  0
LINE
  5
4FB0
  8
0
 10
802.7471376193351489
 20
78.4604495497289918
 30
0.0
 11
802.7473593234204827
 21
78.5052112362567129
 31
0.0
  0
ARC
  5
4FB1
  8
0
 10
802.7772071770737057
 20
78.4654272383909301
 30
0.0
 40
0.030478774368567
 50
189.3994541102645996
 51
268.7116396354750805
  0
LINE
  5
4FB2
  8
0
 10
802.7765218851352529
 20
78.4349561691290091
 30
0.0
 11
802.8183854439350853
 21
78.4349561691290091
 31
0.0
  0
ARC
  5
4FB3
  8
0
 10
802.8188678225892545
 20
78.4649632731582187
 30
0.0
 40
0.0300109810133689
 50
269.0790220684610858
 51
0.2690043197867162
  0
LINE
  5
4FB4
  8
0
 10
802.8488784728350538
 20
78.4651041745289604
 30
0.0
 11
802.8488767731003009
 21
78.50624090973119
 31
0.0
  0
LINE
  5
4FB5
  8
0
 10
802.7422749321602851
 20
78.579218476093601
 30
0.0
 11
802.7471360714351931
 21
78.5329678250290044
 31
0.0
  0
LINE
  5
4FB6
  8
0
 10
802.7471360714351931
 20
78.5329678250290044
 30
0.0
 11
802.7473653198996999
 21
78.5792527091582258
 31
0.0
  0
ARC
  5
4FB7
  8
0
 10
802.7772056291737499
 20
78.5379455136909428
 30
0.0
 40
0.030478774368567
 50
189.3994541102645996
 51
268.7116396354750805
  0
LINE
  5
4FB8
  8
0
 10
802.7765203372351834
 20
78.5074744444290218
 30
0.0
 11
802.8183838960352432
 21
78.5074744444290218
 31
0.0
  0
ARC
  5
4FB9
  8
0
 10
802.818866274689185
 20
78.5374815484582314
 30
0.0
 40
0.0300109810133689
 50
269.0790220684610858
 51
0.2690043197867162
  0
LINE
  5
4FBA
  8
0
 10
802.848876924935098
 20
78.537622449828973
 30
0.0
 11
802.8488751709561484
 21
78.5800719923325062
 31
0.0
  0
ARC
  5
4FBB
  8
0
 10
806.4624627208039556
 20
80.5451585780639334
 30
0.0
 40
1.9977905800142399
 50
276.0873619669084746
 51
298.8880469701130096
  0
LINE
  5
4FBC
  8
0
 10
799.7420267306119968
 20
78.4823458141008388
 30
0.0
 11
799.7471346582351543
 21
78.4337471287290526
 31
0.0
  0
LINE
  5
4FBD
  8
0
 10
799.7471346582351543
 20
78.4337471287290526
 30
0.0
 11
799.7473754901418488
 21
78.4823706905964684
 31
0.0
  0
ARC
  5
4FBE
  8
0
 10
799.7772042159738248
 20
78.4387248173911047
 30
0.0
 40
0.030478774368567
 50
189.3994541102645996
 51
268.7116396354750805
  0
LINE
  5
4FBF
  8
0
 10
799.7765189240351447
 20
78.40825374812907
 30
0.0
 11
799.8183824828352044
 21
78.40825374812907
 31
0.0
  0
ARC
  5
4FC0
  8
0
 10
799.8188648614891463
 20
78.4382608521582796
 30
0.0
 40
0.0300109810133689
 50
269.0790220684610858
 51
0.2690043197867162
  0
LINE
  5
4FC1
  8
0
 10
799.8488755117351729
 20
78.4384017535290212
 30
0.0
 11
799.8488736679028079
 21
78.4830259146001481
 31
0.0
  0
LINE
  5
4FC2
  8
0
 10
799.7419572334049462
 20
78.559196220840434
 30
0.0
 11
799.7471331425351764
 21
78.5099507346290437
 31
0.0
  0
LINE
  5
4FC3
  8
0
 10
799.7471331425351764
 20
78.5099507346290437
 30
0.0
 11
799.7473771887508747
 21
78.5592232601662346
 31
0.0
  0
ARC
  5
4FC4
  8
0
 10
799.7772027002738469
 20
78.5149284232910958
 30
0.0
 40
0.030478774368567
 50
189.3994541102645996
 51
268.7116396354750805
  0
LINE
  5
4FC5
  8
0
 10
799.776517408335053
 20
78.4844573540290611
 30
0.0
 11
799.8183809671352265
 21
78.4844573540290611
 31
0.0
  0
ARC
  5
4FC6
  8
0
 10
799.8188633457891683
 20
78.5144644580582707
 30
0.0
 40
0.0300109810133689
 50
269.0790220684610858
 51
0.2690043197867162
  0
LINE
  5
4FC7
  8
0
 10
799.8488739960350813
 20
78.5146053594290123
 30
0.0
 11
799.8488721302743443
 21
78.5597602245432967
 31
0.0
  0
ARC
  5
4FC8
  8
0
 10
795.496911140038037
 20
77.546641320402216
 30
0.0
 40
1.001192216419629
 50
36.6707453057372987
 51
90.0672961086035144
  0
LINE
  5
4FC9
  8
0
 10
793.7418329468375759
 20
78.4709443793242087
 30
0.0
 11
793.7471255783352717
 21
78.420588353961989
 31
0.0
  0
LINE
  5
4FCA
  8
0
 10
793.7471255783352717
 20
78.420588353961989
 30
0.0
 11
793.7473748822874313
 21
78.4709224077716812
 31
0.0
  0
ARC
  5
4FCB
  8
0
 10
793.7771951360738285
 20
78.4255660426240411
 30
0.0
 40
0.030478774368567
 50
189.3994541102645996
 51
268.7116396354750805
  0
LINE
  5
4FCC
  8
0
 10
793.7765098441351483
 20
78.3950949733620064
 30
0.0
 11
793.8183734029352081
 21
78.3950949733620064
 31
0.0
  0
ARC
  5
4FCD
  8
0
 10
793.81885578158915
 20
78.425102077391216
 30
0.0
 40
0.0300109810133689
 50
269.0790220684610858
 51
0.2690043197867162
  0
LINE
  5
4FCE
  8
0
 10
793.8488664318350629
 20
78.4252429787620713
 30
0.0
 11
793.848864554007946
 21
78.4706898755376443
 31
0.0
  0
LINE
  5
4FCF
  8
0
 10
793.7418116437123672
 20
78.5491611054742407
 30
0.0
 11
793.7471255783352717
 21
78.498602394413254
 31
0.0
  0
LINE
  5
4FD0
  8
0
 10
793.7471255783352717
 20
78.498602394413254
 30
0.0
 11
793.7473763547970975
 21
78.5492337454675749
 31
0.0
  0
ARC
  5
4FD1
  8
0
 10
793.7771951360738285
 20
78.5035800830753203
 30
0.0
 40
0.030478774368567
 50
189.3994541102645996
 51
268.7116396354750805
  0
LINE
  5
4FD2
  8
0
 10
793.7765098441351483
 20
78.4731090138132856
 30
0.0
 11
793.8183734029352081
 21
78.4731090138132856
 31
0.0
  0
ARC
  5
4FD3
  8
0
 10
793.81885578158915
 20
78.5031161178424952
 30
0.0
 40
0.0300109810133689
 50
269.0790220684610858
 51
0.2690043197867162
  0
LINE
  5
4FD4
  8
0
 10
793.8488664318350629
 20
78.5032570192133505
 30
0.0
 11
793.848864540073464
 21
78.549041157359369
 31
0.0
  0
ARC
  5
4FD5
  8
0
 10
789.1218337619537806
 20
77.561141741309001
 30
0.0
 40
1.008476303300196
 50
89.8041179723582843
 51
144.6532369400810865
  0
LINE
  5
4FD6
  8
0
 10
790.7419131614931302
 20
78.4830243082405019
 30
0.0
 11
790.7471197321350473
 21
78.4334870972290474
 31
0.0
  0
LINE
  5
4FD7
  8
0
 10
790.7471197321350473
 20
78.4334870972290474
 30
0.0
 11
790.7473648990876427
 21
78.4829858976384429
 31
0.0
  0
ARC
  5
4FD8
  8
0
 10
790.7771892898738315
 20
78.4384647858909858
 30
0.0
 40
0.030478774368567
 50
189.3994541102645996
 51
268.7116396354750805
  0
LINE
  5
4FD9
  8
0
 10
790.7765039979351513
 20
78.4079937166289511
 30
0.0
 11
790.8183675567352111
 21
78.4079937166289511
 31
0.0
  0
ARC
  5
4FDA
  8
0
 10
790.818849935389153
 20
78.4380008206581607
 30
0.0
 40
0.0300109810133689
 50
269.0790220684610858
 51
0.2690043197867162
  0
LINE
  5
4FDB
  8
0
 10
790.8488605856351796
 20
78.438141722029016
 30
0.0
 11
790.848858756347795
 21
78.4824138623135923
 31
0.0
  0
LINE
  5
4FDC
  8
0
 10
790.7418584364379512
 20
78.559792653842166
 30
0.0
 11
790.7471203781351505
 21
78.5097286224290514
 31
0.0
  0
LINE
  5
4FDD
  8
0
 10
790.7471203781351505
 20
78.5097286224290514
 30
0.0
 11
790.7473681789053899
 21
78.5597591862724443
 31
0.0
  0
ARC
  5
4FDE
  8
0
 10
790.777189935873821
 20
78.5147063110909897
 30
0.0
 40
0.030478774368567
 50
189.3994541102645996
 51
268.7116396354750805
  0
LINE
  5
4FDF
  8
0
 10
790.7765046439351408
 20
78.4842352418289551
 30
0.0
 11
790.8183682027352006
 21
78.4842352418289551
 31
0.0
  0
ARC
  5
4FE0
  8
0
 10
790.8188505813891425
 20
78.5142423458581646
 30
0.0
 40
0.0300109810133689
 50
269.0790220684610858
 51
0.2690043197867162
  0
LINE
  5
4FE1
  8
0
 10
790.8488612316352828
 20
78.51438324722902
 30
0.0
 11
790.8488593773057573
 21
78.5592614523930735
 31
0.0
  0
LINE
  5
4FE2
  8
0
 10
795.495735201335151
 20
78.5478328462290278
 30
0.0
 11
793.818813270735177
 21
78.5490867950290266
 31
0.0
  0
LINE
  5
4FE3
  8
0
 10
793.818813270735177
 20
78.5490867950290266
 30
0.0
 11
793.7768962141351494
 21
78.549158009229032
 31
0.0
  0
LINE
  5
4FE4
  8
0
 10
793.7768962141351494
 20
78.549158009229032
 30
0.0
 11
790.8187077064352479
 21
78.5593654933290253
 31
0.0
  0
LINE
  5
4FE5
  8
0
 10
790.8187077064352479
 20
78.5593654933290253
 30
0.0
 11
790.7768043817352464
 21
78.5595803833290347
 31
0.0
  0
LINE
  5
4FE6
  8
0
 10
790.7768043817352464
 20
78.5595803833290347
 30
0.0
 11
789.1252815202351485
 21
78.5696121510290197
 31
0.0
  0
LINE
  5
4FE7
  8
0
 10
788.7462870170495535
 20
78.4970846331084147
 30
0.0
 11
790.7767840081352233
 21
78.4827786232290237
 31
0.0
  0
LINE
  5
4FE8
  8
0
 10
790.7767840081352233
 20
78.4827786232290237
 30
0.0
 11
790.8186843525352288
 21
78.4825334917290292
 31
0.0
  0
LINE
  5
4FE9
  8
0
 10
790.8186843525352288
 20
78.4825334917290292
 30
0.0
 11
793.7768888983351872
 21
78.4708053965290304
 31
0.0
  0
LINE
  5
4FEA
  8
0
 10
793.7768888983351872
 20
78.4708053965290304
 30
0.0
 11
793.8188050833351781
 21
78.4707119837290037
 31
0.0
  0
LINE
  5
4FEB
  8
0
 10
793.8188050833351781
 20
78.4707119837290037
 30
0.0
 11
795.885866993569266
 21
78.4691916974672949
 31
0.0
  0
ARC
  5
4FEC
  8
0
 10
786.4662452009257549
 20
77.5906174411745155
 30
0.0
 40
1.000965348476643
 50
33.6053786221850928
 51
89.5273964634902057
  0
LINE
  5
4FED
  8
0
 10
786.4745015577351523
 20
78.5915487382290365
 30
0.0
 11
784.8185216604351808
 21
78.6085412403290036
 31
0.0
  0
LINE
  5
4FEE
  8
0
 10
784.8185216604351808
 20
78.6085412403290036
 30
0.0
 11
784.7766415472350445
 21
78.6090039330290296
 31
0.0
  0
LINE
  5
4FEF
  8
0
 10
784.7766415472350445
 20
78.6090039330290296
 30
0.0
 11
784.1173664133352759
 21
78.6166008754290289
 31
0.0
  0
ARC
  5
4FF0
  8
0
 10
784.1407680992720088
 20
80.6162908772613633
 30
0.0
 40
1.999826928094746
 50
241.3078066085844
 51
269.3295177591729725
  0
ARC
  5
4FF1
  8
0
 10
781.9976258726840115
 20
81.4492906371156664
 30
0.0
 40
1.60032642551867
 50
207.987116145694813
 51
212.4032977462991028
  0
ARC
  5
4FF2
  8
0
 10
780.4505050734022689
 20
80.6007063290527839
 30
0.0
 40
0.1657304746447922
 50
36.0771221316386317
 51
93.160779423361646
  0
ARC
  5
4FF3
  8
0
 10
782.1227307946326164
 20
81.4187896768674761
 30
0.0
 40
1.773823896762917
 50
249.4617706758332929
 51
268.8156183167221229
  0
ARC
  5
4FF4
  8
0
 10
780.2602536492507852
 20
76.6670944370544163
 30
0.0
 40
3.3301540766496638
 50
61.3625824219412692
 51
68.1360494660895739
  0
LINE
  5
4FF5
  8
0
 10
781.8562803801352175
 20
79.5898713441290369
 30
0.0
 11
783.1806432299351854
 21
78.8620195249290248
 31
0.0
  0
ARC
  5
4FF6
  8
0
 10
782.1737092753166962
 20
81.4623419008523939
 30
0.0
 40
1.889485432711818
 50
249.2890105979080033
 51
259.4916731627865829
  0
ARC
  5
4FF7
  8
0
 10
780.2776448330530457
 20
76.6781395283649658
 30
0.0
 40
3.2571167593655388
 50
61.1951502904060192
 51
67.8537898731758133
  0
LINE
  5
4FF8
  8
0
 10
781.8470143852351839
 20
79.532239875729033
 30
0.0
 11
783.1800429351135335
 21
78.795180598724329
 31
0.0
  0
ARC
  5
4FF9
  8
0
 10
784.1447266347622644
 20
80.5469041353877202
 30
0.0
 40
1.9997874860266349
 50
241.1581833753625972
 51
269.2508753378376127
  0
LINE
  5
4FFA
  8
0
 10
784.1185807745353031
 20
78.5472875763290261
 30
0.0
 11
784.7765819961351781
 21
78.5388995640290233
 31
0.0
  0
LINE
  5
4FFB
  8
0
 10
784.7765819961351781
 20
78.5388995640290233
 30
0.0
 11
784.818456859235198
 21
78.5384032624290143
 31
0.0
  0
LINE
  5
4FFC
  8
0
 10
784.818456859235198
 20
78.5384032624290143
 30
0.0
 11
786.8503090383374001
 21
78.5149694291334868
 31
0.0
  0
LINE
  5
4FFD
  8
0
 10
784.8488323256090098
 20
78.5380529349679222
 30
0.0
 11
784.8488318667945123
 21
78.5010795712497753
 31
0.0
  0
LINE
  5
4FFE
  8
0
 10
784.8488318667945123
 20
78.5010795712497753
 30
0.0
 11
784.8475821880135754
 21
78.5380673531014253
 31
0.0
  0
LINE
  5
4FFF
  8
0
 10
784.7428588466632391
 20
78.5393294571405818
 30
0.0
 11
784.7471361961031562
 21
78.4986022022732328
 31
0.0
  0
LINE
  5
5000
  8
0
 10
784.7471361961031562
 20
78.4986022022732328
 30
0.0
 11
784.7471325561831463
 21
78.5392749771079508
 31
0.0
  0
ARC
  5
5001
  8
0
 10
784.7769594849828536
 20
78.5017371135779882
 30
0.0
 40
0.029987601246064
 50
186.0006789997190992
 51
269.1523976073809763
  0
ARC
  5
5002
  8
0
 10
784.8188346637089126
 20
78.5010845574089586
 30
0.0
 40
0.0299972035000054
 50
269.0772982510105749
 51
359.9904762495579007
  0
LINE
  5
5003
  8
0
 10
784.8183516041187886
 20
78.4710912436331824
 30
0.0
 11
784.7765158810088906
 21
78.4717527936089851
 31
0.0
  0
LINE
  5
5004
  8
0
 10
784.8488538027527284
 20
78.6082299931979946
 30
0.0
 11
784.8488533277352417
 21
78.5699509294290408
 31
0.0
  0
LINE
  5
5005
  8
0
 10
784.8488533277352417
 20
78.5699509294290408
 30
0.0
 11
784.8475595726711163
 21
78.6082432736776866
 31
0.0
  0
LINE
  5
5006
  8
0
 10
784.7427549507762023
 20
78.6093944141926499
 30
0.0
 11
784.7471576570438856
 21
78.5674735604524983
 31
0.0
  0
LINE
  5
5007
  8
0
 10
784.7471576570438856
 20
78.5674735604524983
 30
0.0
 11
784.7471539099661868
 21
78.6093437242183626
 31
0.0
  0
ARC
  5
5008
  8
0
 10
784.776980945923583
 20
78.5706084717572537
 30
0.0
 40
0.029987601246064
 50
186.0006789997190992
 51
269.1523976073809763
  0
ARC
  5
5009
  8
0
 10
784.818856124649642
 20
78.5699559155882241
 30
0.0
 40
0.0299972035000054
 50
269.0772982510105749
 51
359.9904762495579007
  0
LINE
  5
500A
  8
0
 10
784.8183730650592906
 20
78.5399626018124337
 30
0.0
 11
784.7765373419497337
 21
78.5406241517882506
 31
0.0
  0
ARC
  5
500B
  8
0
 10
778.4077933201552923
 20
75.6015857264025755
 30
0.0
 40
4.8736843871383471
 50
58.0835900658419604
 51
61.0495418629496172
  0
ARC
  5
500C
  8
0
 10
793.4101464745599515
 20
99.5792205818672187
 30
0.0
 40
23.4105562467893087
 50
237.9421996091865026
 51
238.7322690287197986
  0
ARC
  5
500D
  8
0
 10
779.8628586218088685
 20
77.8499615503713898
 30
0.0
 40
2.2433512641985538
 50
58.8312233953217287
 51
81.5483472512939045
  0
ARC
  5
500E
  8
0
 10
779.2663264562198719
 20
75.880789364245544
 30
0.0
 40
4.3921800775740749
 50
61.8295829357533222
 51
65.7562524946991829
  0
ARC
  5
500F
  8
0
 10
782.1538588829887431
 20
81.2498269383173692
 30
0.0
 40
1.704106370588069
 50
225.2259156529154893
 51
241.4665584331467869
  0
ENDSEC
  0
EOF
