  0
SECTION
  2
HEADER
  9
$ACADVER
  1
AC1009
  9
$INSBASE
 10
686.6383369903219318
 20
50.2918241057911573
 30
0.0
  9
$EXTMIN
 10
651.3475039922735732
 20
50.2905253213559718
 30
-0.0000000000112498
  9
$EXTMAX
 10
686.6585577279693098
 20
125.8568975539809003
 30
0.0000000000002956
  9
$LIMMIN
 10
0.0
 20
0.0
  9
$LIMMAX
 10
11.6929133858000007
 20
8.2677165353999982
  9
$ORTHOMODE
 70
     1
  9
$REGENMODE
 70
     1
  9
$FILLMODE
 70
     1
  9
$QTEXTMODE
 70
     0
  9
$MIRRTEXT
 70
     0
  9
$DRAGMODE
 70
     2
  9
$LTSCALE
 40
0.6431102362
  9
$OSMODE
 70
     7
  9
$ATTMODE
 70
     1
  9
$TEXTSIZE
 40
0.2
  9
$TRACEWID
 40
0.05
  9
$TEXTSTYLE
  7
STANDARD
  9
$CLAYER
  8
0
  9
$CELTYPE
  6
BYLAYER
  9
$CECOLOR
 62
   256
  9
$DIMSCALE
 40
1.0
  9
$DIMASZ
 40
0.1875
  9
$DIMEXO
 40
0.0625
  9
$DIMDLI
 40
0.4443307087
  9
$DIMRND
 40
0.0
  9
$DIMDLE
 40
0.0
  9
$DIMEXE
 40
0.125
  9
$DIMTP
 40
0.01
  9
$DIMTM
 40
0.01
  9
$DIMTXT
 40
2.0
  9
$DIMCEN
 40
0.1052362205
  9
$DIMTSZ
 40
0.0
  9
$DIMTOL
 70
     1
  9
$DIMLIM
 70
     0
  9
$DIMTIH
 70
     1
  9
$DIMTOH
 70
     1
  9
$DIMSE1
 70
     0
  9
$DIMSE2
 70
     0
  9
$DIMTAD
 70
     0
  9
$DIMZIN
 70
     0
  9
$DIMBLK
  1

  9
$DIMASO
 70
     1
  9
$DIMSHO
 70
     1
  9
$DIMPOST
  1
\X
  9
$DIMAPOST
  1

  9
$DIMALT
 70
     1
  9
$DIMALTD
 70
     2
  9
$DIMALTF
 40
25.3999999999999986
  9
$DIMLFAC
 40
1.0
  9
$DIMTOFL
 70
     0
  9
$DIMTVP
 40
0.0
  9
$DIMTIX
 70
     0
  9
$DIMSOXD
 70
     0
  9
$DIMSAH
 70
     0
  9
$DIMBLK1
  1

  9
$DIMBLK2
  1

  9
$DIMSTYLE
  2
STANDARD
  9
$DIMCLRD
 70
     0
  9
$DIMCLRE
 70
     0
  9
$DIMCLRT
 70
     0
  9
$DIMTFAC
 40
1.0
  9
$DIMGAP
 40
0.09
  9
$LUNITS
 70
     2
  9
$LUPREC
 70
     4
  9
$SKETCHINC
 40
0.1
  9
$FILLETRAD
 40
0.0
  9
$AUNITS
 70
     0
  9
$AUPREC
 70
     0
  9
$MENU
  1
.
  9
$ELEVATION
 40
0.0
  9
$PELEVATION
 40
0.0
  9
$THICKNESS
 40
0.0
  9
$LIMCHECK
 70
     0
  9
$BLIPMODE
 70
     0
  9
$CHAMFERA
 40
0.0
  9
$CHAMFERB
 40
0.0
  9
$SKPOLY
 70
     0
  9
$TDCREATE
 40
2458106.4931018520146608
  9
$TDUPDATE
 40
2459685.6746296300552785
  9
$TDINDWG
 40
0.2824059722
  9
$TDUSRTIMER
 40
0.2824059722
  9
$USRTIMER
 70
     1
  9
$ANGBASE
 50
0.0
  9
$ANGDIR
 70
     0
  9
$PDMODE
 70
     0
  9
$PDSIZE
 40
0.3125
  9
$PLINEWID
 40
0.0
  9
$COORDS
 70
     1
  9
$SPLFRAME
 70
     0
  9
$SPLINETYPE
 70
     6
  9
$SPLINESEGS
 70
     8
  9
$ATTDIA
 70
     1
  9
$ATTREQ
 70
     1
  9
$HANDLING
 70
     1
  9
$HANDSEED
  5
4C40
  9
$SURFTAB1
 70
     6
  9
$SURFTAB2
 70
     6
  9
$SURFTYPE
 70
     6
  9
$SURFU
 70
     6
  9
$SURFV
 70
     6
  9
$UCSNAME
  2

  9
$UCSORG
 10
0.0
 20
0.0
 30
0.0
  9
$UCSXDIR
 10
1.0
 20
0.0
 30
0.0
  9
$UCSYDIR
 10
0.0
 20
1.0
 30
0.0
  9
$PUCSNAME
  2

  9
$PUCSORG
 10
0.0
 20
0.0
 30
0.0
  9
$PUCSXDIR
 10
1.0
 20
0.0
 30
0.0
  9
$PUCSYDIR
 10
0.0
 20
1.0
 30
0.0
  9
$USERI1
 70
     0
  9
$USERI2
 70
     0
  9
$USERI3
 70
     0
  9
$USERI4
 70
     0
  9
$USERI5
 70
     0
  9
$USERR1
 40
0.0
  9
$USERR2
 40
0.0
  9
$USERR3
 40
0.0
  9
$USERR4
 40
0.0
  9
$USERR5
 40
0.0
  9
$WORLDVIEW
 70
     1
  9
$SHADEDGE
 70
     3
  9
$SHADEDIF
 70
    70
  9
$TILEMODE
 70
     1
  9
$MAXACTVP
 70
    64
  9
$PLIMCHECK
 70
     0
  9
$PEXTMIN
 10
1.0000000000000000E+20
 20
1.0000000000000000E+20
 30
1.0000000000000000E+20
  9
$PEXTMAX
 10
-1.0000000000000000E+20
 20
-1.0000000000000000E+20
 30
-1.0000000000000000E+20
  9
$PLIMMIN
 10
0.0
 20
0.0
  9
$PLIMMAX
 10
12.0
 20
9.0
  9
$UNITMODE
 70
     0
  9
$VISRETAIN
 70
     1
  9
$PLINEGEN
 70
     0
  9
$PSLTSCALE
 70
     1
  0
ENDSEC
  0
SECTION
  2
TABLES
  0
TABLE
  2
VPORT
 70
     1
  0
VPORT
  2
*ACTIVE
 70
     0
 10
0.0
 20
0.0
 11
1.0
 21
1.0
 12
395.4288293036083815
 22
105.6796721716899015
 13
0.0
 23
0.0
 14
1.0
 24
1.0
 15
0.0
 25
0.0
 16
-0.0000000000000568
 26
0.0
 36
193.9250709296327955
 17
273.5742015565131169
 27
-17.6059607340214797
 37
0.0
 40
76.1074202438370548
 41
2.2831541218637992
 42
50.0
 43
0.0
 44
0.0
 50
0.0
 51
0.0
 71
     0
 72
   100
 73
     1
 74
     1
 75
     0
 76
     0
 77
     0
 78
     0
  0
ENDTAB
  0
TABLE
  2
LTYPE
 70
     2
  0
LTYPE
  2
CONTINUOUS
 70
     0
  3
Solid line
 72
    65
 73
     0
 40
0.0
  0
LTYPE
  2
PHANTOM2
 70
     0
  3
___ _ _ ___ _ _ ___ _ _ ___ _ _
 72
    65
 73
     6
 40
1.25
 49
0.625
 49
-0.125
 49
0.125
 49
-0.125
 49
0.125
 49
-0.125
  0
ENDTAB
  0
TABLE
  2
LAYER
 70
     2
  0
LAYER
  2
0
 70
     0
 62
   255
  6
CONTINUOUS
  0
LAYER
  2
DEFPOINTS
 70
     0
 62
     7
  6
CONTINUOUS
  0
ENDTAB
  0
TABLE
  2
STYLE
 70
     1
  0
STYLE
  2
STANDARD
 70
     0
 40
0.0
 41
0.8
 50
0.0
 71
     0
 42
0.2
  3
txt
  4

  0
ENDTAB
  0
TABLE
  2
VIEW
 70
     0
  0
ENDTAB
  0
TABLE
  2
UCS
 70
     0
  0
ENDTAB
  0
TABLE
  2
APPID
 70
     9
  0
APPID
  2
ACAD
 70
     0
  0
APPID
  2
ACAD_MLEADERVER
 70
     0
  0
APPID
  2
ACAD_EXEMPT_FROM_CAD_STANDARDS
 70
     0
  0
APPID
  2
ACAD_NAV_VCDISPLAY
 70
     0
  0
APPID
  2
ACAD_DSTYLE_DIMJAG
 70
     0
  0
APPID
  2
ACAD_DSTYLE_DIMTALN
 70
     0
  0
APPID
  2
ACAECLAYERSTANDARD
 70
     0
  0
APPID
  2
ACCMTRANSPARENCY
 70
     0
  0
APPID
  2
ACDBATTR
 70
     0
  0
ENDTAB
  0
TABLE
  2
DIMSTYLE
 70
     1
  0
DIMSTYLE
  2
STANDARD
 70
     0
  3

  4

  5

  6

  7

 40
1.0
 41
0.1875
 42
0.0625
 43
0.38
 44
0.125
 45
0.0
 46
0.0
 47
0.01
 48
0.01
140
0.15625
141
0.09
142
0.0
143
25.3999999999999986
144
1.0
145
0.0
146
1.0
147
0.09
 71
     1
 72
     0
 73
     1
 74
     1
 75
     0
 76
     0
 77
     0
 78
     4
170
     0
171
     2
172
     0
173
     0
174
     0
175
     0
176
     0
177
     0
178
     0
  0
ENDTAB
  0
ENDSEC
  0
SECTION
  2
BLOCKS
  0
BLOCK
  8
0
  2
$MODEL_SPACE
 70
     0
 10
0.0
 20
0.0
 30
0.0
  3
$MODEL_SPACE
  1

  0
ENDBLK
  5
21
  8
0
  0
BLOCK
 67
     1
  8
0
  2
$PAPER_SPACE
 70
     0
 10
0.0
 20
0.0
 30
0.0
  3
$PAPER_SPACE
  1

  0
ENDBLK
  5
1D
 67
     1
  8
0
  0
ENDSEC
  0
SECTION
  2
ENTITIES
  0
ATTDEF
  5
FAA
  8
DEFPOINTS
 10
686.6383895039805338
 20
50.2952008618146991
 30
0.0
 40
0.001
  1
72410106
  3

  2
MODELNUMBER
 70
     0
1001
ACDBATTR
1070
     0
1070
     1
  0
ATTDEF
  5
FAB
  8
DEFPOINTS
 10
686.6383895039805338
 20
50.293534195148041
 30
0.0
 40
0.001
  1
ENSEMBLE
  3

  2
TRADENAME
 70
     0
1001
ACDBATTR
1070
     0
1070
     1
  0
ATTDEF
  5
FAC
  8
DEFPOINTS
 10
686.6383895039805338
 20
50.2918675284813688
 30
0.0
 40
0.001
  1
BATH AND SHOWER STALL
  3

  2
PRODUCT
 70
     0
1001
ACDBATTR
1070
     0
1070
     1
  0
LINE
  5
4729
  8
0
 10
652.6383369903219318
 20
50.2918241057911501
 30
0.0
 11
652.7933369886172841
 21
50.2918241057911573
 31
0.0
  0
LINE
  5
472A
  8
0
 10
659.7428082250734178
 20
50.2918241057911501
 30
0.0
 11
660.7428639961581212
 21
50.2918241057911501
 31
0.0
  0
LINE
  5
472B
  8
0
 10
662.7428647107193456
 20
50.2918241057911501
 30
0.0
 11
663.7428260737741539
 21
50.2918241057911501
 31
0.0
  0
LINE
  5
472C
  8
0
 10
663.8263897166367542
 20
50.2918241057911501
 30
0.0
 11
677.6581649788474806
 21
50.2918241057911501
 31
0.0
  0
LINE
  5
472D
  8
0
 10
680.7428335291318717
 20
50.2918241057911501
 30
0.0
 11
681.7428679150696098
 21
50.2918241057911501
 31
0.0
  0
LINE
  5
472E
  8
0
 10
686.6383369903219318
 20
125.850334569591098
 30
0.0
 11
686.6383369903219318
 21
124.6366930179470955
 31
0.0
  0
LINE
  5
472F
  8
0
 10
686.6383369903219318
 20
54.463724105791151
 30
0.0
 11
686.6383369903219318
 21
52.7887241057911467
 31
0.0
  0
LINE
  5
4730
  8
0
 10
651.3745044512219238
 20
124.2410808508953011
 30
0.0
 11
651.3745044512219238
 21
54.9152719882914582
 31
0.0
  0
LINE
  5
4731
  8
0
 10
651.4109767851217612
 20
124.329100603591101
 30
0.0
 11
652.5879558661207511
 21
125.5060796844899045
 31
0.0
  0
ARC
  5
4732
  8
0
 10
651.498989858710388
 20
124.2410647255917979
 30
0.0
 40
0.1244854085328844
 50
134.9925782205768883
 51
179.9925781515763106
  0
LINE
  5
4733
  8
0
 10
653.0006420210412443
 20
124.1281936771903958
 30
0.0
 11
655.7874568971176359
 21
124.1281936771903958
 31
0.0
  0
ARC
  5
4734
  8
0
 10
653.013896250331527
 20
125.0473757719596932
 30
0.0
 40
0.9192776500810598
 50
263.2863466276774034
 51
269.1738755829892966
  0
ARC
  5
4735
  8
0
 10
652.9066832786511441
 20
123.9942186580520058
 30
0.0
 40
0.1401833532362681
 50
90.1052008703058931
 51
179.2742199925056923
  0
LINE
  5
4736
  8
0
 10
652.7665111721219091
 20
123.9959943482535039
 30
0.0
 11
652.7665111721219091
 21
53.5786882716911492
 31
0.0
  0
LINE
  5
4737
  8
0
 10
653.4598302470802764
 20
54.463724105791151
 30
0.0
 11
686.6383369903219318
 21
54.463724105791151
 31
0.0
  0
LINE
  5
4738
  8
0
 10
652.6890387799066957
 20
53.2749171480353283
 30
0.0
 11
653.3520884703216325
 21
54.4021016216907967
 31
0.0
  0
LINE
  5
4739
  8
0
 10
652.6383369903219318
 20
53.0887245457141077
 30
0.0
 11
652.6383369903219318
 21
50.2918241057911501
 31
0.0
  0
ARC
  5
473A
  8
0
 10
653.0055662038387254
 20
53.0887245457141077
 30
0.0
 40
0.3672292135168285
 50
149.534455105527087
 51
179.9999998943677042
  0
ARC
  5
473B
  8
0
 10
652.9558131058595336
 20
53.078265750693383
 30
0.0
 40
0.1478369540472654
 50
27.3272462804757517
 51
176.0113671252150027
  0
LINE
  5
473C
  8
0
 10
652.8043468514638334
 20
51.2364739096341211
 30
0.0
 11
652.8083342321519922
 21
53.0885490766108603
 31
0.0
  0
LINE
  5
473D
  8
0
 10
653.0871513120217742
 20
53.1461335676911517
 30
0.0
 11
653.1148346395218596
 21
53.0867522687911375
 31
0.0
  0
ARC
  5
473E
  8
0
 10
653.3867052224554755
 20
53.2134972629961425
 30
0.0
 40
0.2999631767744946
 50
204.9947476314223138
 51
269.9971561122818002
  0
LINE
  5
473F
  8
0
 10
653.3866903337218446
 20
52.9135340865911417
 30
0.0
 11
655.8634433950219318
 21
52.9133904861911404
 31
0.0
  0
ARC
  5
4740
  8
0
 10
655.8634354468639458
 20
52.776304346142517
 30
0.0
 40
0.1370861402790377
 50
21.2230449453350296
 51
89.9966780310185186
  0
ARC
  5
4741
  8
0
 10
657.5719888677220979
 20
53.4426046708862117
 30
0.0
 40
1.6967926635718169
 50
201.3113510832725979
 51
204.4222793629120076
  0
ARC
  5
4742
  8
0
 10
656.4212427301220032
 20
52.9201945184912006
 30
0.0
 40
0.4330169775000523
 50
204.438071997703986
 51
224.2150753800985115
  0
ARC
  5
4743
  8
0
 10
655.9690259747447953
 20
52.4811530440753415
 30
0.0
 40
0.1972674276289447
 50
27.9329461126008596
 51
44.0169645338574824
  0
ARC
  5
4744
  8
0
 10
657.519733619903036
 20
53.3076989006545716
 30
0.0
 40
1.559967365588631
 50
208.0739864723153119
 51
227.4880246272830959
  0
ARC
  5
4745
  8
0
 10
657.5691528884093486
 20
53.502957786446963
 30
0.0
 40
1.7399182911257809
 50
230.6349748594319067
 51
270.2299934423135142
  0
ARC
  5
4746
  8
0
 10
654.1013133404884456
 20
50.9105053960958003
 30
0.0
 40
1.3039064277637451
 50
89.7854153501909735
 51
158.0726543286054948
  0
ARC
  5
4747
  8
0
 10
654.1236850469515502
 20
50.9040910274493186
 30
0.0
 40
1.3270572218687471
 50
158.1764445549968059
 51
179.4500926517941082
  0
ARC
  5
4748
  8
0
 10
665.3348844494244076
 20
50.7763595277553677
 30
0.0
 40
12.5389823246672005
 50
177.8970755920516069
 51
179.3581304052156895
  0
LINE
  5
4749
  8
0
 10
652.7933369886172841
 20
50.2918241057921023
 30
0.0
 11
652.7966889460335551
 21
50.9168275207883028
 31
0.0
  0
LINE
  5
474A
  8
0
 10
654.1061967307218765
 20
52.2144026791911529
 30
0.0
 11
655.5485680747218566
 21
52.2144031514911475
 31
0.0
  0
ARC
  5
474B
  8
0
 10
655.5503871199841797
 20
51.1511091192380718
 30
0.0
 40
1.063295588230613
 50
76.2897270359924704
 51
90.0980194672752646
  0
ARC
  5
474C
  8
0
 10
655.2006524942529495
 20
50.0717586437849604
 30
0.0
 40
2.1963881166294801
 50
58.6735816632983713
 51
74.0992397953198463
  0
LINE
  5
474D
  8
0
 10
657.3141135622217917
 20
51.3912960858911489
 30
0.0
 11
658.6310328313219316
 21
50.6554127876911409
 31
0.0
  0
ARC
  5
474E
  8
0
 10
659.6062598942181694
 20
52.4006559723340999
 30
0.0
 40
1.999235253227668
 50
240.8039122658124995
 51
267.6805454979985939
  0
ARC
  5
474F
  8
0
 10
659.2976867524481577
 20
49.6898078829089798
 30
0.0
 40
0.7487033177469272
 50
53.5213523054742097
 51
83.9464777119024319
  0
ARC
  5
4750
  8
0
 10
674.2397102845891368
 20
81.3570733598954092
 30
0.0
 40
34.4267826733914291
 50
238.6771005085406046
 51
239.5311167522150981
  0
ARC
  5
4751
  8
0
 10
657.6050732912219701
 20
53.1161305788911307
 30
0.0
 40
1.6647383160999809
 50
231.908453371105594
 51
247.6162624396918943
  0
ARC
  5
4752
  8
0
 10
655.5039443671450954
 20
48.5686443853801109
 30
0.0
 40
3.3469042129880311
 50
60.9542737402669488
 51
65.1072318726583319
  0
ARC
  5
4753
  8
0
 10
711.7121706436654449
 20
149.1278507675858975
 30
0.0
 40
111.8551864478527023
 50
240.7919921249228992
 51
240.9006317034400979
  0
ARC
  5
4754
  8
0
 10
657.6049007486218443
 20
53.1191837836912271
 30
0.0
 40
1.6652423931000691
 50
245.4391746067020961
 51
251.3958229686354002
  0
ARC
  5
4755
  8
0
 10
655.6212799738704007
 20
49.4035858890830468
 30
0.0
 40
2.8111530198372261
 50
73.4649451505848532
 51
91.0718054750823853
  0
ARC
  5
4756
  8
0
 10
655.7781792148537079
 20
50.0025393401416807
 30
0.0
 40
2.192406696901712
 50
63.5169547089919106
 51
72.9408909562439192
  0
ARC
  5
4757
  8
0
 10
655.5753307328337769
 20
50.5107525164816593
 30
0.0
 40
1.7035440751661719
 50
61.4033684166563702
 51
90.2823262832979623
  0
ARC
  5
4758
  8
0
 10
705.9711357716782913
 20
147.2580939298960061
 30
0.0
 40
107.3829010239804944
 50
242.5020965228167995
 51
242.7176679268646922
  0
ARC
  5
4759
  8
0
 10
657.59263591569038
 20
53.3343821621580716
 30
0.0
 40
1.732762369889429
 50
224.6932619984355028
 51
247.3908821868373877
  0
ARC
  5
475A
  8
0
 10
657.9602980988202034
 20
53.6503189131145604
 30
0.0
 40
2.2914648700946301
 50
224.7868027794208103
 51
239.0817367357279863
  0
ARC
  5
475B
  8
0
 10
654.1022157516231346
 20
45.8313427114507732
 30
0.0
 40
6.5939486451704719
 50
60.8570565248496322
 51
64.8297661512802108
  0
ARC
  5
475C
  8
0
 10
657.5896874644040508
 20
53.4290792656435727
 30
0.0
 40
1.7672169170237639
 50
247.2639636787482971
 51
268.7462933891206944
  0
LINE
  5
475D
  8
0
 10
657.5761371501796475
 20
51.763053513252153
 30
0.0
 11
660.1160978076967467
 21
51.7305616301846882
 31
0.0
  0
LINE
  5
475E
  8
0
 10
657.551021532021764
 20
51.6622853960911428
 30
0.0
 11
660.0320667159219283
 21
51.6250403387911518
 31
0.0
  0
ARC
  5
475F
  8
0
 10
1122.8050706539570456
 20
901.2596746251656441
 30
0.0
 40
968.8240904399660849
 50
241.2838460751515015
 51
241.3724213307189075
  0
ARC
  5
4760
  8
0
 10
659.5808118783330656
 20
52.6111851006724294
 30
0.0
 40
1.983376179677216
 50
241.2716916591556924
 51
269.2727684717331726
  0
LINE
  5
4761
  8
0
 10
659.5556383843219237
 20
50.6279686814911472
 30
0.0
 11
660.1491033832219273
 21
50.6194017111911592
 31
0.0
  0
ARC
  5
4762
  8
0
 10
660.2832642755522556
 20
55.4759491916655278
 30
0.0
 40
4.858400207386472
 50
268.4176210600991226
 51
270.5671486156372225
  0
LINE
  5
4763
  8
0
 10
660.3313549024375106
 20
50.6177870014192308
 30
0.0
 11
663.1493117980240868
 21
50.5825564745582028
 31
0.0
  0
ARC
  5
4764
  8
0
 10
654.5095761841812418
 20
46.5899644422860604
 30
0.0
 40
5.6842446803478142
 50
60.5161912217543474
 51
65.0308911720728133
  0
ARC
  5
4765
  8
0
 10
700.9042631063841782
 20
128.9701120353433055
 30
0.0
 40
88.8618145495057092
 50
240.618921684861391
 51
241.5917031889493103
  0
ARC
  5
4766
  8
0
 10
659.5814374354331449
 20
52.5483047408724389
 30
0.0
 40
1.983376179677216
 50
241.2716916591556924
 51
269.2727684717331726
  0
LINE
  5
4767
  8
0
 10
659.5562639414217756
 20
50.5650883216911424
 30
0.0
 11
660.1493541907218514
 21
50.5562039137911512
 31
0.0
  0
LINE
  5
4768
  8
0
 10
660.3315076633218723
 20
50.5532883100911477
 30
0.0
 11
662.2091050109219168
 21
50.5241782254911627
 31
0.0
  0
ARC
  5
4769
  8
0
 10
654.8253938078593137
 20
47.1930216487848213
 30
0.0
 40
4.9591770838849287
 50
59.8393297589808668
 51
65.1352936896149544
  0
ARC
  5
476A
  8
0
 10
2770.8690041623349316
 20
3874.8905543745859177
 30
0.0
 40
4368.7027784675519797
 50
241.0665143072046988
 51
241.0859185299894989
  0
ARC
  5
476B
  8
0
 10
659.5732847432980179
 20
52.4304664478884206
 30
0.0
 40
1.922758835780672
 50
240.0033327010135054
 51
269.4946186021429071
  0
LINE
  5
476C
  8
0
 10
659.5563251355217744
 20
50.5077824092911527
 30
0.0
 11
660.1492604967219222
 21
50.4973774724911522
 31
0.0
  0
LINE
  5
476D
  8
0
 10
660.3314009029219278
 20
50.4932318137911409
 30
0.0
 11
662.5140017995219068
 21
50.4553225167911634
 31
0.0
  0
ARC
  5
476E
  8
0
 10
654.0976727913385957
 20
45.7956229726261626
 30
0.0
 40
6.4960519645546304
 50
60.2886413046146004
 51
64.3294761858238644
  0
ARC
  5
476F
  8
0
 10
-1191541.7197517009917647
 20
-2147712.3503810078836977
 30
0.0
 40
2456466.5341111421585083
 50
60.9658126987761406
 51
60.9658476983348621
  0
ARC
  5
4770
  8
0
 10
659.5670311170996456
 20
52.3383183128431213
 30
0.0
 40
1.8795580146270079
 50
240.0718491800002141
 51
269.6615316851356283
  0
LINE
  5
4771
  8
0
 10
659.5559279060219069
 20
50.4587930937911366
 30
0.0
 11
660.1491475576218591
 21
50.4466186873911511
 31
0.0
  0
LINE
  5
4772
  8
0
 10
660.331346584621997
 20
50.4421012596911496
 30
0.0
 11
662.6202073508218291
 21
50.39554802219115
 31
0.0
  0
ARC
  5
4773
  8
0
 10
660.4063642671173966
 20
60.9214959272737033
 30
0.0
 40
10.3684778393038002
 50
268.579627474532117
 51
269.5863419112650945
  0
ARC
  5
4774
  8
0
 10
660.4744710709547917
 20
60.7823121833227091
 30
0.0
 40
10.2900750203125693
 50
268.1889056573169796
 51
269.2033507124771177
  0
ARC
  5
4775
  8
0
 10
660.5367817087302456
 20
62.4043349929602584
 30
0.0
 40
11.9639976378959005
 50
268.1432887900755873
 51
269.016119492198186
  0
ARC
  5
4776
  8
0
 10
659.6098753086956776
 20
52.4400727227556374
 30
0.0
 40
2.019251319172723
 50
240.9808544820429859
 51
263.3672865505575942
  0
LINE
  5
4777
  8
0
 10
658.6303327593950598
 20
50.6743229431746371
 30
0.0
 11
657.1293676845217533
 21
51.5108096796911425
 31
0.0
  0
ARC
  5
4778
  8
0
 10
655.6610309596590014
 20
48.8633267534873426
 30
0.0
 40
3.0274045950487158
 50
60.9865429836173121
 51
65.5622143111881428
  0
ARC
  5
4779
  8
0
 10
657.7351814091983897
 20
53.5334670289933783
 30
0.0
 40
2.082887973847003
 50
246.7652370682116043
 51
253.1158778857725054
  0
ARC
  5
477A
  8
0
 10
657.7336947378403238
 20
53.6061944698198474
 30
0.0
 40
2.1213921743658211
 50
247.2032467428817881
 51
254.7901547237644024
  0
ARC
  5
477B
  8
0
 10
657.7226026991825165
 20
53.7516429906468716
 30
0.0
 40
2.167200218666252
 50
247.951765933446211
 51
256.4169329095706757
  0
ARC
  5
477C
  8
0
 10
657.7293260337769425
 20
53.6792993473000024
 30
0.0
 40
2.1488755172308021
 50
247.6046283575321922
 51
255.7927675343158
  0
LINE
  5
477D
  8
0
 10
659.7316501591104725
 20
50.4551868172342992
 30
0.0
 11
659.7453496114113705
 21
50.2918241057911501
 31
0.0
  0
LINE
  5
477E
  8
0
 10
660.732353423989025
 20
50.433945164349808
 30
0.0
 11
660.7386099420217533
 21
50.3225892357911491
 31
0.0
  0
ARC
  5
477F
  8
0
 10
660.9762088186042774
 20
50.3359386970653304
 30
0.0
 40
0.2379735999423044
 50
183.2157748063885094
 51
190.6830541170363915
  0
ARC
  5
4780
  8
0
 10
662.1999154592157311
 20
49.7738195074284206
 30
0.0
 40
0.7504149876124097
 50
43.6531364400517816
 51
89.2983406544054787
  0
ARC
  5
4781
  8
0
 10
665.1811943417599196
 20
169.0640340624468934
 30
0.0
 40
118.4988990585183046
 50
269.0175098614607805
 51
269.1056947349733832
  0
LINE
  5
4782
  8
0
 10
663.3316709171217553
 20
50.579569506191163
 30
0.0
 11
666.162965594221987
 21
50.5542605688911522
 31
0.0
  0
LINE
  5
4783
  8
0
 10
662.7205637807142011
 20
50.5879167476567986
 30
0.0
 11
662.7453495314026668
 21
50.2918241057911501
 31
0.0
  0
LINE
  5
4784
  8
0
 10
663.7243799666605355
 20
50.5760590808043915
 30
0.0
 11
663.7403374576384749
 21
50.2918241057911501
 31
0.0
  0
ARC
  5
4785
  8
0
 10
664.2594692325011465
 20
49.7477429695239408
 30
0.0
 40
0.7502962323651032
 50
89.6096289830534971
 51
133.5182484961767102
  0
ARC
  5
4786
  8
0
 10
671.6663588006407508
 20
701.5761761116045818
 30
0.0
 40
651.1202264947128242
 50
269.3486613729257897
 51
269.5145141940615758
  0
ARC
  5
4787
  8
0
 10
670.7317599889711346
 20
491.3655770784077959
 30
0.0
 40
440.9833564631857143
 50
269.1197086857321779
 51
269.404127982062505
  0
ARC
  5
4788
  8
0
 10
673.9330500401802055
 20
611.6768718311366229
 30
0.0
 40
561.3946094378840144
 50
268.9703217580109822
 51
269.2069438642290038
  0
ARC
  5
4789
  8
0
 10
678.2173680151513508
 20
694.5085049729734692
 30
0.0
 40
644.3469653974125322
 50
268.7159509194905809
 51
268.8477904244221008
  0
ARC
  5
478A
  8
0
 10
663.8492035520292802
 20
52.4512820401120123
 30
0.0
 40
2.159578440619065
 50
267.2433972910520765
 51
269.3947148334307258
  0
ARC
  5
478B
  8
0
 10
665.8467924011644072
 20
50.7876745279429471
 30
0.0
 40
0.4961745724550549
 50
243.4722267763015111
 51
267.9288228755610248
  0
LINE
  5
478C
  8
0
 10
665.9397053449730493
 20
50.3391713811329922
 30
0.0
 11
665.9406202402219606
 21
50.3222582683911526
 31
0.0
  0
ARC
  5
478D
  8
0
 10
665.905437031655083
 20
50.3203550734650094
 30
0.0
 40
0.0352346465285124
 50
328.9898035457015908
 51
3.0963310953629062
  0
ARC
  5
478E
  8
0
 10
665.9166604341472748
 20
50.3136086541642271
 30
0.0
 40
0.0221396498928468
 50
280.2756833445212123
 51
328.9898035457043761
  0
LINE
  5
478F
  8
0
 10
666.1882175298809443
 20
50.3357753366859768
 30
0.0
 11
666.1900134617219464
 21
50.3186881864911371
 31
0.0
  0
LINE
  5
4790
  8
0
 10
666.1900134617219464
 20
50.3186881864911371
 30
0.0
 11
666.1900979915139942
 21
50.3357546110841128
 31
0.0
  0
ARC
  5
4791
  8
0
 10
666.2200830194603896
 20
50.3236658751531607
 30
0.0
 40
0.030478774368567
 50
189.3994541102617859
 51
268.7116396354750805
  0
ARC
  5
4792
  8
0
 10
665.9578464589492341
 20
29.3485805776002984
 30
0.0
 40
20.9884590831751083
 50
89.0147062743351398
 51
89.4405273403375531
  0
LINE
  5
4793
  8
0
 10
666.2193977275219368
 20
50.2931948058911473
 30
0.0
 11
666.2612612863218828
 21
50.2931948058911473
 31
0.0
  0
ARC
  5
4794
  8
0
 10
666.2617436649759384
 20
50.3232019099203498
 30
0.0
 40
0.0300109810133689
 50
269.0790220684610858
 51
0.2690043197883446
  0
LINE
  5
4795
  8
0
 10
666.2917543152218514
 20
50.3233428112911625
 30
0.0
 11
666.2917538590337472
 21
50.3343834103318599
 31
0.0
  0
LINE
  5
4796
  8
0
 10
666.1854807015620281
 20
50.4057461983456534
 30
0.0
 11
666.1900154486219208
 21
50.3626009617911379
 31
0.0
  0
LINE
  5
4797
  8
0
 10
666.1900154486219208
 20
50.3626009617911379
 30
0.0
 11
666.1902289387447809
 21
50.4057042629678804
 31
0.0
  0
ARC
  5
4798
  8
0
 10
666.2200850063603639
 20
50.3675786504531402
 30
0.0
 40
0.030478774368567
 50
189.3994541102617859
 51
268.7116396354750805
  0
LINE
  5
4799
  8
0
 10
666.2193997144219111
 20
50.3371075811911624
 30
0.0
 11
666.2612632732217435
 21
50.3371075811911624
 31
0.0
  0
ARC
  5
479A
  8
0
 10
666.2617456518759127
 20
50.3671146852203435
 30
0.0
 40
0.0300109810133689
 50
269.0790220684610858
 51
0.2690043197883446
  0
LINE
  5
479B
  8
0
 10
666.2917563021219394
 20
50.367255586591142
 30
0.0
 11
666.2917547579218081
 21
50.4046280883557429
 31
0.0
  0
LINE
  5
479C
  8
0
 10
666.1851428929581971
 20
50.4791886396945131
 30
0.0
 11
666.1900193208906558
 21
50.4327925267667965
 31
0.0
  0
LINE
  5
479D
  8
0
 10
666.1900193208906558
 20
50.4327925267667965
 30
0.0
 11
666.1902489881902056
 21
50.4791619729813519
 31
0.0
  0
ARC
  5
479E
  8
0
 10
666.2200888786293262
 20
50.4377702154287917
 30
0.0
 40
0.030478774368567
 50
189.3994541102617859
 51
268.7116396354750805
  0
LINE
  5
479F
  8
0
 10
666.2194035866907598
 20
50.4072991461667996
 30
0.0
 11
666.2612671454908195
 21
50.4072991461667996
 31
0.0
  0
ARC
  5
47A0
  8
0
 10
666.2617495241446477
 20
50.4373062501960021
 30
0.0
 40
0.0300109810133689
 50
269.0790220684610858
 51
0.2690043197883446
  0
LINE
  5
47A1
  8
0
 10
666.2917601743905607
 20
50.4374471515668006
 30
0.0
 11
666.291758488550272
 21
50.4782476121894206
 31
0.0
  0
LINE
  5
47A2
  8
0
 10
666.1850121801838895
 20
50.5541070498052818
 30
0.0
 11
666.1900214731404049
 21
50.5064468106090487
 31
0.0
  0
LINE
  5
47A3
  8
0
 10
666.1900214731404049
 20
50.5064468106090487
 30
0.0
 11
666.1902573533499208
 21
50.5540706330618335
 31
0.0
  0
ARC
  5
47A4
  8
0
 10
666.220091030878848
 20
50.5114244992710368
 30
0.0
 40
0.030478774368567
 50
189.3994541102617859
 51
268.7116396354750805
  0
LINE
  5
47A5
  8
0
 10
666.2194057389402815
 20
50.4809534300090519
 30
0.0
 11
666.2612692977403412
 21
50.4809534300090519
 31
0.0
  0
ARC
  5
47A6
  8
0
 10
666.2617516763943968
 20
50.5109605340382402
 30
0.0
 40
0.0300109810133689
 50
269.0790220684610858
 51
0.2690043197883446
  0
LINE
  5
47A7
  8
0
 10
666.2917623266403098
 20
50.5111014354090386
 30
0.0
 11
666.2917605799722196
 21
50.5533740402487908
 31
0.0
  0
LINE
  5
47A8
  8
0
 10
666.093583457521845
 20
51.5020446247911465
 30
0.0
 11
666.190022982149685
 21
50.5817562253822928
 31
0.0
  0
LINE
  5
47A9
  8
0
 10
666.190022982149685
 20
50.5817562253822928
 30
0.0
 11
666.1896679979219016
 21
51.6472782832911435
 31
0.0
  0
ARC
  5
47AA
  8
0
 10
666.2200925398883555
 20
50.5867339140443022
 30
0.0
 40
0.030478774368567
 50
189.3994541102617859
 51
268.7116396354750805
  0
LINE
  5
47AB
  8
0
 10
666.2194072479495617
 20
50.5562628447823101
 30
0.0
 11
666.2612708067497351
 21
50.5562628447823101
 31
0.0
  0
ARC
  5
47AC
  8
0
 10
666.261753185403677
 20
50.5862699488115126
 30
0.0
 40
0.0300109810133689
 50
269.0790220684610858
 51
0.2690043197883446
  0
LINE
  5
47AD
  8
0
 10
666.2917638356498173
 20
50.5864108501822969
 30
0.0
 11
666.2916051656218315
 21
51.6290726625911418
 31
0.0
  0
LINE
  5
47AE
  8
0
 10
666.3187592170219204
 20
50.3339363445911516
 30
0.0
 11
669.1518291292219374
 21
50.3066472733911425
 31
0.0
  0
ARC
  5
47AF
  8
0
 10
665.9224218501061614
 20
20.3514186982497485
 30
0.0
 40
30.0554787258887401
 50
89.2336110059882515
 51
89.5744539758921121
  0
LINE
  5
47B0
  8
0
 10
666.2917563021219394
 20
50.367255586591142
 30
0.0
 11
666.2904877185361556
 21
50.4046436326698029
 31
0.0
  0
LINE
  5
47B1
  8
0
 10
666.324432285021885
 20
50.4042087359911406
 30
0.0
 11
669.1630305387218414
 21
50.3838901945911388
 31
0.0
  0
ARC
  5
47B2
  8
0
 10
666.1141384142738389
 20
36.3945098273881698
 30
0.0
 40
14.0848577870642409
 50
89.1659974233577373
 51
89.8570839775826471
  0
LINE
  5
47B3
  8
0
 10
666.3191516451217922
 20
50.477875492491151
 30
0.0
 11
669.1603877762219099
 21
50.4617835330911291
 31
0.0
  0
ARC
  5
47B4
  8
0
 10
670.8118749172167554
 20
716.5922368336869113
 30
0.0
 40
666.0542006359528386
 50
269.6000850289893833
 51
269.6135350360949019
  0
LINE
  5
47B5
  8
0
 10
666.3193160767217478
 20
50.5531876031911409
 30
0.0
 11
669.1603657462219417
 21
50.5399024511911534
 31
0.0
  0
ARC
  5
47B6
  8
0
 10
666.5705648666084926
 20
51.6164123504674706
 30
0.0
 40
0.2792468411237063
 50
158.8672395550046019
 51
177.4014703973458893
  0
ARC
  5
47B7
  8
0
 10
667.4970678488339217
 20
51.2507650290371473
 30
0.0
 40
1.2752864665776771
 50
153.2158546898484985
 51
158.5516498440524913
  0
LINE
  5
47B8
  8
0
 10
666.3586061664218505
 20
51.825448045591159
 30
0.0
 11
666.1389667912219466
 21
51.826570567091153
 31
0.0
  0
ARC
  5
47B9
  8
0
 10
665.438398435144677
 20
51.4972535312170407
 30
0.0
 40
0.7741096380058535
 50
16.5656526887470399
 51
25.1768676662248296
  0
ARC
  5
47BA
  8
0
 10
665.9431335644688943
 20
51.6508280559153832
 30
0.0
 40
0.2465599881645391
 50
359.1750728977273184
 51
15.8003434661432607
  0
ARC
  5
47BB
  8
0
 10
665.3364608703077465
 20
51.8304534957845107
 30
0.0
 40
0.8025153146436718
 50
352.0202854555557224
 51
359.7227762632372787
  0
ARC
  5
47BC
  8
0
 10
666.0326198648701848
 20
51.7328666249122833
 30
0.0
 40
0.0995497798736794
 50
326.475648807871778
 51
352.0199629454264141
  0
LINE
  5
47BD
  8
0
 10
666.1156096552218742
 20
51.677886143191138
 30
0.0
 11
666.0561977021218354
 21
51.6513039843911486
 31
0.0
  0
ARC
  5
47BE
  8
0
 10
666.091900196838651
 20
51.5715077963681381
 30
0.0
 40
0.0874191040448262
 50
114.104747299434095
 51
125.8092768824043048
  0
ARC
  5
47BF
  8
0
 10
666.0539762277270484
 20
51.6241358840978322
 30
0.0
 40
0.0225504848272616
 50
125.9031526842963018
 51
170.9380309032601133
  0
LINE
  5
47C0
  8
0
 10
666.0317072052218919
 20
51.6276876445911483
 30
0.0
 11
666.0317480117217883
 21
51.5596701155911603
 31
0.0
  0
ARC
  5
47C1
  8
0
 10
666.0306250300758393
 20
51.4964758626005619
 30
0.0
 40
0.0632042300705915
 50
5.0547381674044001
 51
88.9819432259744474
  0
ARC
  5
47C2
  8
0
 10
665.2916797677053182
 20
51.8061888946593569
 30
0.0
 40
1.0671002085901471
 50
353.0253284664051989
 51
1.034137161235247
  0
LINE
  5
47C3
  8
0
 10
666.3508833588218749
 20
51.6766103171911482
 30
0.0
 11
666.3310274527218553
 21
51.6496023091911525
 31
0.0
  0
ARC
  5
47C4
  8
0
 10
666.3642106829663589
 20
51.6252064668976018
 30
0.0
 40
0.0411859671572331
 50
143.6771995639207091
 51
179.0366539871446889
  0
LINE
  5
47C5
  8
0
 10
666.3230305372219391
 20
51.6258989169911473
 30
0.0
 11
666.3230533775218873
 21
51.5576880942911515
 31
0.0
  0
ARC
  5
47C6
  8
0
 10
666.3836708633700709
 20
51.4875978539920567
 30
0.0
 40
0.0926667220513844
 50
130.854861667444311
 51
173.3635211077314864
  0
LINE
  5
47C7
  8
0
 10
666.7381992389067591
 20
50.3298961588646776
 30
0.0
 11
666.7403347258723443
 21
50.2918241057911501
 31
0.0
  0
LINE
  5
47C8
  8
0
 10
663.093598205021749
 20
51.5234076560911518
 30
0.0
 11
663.1900186486725488
 21
50.6082605724390007
 31
0.0
  0
LINE
  5
47C9
  8
0
 10
663.1900186486725488
 20
50.6082605724390007
 30
0.0
 11
663.1896827454219192
 21
51.6686413145911487
 31
0.0
  0
ARC
  5
47CA
  8
0
 10
663.2200882064112193
 20
50.6132382611010101
 30
0.0
 40
0.030478774368567
 50
189.3994541102617859
 51
268.7116396354750805
  0
LINE
  5
47CB
  8
0
 10
663.2194029144725391
 20
50.5827671918390109
 30
0.0
 11
663.2612664732724852
 21
50.5827671918390109
 31
0.0
  0
ARC
  5
47CC
  8
0
 10
663.2617488519265407
 20
50.6127742958681992
 30
0.0
 40
0.0300109810133689
 50
269.0790220684610858
 51
0.2690043197883446
  0
LINE
  5
47CD
  8
0
 10
663.2917595021725674
 20
50.6129151972390119
 30
0.0
 11
663.2916199131218491
 21
51.6504356938911613
 31
0.0
  0
ARC
  5
47CE
  8
0
 10
663.5705796141085102
 20
51.6377753817674687
 30
0.0
 40
0.2792468411237063
 50
158.8672395550046019
 51
177.4014703973458893
  0
ARC
  5
47CF
  8
0
 10
664.4970825963339394
 20
51.2721280603371525
 30
0.0
 40
1.2752864665776771
 50
153.2158546898484985
 51
158.5516498440524913
  0
LINE
  5
47D0
  8
0
 10
663.3586209139218681
 20
51.8468110768911501
 30
0.0
 11
663.1389815387218505
 21
51.8479335983911511
 31
0.0
  0
ARC
  5
47D1
  8
0
 10
662.4384131826448083
 20
51.5186165625170318
 30
0.0
 40
0.7741096380058535
 50
16.5656526887470399
 51
25.1768676662248296
  0
ARC
  5
47D2
  8
0
 10
662.9431483119687982
 20
51.6721910872153813
 30
0.0
 40
0.2465599881645391
 50
359.1750728977273184
 51
15.8003434661432607
  0
ARC
  5
47D3
  8
0
 10
662.3364756178075368
 20
51.8518165270845302
 30
0.0
 40
0.8025153146437487
 50
352.0202854555557224
 51
359.7227762632348913
  0
ARC
  5
47D4
  8
0
 10
663.0326346123702024
 20
51.7542296562122601
 30
0.0
 40
0.0995497798736794
 50
326.475648807871778
 51
352.0199629454264141
  0
LINE
  5
47D5
  8
0
 10
663.1156244027217781
 20
51.6992491744911433
 30
0.0
 11
663.056212449621853
 21
51.6726670156911467
 31
0.0
  0
ARC
  5
47D6
  8
0
 10
663.0919149443386686
 20
51.5928708276681292
 30
0.0
 40
0.0874191040448262
 50
114.104747299434095
 51
125.8092768824043048
  0
ARC
  5
47D7
  8
0
 10
663.0539909752271797
 20
51.6454989153978374
 30
0.0
 40
0.0225504848272616
 50
125.9031526842963018
 51
170.9380309032601133
  0
LINE
  5
47D8
  8
0
 10
663.0317219527219095
 20
51.6490506758911394
 30
0.0
 11
663.0317627592219196
 21
51.5810331468911372
 31
0.0
  0
ARC
  5
47D9
  8
0
 10
663.0306397775758569
 20
51.5178388939005671
 30
0.0
 40
0.0632042300705915
 50
5.0547381674044001
 51
88.9819432259744474
  0
ARC
  5
47DA
  8
0
 10
662.2916945152052222
 20
51.827551925959348
 30
0.0
 40
1.0671002085901471
 50
353.0253284664051989
 51
1.034137161235247
  0
LINE
  5
47DB
  8
0
 10
663.3508981063218926
 20
51.6979733484911392
 30
0.0
 11
663.3310422002217592
 21
51.6709653404911506
 31
0.0
  0
ARC
  5
47DC
  8
0
 10
663.3642254304664903
 20
51.6465694981975929
 30
0.0
 40
0.0411859671572331
 50
143.6771995639207091
 51
179.0366539871446889
  0
LINE
  5
47DD
  8
0
 10
663.3230452847219567
 20
51.6472619482911384
 30
0.0
 11
663.323068125021905
 21
51.5790511255911497
 31
0.0
  0
ARC
  5
47DE
  8
0
 10
663.3836856108699749
 20
51.5089608852920477
 30
0.0
 40
0.0926667220513844
 50
130.854861667444311
 51
173.3635211077314864
  0
LINE
  5
47DF
  8
0
 10
663.2918065291119092
 20
50.580198490777768
 30
0.0
 11
663.2913606466217971
 21
50.333534147991152
 31
0.0
  0
ARC
  5
47E0
  8
0
 10
663.2345607565881664
 20
50.3336368222411465
 30
0.0
 40
0.0567999828329843
 50
331.5950000636267987
 51
359.8964294688116183
  0
ARC
  5
47E1
  8
0
 10
663.2582635467416594
 20
50.3208180981408901
 30
0.0
 40
0.02985296168749
 50
283.7777921373307777
 51
331.5950000636294135
  0
LINE
  5
47E2
  8
0
 10
663.1901219786774391
 20
50.5818636361507785
 30
0.0
 11
663.1891672425218758
 21
50.3272864217911433
 31
0.0
  0
LINE
  5
47E3
  8
0
 10
663.1891672425218758
 20
50.3272864217911433
 30
0.0
 11
663.1627631228460586
 21
50.5823265566237694
 31
0.0
  0
ARC
  5
47E4
  8
0
 10
663.238993675392976
 20
50.3313665912635884
 30
0.0
 40
0.0499931359272518
 50
184.681368549033408
 51
213.1224105305406056
  0
ARC
  5
47E5
  8
0
 10
663.2210794433719911
 20
50.3196784631678327
 30
0.0
 40
0.0286031371595599
 50
213.1224105305367118
 51
256.861074421003309
  0
LINE
  5
47E6
  8
0
 10
660.093596203221864
 20
51.553780552391153
 30
0.0
 11
660.1900151108904993
 21
50.6456553929639028
 31
0.0
  0
LINE
  5
47E7
  8
0
 10
660.1900151108904993
 20
50.6456553929639028
 30
0.0
 11
660.1896807436219206
 21
51.6990142108911428
 31
0.0
  0
ARC
  5
47E8
  8
0
 10
660.2200846686290561
 20
50.650633081625891
 30
0.0
 40
0.030478774368567
 50
189.3994541102617859
 51
268.7116396354750805
  0
LINE
  5
47E9
  8
0
 10
660.2193993766903759
 20
50.6201620123638989
 30
0.0
 11
660.2612629354905494
 21
50.6201620123638989
 31
0.0
  0
ARC
  5
47EA
  8
0
 10
660.2617453141443775
 20
50.6501691163931014
 30
0.0
 40
0.0300109810133689
 50
269.0790220684610858
 51
0.2690043197883446
  0
LINE
  5
47EB
  8
0
 10
660.2917559643904042
 20
50.6503100177638927
 30
0.0
 11
660.2916179113218504
 21
51.6808085901911483
 31
0.0
  0
ARC
  5
47EC
  8
0
 10
660.5705776123083979
 20
51.6681482780674628
 30
0.0
 40
0.2792468411237063
 50
158.8672395550046019
 51
177.4014703973458893
  0
ARC
  5
47ED
  8
0
 10
661.4970805945340544
 20
51.3025009566371466
 30
0.0
 40
1.2752864665776771
 50
153.2158546898484985
 51
158.5516498440524913
  0
LINE
  5
47EE
  8
0
 10
660.3586189121218695
 20
51.8771839731911584
 30
0.0
 11
660.1389795369218518
 21
51.8783064946911381
 31
0.0
  0
ARC
  5
47EF
  8
0
 10
659.4384111808445823
 20
51.548989458817033
 30
0.0
 40
0.7741096380058535
 50
16.5656526887470399
 51
25.1768676662248296
  0
ARC
  5
47F0
  8
0
 10
659.9431463101689133
 20
51.7025639835153683
 30
0.0
 40
0.2465599881645391
 50
359.1750728977273184
 51
15.8003434661432607
  0
ARC
  5
47F1
  8
0
 10
659.3364736160075381
 20
51.88218942338451
 30
0.0
 40
0.8025153146437657
 50
352.0202854555557224
 51
359.7227762632364261
  0
ARC
  5
47F2
  8
0
 10
660.0326326105703174
 20
51.7846025525122684
 30
0.0
 40
0.0995497798736794
 50
326.475648807871778
 51
352.0199629454264141
  0
LINE
  5
47F3
  8
0
 10
660.1156224009217794
 20
51.7296220707911516
 30
0.0
 11
660.0562104478218544
 21
51.7030399119911408
 31
0.0
  0
ARC
  5
47F4
  8
0
 10
660.0919129425385563
 20
51.6232437239681303
 30
0.0
 40
0.0874191040448262
 50
114.104747299434095
 51
125.8092768824043048
  0
ARC
  5
47F5
  8
0
 10
660.0539889734272947
 20
51.6758718116978528
 30
0.0
 40
0.0225504848272616
 50
125.9031526842963018
 51
170.9380309032601133
  0
LINE
  5
47F6
  8
0
 10
660.0317199509219108
 20
51.6794235721911477
 30
0.0
 11
660.0317607574218073
 21
51.6114060431911525
 31
0.0
  0
ARC
  5
47F7
  8
0
 10
660.0306377757758582
 20
51.5482117902005683
 30
0.0
 40
0.0632042300705915
 50
5.0547381674044001
 51
88.9819432259744474
  0
ARC
  5
47F8
  8
0
 10
659.2916925134052235
 20
51.8579248222593421
 30
0.0
 40
1.0671002085901471
 50
353.0253284664051989
 51
1.034137161235247
  0
LINE
  5
47F9
  8
0
 10
660.3508961045218939
 20
51.7283462447911404
 30
0.0
 11
660.3310401984218743
 21
51.7013382367911518
 31
0.0
  0
ARC
  5
47FA
  8
0
 10
660.3642234286664916
 20
51.6769423944975799
 30
0.0
 40
0.0411859671572331
 50
143.6771995639207091
 51
179.0366539871446889
  0
LINE
  5
47FB
  8
0
 10
660.3230432829218444
 20
51.6776348445911466
 30
0.0
 11
660.3230661232219063
 21
51.609424021891158
 31
0.0
  0
ARC
  5
47FC
  8
0
 10
660.3836836090700899
 20
51.5393337815920631
 30
0.0
 40
0.0926667220513844
 50
130.854861667444311
 51
173.3635211077314864
  0
LINE
  5
47FD
  8
0
 10
662.682572302687845
 20
50.3484193900273524
 30
0.0
 11
661.1218210399218833
 21
50.3843152630911391
 31
0.0
  0
ARC
  5
47FE
  8
0
 10
661.1044623202724324
 20
49.6295587604476083
 30
0.0
 40
0.7549560937104725
 50
88.6824809568247616
 51
103.9094705820871951
  0
ARC
  5
47FF
  8
0
 10
661.1015514434852776
 20
49.641312735979767
 30
0.0
 40
0.7428470415394756
 50
103.9094705820871951
 51
118.8720366222255933
  0
LINE
  5
4800
  8
0
 10
662.7140804955572548
 20
50.3204061602450423
 30
0.0
 11
660.9392461738588054
 21
50.366214941033121
 31
0.0
  0
LINE
  5
4801
  8
0
 10
660.2917541365757188
 20
50.6175564021318678
 30
0.0
 11
660.2917537432074369
 21
50.585856997731959
 31
0.0
  0
LINE
  5
4802
  8
0
 10
660.2917537432074369
 20
50.585856997731959
 30
0.0
 11
660.2906827981785227
 21
50.6175546481301026
 31
0.0
  0
LINE
  5
4803
  8
0
 10
660.1863679713851525
 20
50.6185153340230301
 30
0.0
 11
660.1900580725160808
 21
50.5833796287554165
 31
0.0
  0
LINE
  5
4804
  8
0
 10
660.1900580725160808
 20
50.5833796287554165
 30
0.0
 11
660.1900549345806439
 21
50.618443186122299
 31
0.0
  0
ARC
  5
4805
  8
0
 10
660.2198813613957782
 20
50.586514540060243
 30
0.0
 40
0.029987601246064
 50
186.0006789997206909
 51
269.1523976073809763
  0
ARC
  5
4806
  8
0
 10
660.2617565401219508
 20
50.5858619838911778
 30
0.0
 40
0.0299972035000054
 50
269.0772982510105749
 51
359.9904762495561954
  0
LINE
  5
4807
  8
0
 10
660.2612734805317132
 20
50.5558686701153803
 30
0.0
 11
660.2194377574219288
 21
50.5565302200911617
 31
0.0
  0
LINE
  5
4808
  8
0
 10
660.1867974874428455
 20
50.5553431629451211
 30
0.0
 11
660.1900658502584065
 21
50.524226116341012
 31
0.0
  0
LINE
  5
4809
  8
0
 10
660.1900658502584065
 20
50.524226116341012
 30
0.0
 11
660.190060029602364
 21
50.5552745722684378
 31
0.0
  0
LINE
  5
480A
  8
0
 10
660.2908424577483402
 20
50.5536616589371306
 30
0.0
 11
660.2917512927408552
 21
50.5266083105600572
 31
0.0
  0
LINE
  5
480B
  8
0
 10
660.2917512927408552
 20
50.5266083105600572
 30
0.0
 11
660.2917514399980519
 21
50.5536515706104623
 31
0.0
  0
ARC
  5
480C
  8
0
 10
660.2198952973219548
 20
50.5273715985911593
 30
0.0
 40
0.0299948324000087
 50
186.0195311177234032
 51
269.0193304477868992
  0
ARC
  5
480D
  8
0
 10
660.2617504885218978
 20
50.5266147025911607
 30
0.0
 40
0.0300008048999975
 50
268.9851742628960096
 51
359.987792447304912
  0
LINE
  5
480E
  8
0
 10
660.2193819334595446
 20
50.4973811596439077
 30
0.0
 11
660.2612191405352178
 21
50.4966186034453415
 31
0.0
  0
LINE
  5
480F
  8
0
 10
660.1876372358867684
 20
50.4962356584896881
 30
0.0
 11
660.1900757647840692
 21
50.4730228561697629
 31
0.0
  0
LINE
  5
4810
  8
0
 10
660.1900757647840692
 20
50.4730228561697629
 30
0.0
 11
660.1900665926748388
 21
50.4961682014218667
 31
0.0
  0
LINE
  5
4811
  8
0
 10
660.2911349551563944
 20
50.4938705232701679
 30
0.0
 11
660.2917479256973365
 21
50.4752883729952089
 31
0.0
  0
LINE
  5
4812
  8
0
 10
660.2917479256973365
 20
50.4752883729952089
 30
0.0
 11
660.2917486770320465
 21
50.4938596052904032
 31
0.0
  0
ARC
  5
4813
  8
0
 10
660.2617487488219012
 20
50.4753093363911489
 30
0.0
 40
0.0299991842000011
 50
268.8117373455033885
 51
359.9599617709009181
  0
ARC
  5
4814
  8
0
 10
660.219904421821866
 20
50.4761863067911634
 30
0.0
 40
0.0299959363999988
 50
186.0538218366033902
 51
268.8332964787006745
  0
LINE
  5
4815
  8
0
 10
660.2192936622428761
 20
50.446196588999058
 30
0.0
 11
660.2611266374680099
 21
50.4453166034358276
 31
0.0
  0
LINE
  5
4816
  8
0
 10
660.291757053371839
 20
50.4428466910036235
 30
0.0
 11
660.2916186317218035
 21
50.3263298458911521
 31
0.0
  0
ARC
  5
4817
  8
0
 10
660.252002425485216
 20
50.3263769098210787
 30
0.0
 40
0.0396162341926241
 50
323.6022741988198845
 51
359.9319328239614038
  0
ARC
  5
4818
  8
0
 10
660.2608733048800786
 20
50.3205759407703681
 30
0.0
 40
0.0290397774000307
 50
278.0752006068964874
 51
322.4291126773958922
  0
LINE
  5
4819
  8
0
 10
660.1767842551230387
 20
50.4457547547808289
 30
0.0
 11
660.189682563921906
 21
50.3221196646911366
 31
0.0
  0
LINE
  5
481A
  8
0
 10
660.189682563921906
 20
50.3221196646911366
 30
0.0
 11
660.1901305165873737
 21
50.4453604369807707
 31
0.0
  0
ARC
  5
481B
  8
0
 10
660.2268233101161741
 20
50.3254697095947634
 30
0.0
 40
0.0372915248915001
 50
185.1540543096020883
 51
220.437875500783008
  0
ARC
  5
481C
  8
0
 10
660.2190687672483591
 20
50.3188612322324502
 30
0.0
 40
0.027103055519773
 50
220.437875500783008
 51
266.0028073557513721
  0
LINE
  5
481D
  8
0
 10
669.0935725628219188
 20
51.4907673078911614
 30
0.0
 11
669.1900120874496452
 21
50.5704789084823005
 31
0.0
  0
LINE
  5
481E
  8
0
 10
669.1900120874496452
 20
50.5704789084823005
 30
0.0
 11
669.189657103221748
 21
51.6360009663911512
 31
0.0
  0
ARC
  5
481F
  8
0
 10
669.2200816451884293
 20
50.5754565971442887
 30
0.0
 40
0.030478774368567
 50
189.3994541102617859
 51
268.7116396354750805
  0
LINE
  5
4820
  8
0
 10
669.2193963532497492
 20
50.5449855278823108
 30
0.0
 11
669.2612599120498089
 21
50.5449855278823108
 31
0.0
  0
ARC
  5
4821
  8
0
 10
669.2617422907037508
 20
50.5749926319114991
 30
0.0
 40
0.0300109810133689
 50
269.0790220684610858
 51
0.2690043197883446
  0
LINE
  5
4822
  8
0
 10
669.2917529409497774
 20
50.5751335332822904
 30
0.0
 11
669.2915942709219053
 21
51.6177953456911496
 31
0.0
  0
ARC
  5
4823
  8
0
 10
669.5705539719084527
 20
51.6051350335674783
 30
0.0
 40
0.2792468411237063
 50
158.8672395550046019
 51
177.4014703973458893
  0
ARC
  5
4824
  8
0
 10
670.4970569541338818
 20
51.2394877121371621
 30
0.0
 40
1.2752864665776771
 50
153.2158546898484985
 51
158.5516498440524913
  0
LINE
  5
4825
  8
0
 10
669.3585952717219243
 20
51.8141707286911526
 30
0.0
 11
669.1389552741218267
 21
51.8152900279911606
 31
0.0
  0
ARC
  5
4826
  8
0
 10
668.438712170629401
 20
51.4860862121375007
 30
0.0
 40
0.77376712023783
 50
16.5646992740296284
 51
25.1795262051612987
  0
ARC
  5
4827
  8
0
 10
668.9431226697688544
 20
51.6395507390153909
 30
0.0
 40
0.2465599881645391
 50
359.1750728977273184
 51
15.8003434661432607
  0
ARC
  5
4828
  8
0
 10
668.3365836408892164
 20
51.8191620023631287
 30
0.0
 40
0.8023809755982497
 50
352.0199629454280057
 51
359.7235120751092836
  0
ARC
  5
4829
  8
0
 10
669.0326089701701449
 20
51.7215893080122697
 30
0.0
 40
0.0995497798736794
 50
326.475648807871778
 51
352.0199629454264141
  0
LINE
  5
482A
  8
0
 10
669.1155987605218343
 20
51.6666088262911387
 30
0.0
 11
669.0561868074219092
 21
51.6400266674911634
 31
0.0
  0
ARC
  5
482B
  8
0
 10
669.0918893021386111
 20
51.5602304794681388
 30
0.0
 40
0.0874191040448262
 50
114.104747299434095
 51
125.8092768824043048
  0
ARC
  5
482C
  8
0
 10
669.0539653330272358
 20
51.6128585671978328
 30
0.0
 40
0.0225504848272616
 50
125.9031526842963018
 51
170.9380309032601133
  0
LINE
  5
482D
  8
0
 10
669.031696310521852
 20
51.6164103276911419
 30
0.0
 11
669.0317371170219758
 21
51.5483927986911468
 31
0.0
  0
ARC
  5
482E
  8
0
 10
669.0306141353757994
 20
51.4851985457005696
 30
0.0
 40
0.0632042300705915
 50
5.0547381674044001
 51
88.9819432259744474
  0
ARC
  5
482F
  8
0
 10
668.2916688730051646
 20
51.7949115777593576
 30
0.0
 40
1.0671002085901471
 50
353.0253284664051989
 51
1.034137161235247
  0
LINE
  5
4830
  8
0
 10
669.3508724641219487
 20
51.6653330002911488
 30
0.0
 11
669.3310165580219291
 21
51.6383249922911602
 31
0.0
  0
ARC
  5
4831
  8
0
 10
669.3641997882664327
 20
51.6139291499976025
 30
0.0
 40
0.0411859671572331
 50
143.6771995639207091
 51
179.0366539871446889
  0
LINE
  5
4832
  8
0
 10
669.3230196425217855
 20
51.6146216000911409
 30
0.0
 11
669.3230424828218474
 21
51.546410777391138
 31
0.0
  0
ARC
  5
4833
  8
0
 10
669.3836599686701447
 20
51.4763205370920502
 30
0.0
 40
0.0926667220513844
 50
130.854861667444311
 51
173.3635211077314864
  0
LINE
  5
4834
  8
0
 10
672.0935627663218384
 20
51.4902044308911471
 30
0.0
 11
672.1900022909496784
 21
50.5699160314823004
 31
0.0
  0
LINE
  5
4835
  8
0
 10
672.1900022909496784
 20
50.5699160314823004
 30
0.0
 11
672.1896473067218949
 21
51.6354380893911582
 31
0.0
  0
ARC
  5
4836
  8
0
 10
672.2200718486883488
 20
50.5748937201443027
 30
0.0
 40
0.030478774368567
 50
189.3994541102617859
 51
268.7116396354750805
  0
LINE
  5
4837
  8
0
 10
672.2193865567496687
 20
50.5444226508823107
 30
0.0
 11
672.2612501155497284
 21
50.5444226508823107
 31
0.0
  0
ARC
  5
4838
  8
0
 10
672.261732494203784
 20
50.5744297549114989
 30
0.0
 40
0.0300109810133689
 50
269.0790220684610858
 51
0.2690043197883446
  0
LINE
  5
4839
  8
0
 10
672.2917431444498106
 20
50.5745706562823116
 30
0.0
 11
672.2915844744219385
 21
51.6172324686911494
 31
0.0
  0
ARC
  5
483A
  8
0
 10
672.5705441754084859
 20
51.6045721565674711
 30
0.0
 40
0.2792468411237063
 50
158.8672395550046019
 51
177.4014703973458893
  0
ARC
  5
483B
  8
0
 10
673.4970471576340287
 20
51.2389248351371478
 30
0.0
 40
1.2752864665776771
 50
153.2158546898484985
 51
158.5516498440524913
  0
LINE
  5
483C
  8
0
 10
672.3585854752218438
 20
51.8136078516911596
 30
0.0
 11
672.1389454776218599
 21
51.8147271509911533
 31
0.0
  0
ARC
  5
483D
  8
0
 10
671.4387023741295479
 20
51.4855233351374721
 30
0.0
 40
0.7737671202378785
 50
16.5646992740296284
 51
25.1795262051612987
  0
ARC
  5
483E
  8
0
 10
671.9431128732687739
 20
51.6389878620153908
 30
0.0
 40
0.2465599881645391
 50
359.1750728977273184
 51
15.8003434661432607
  0
ARC
  5
483F
  8
0
 10
671.3365738443892496
 20
51.8185991253631215
 30
0.0
 40
0.8023809755982497
 50
352.0199629454280057
 51
359.7235120751092836
  0
ARC
  5
4840
  8
0
 10
672.0325991736700644
 20
51.7210264310122625
 30
0.0
 40
0.0995497798736794
 50
326.475648807871778
 51
352.0199629454264141
  0
LINE
  5
4841
  8
0
 10
672.1155889640218675
 20
51.6660459492911528
 30
0.0
 11
672.0561770109218287
 21
51.639463790491142
 31
0.0
  0
ARC
  5
4842
  8
0
 10
672.0918795056386443
 20
51.5596676024681386
 30
0.0
 40
0.0874191040448262
 50
114.104747299434095
 51
125.8092768824043048
  0
ARC
  5
4843
  8
0
 10
672.0539555365271553
 20
51.6122956901978398
 30
0.0
 40
0.0225504848272616
 50
125.9031526842963018
 51
170.9380309032601133
  0
LINE
  5
4844
  8
0
 10
672.0316865140218852
 20
51.6158474506911489
 30
0.0
 11
672.0317273205217816
 21
51.5478299216911395
 31
0.0
  0
ARC
  5
4845
  8
0
 10
672.0306043388758326
 20
51.4846356687005766
 30
0.0
 40
0.0632042300705915
 50
5.0547381674044001
 51
88.9819432259744474
  0
ARC
  5
4846
  8
0
 10
671.2916590765053115
 20
51.7943487007593575
 30
0.0
 40
1.0671002085901471
 50
353.0253284664051989
 51
1.034137161235247
  0
LINE
  5
4847
  8
0
 10
672.3508626676218682
 20
51.6647701232911487
 30
0.0
 11
672.3310067615218486
 21
51.637762115291153
 31
0.0
  0
ARC
  5
4848
  8
0
 10
672.3641899917663523
 20
51.6133662729976024
 30
0.0
 40
0.0411859671572331
 50
143.6771995639207091
 51
179.0366539871446889
  0
LINE
  5
4849
  8
0
 10
672.3230098460219324
 20
51.6140587230911407
 30
0.0
 11
672.3230326863219943
 21
51.5458479003911521
 31
0.0
  0
ARC
  5
484A
  8
0
 10
672.3836501721700643
 20
51.4757576600920572
 30
0.0
 40
0.0926667220513844
 50
130.854861667444311
 51
173.3635211077314864
  0
LINE
  5
484B
  8
0
 10
675.0935548108218427
 20
51.500391019991163
 30
0.0
 11
675.189994335449569
 21
50.5801026205822879
 31
0.0
  0
LINE
  5
484C
  8
0
 10
675.189994335449569
 20
50.5801026205822879
 30
0.0
 11
675.1896393512217855
 21
51.6456246784911528
 31
0.0
  0
ARC
  5
484D
  8
0
 10
675.2200638931883532
 20
50.5850803092442973
 30
0.0
 40
0.030478774368567
 50
189.3994541102617859
 51
268.7116396354750805
  0
LINE
  5
484E
  8
0
 10
675.219378601249673
 20
50.5546092399823124
 30
0.0
 11
675.2612421600497328
 21
50.5546092399823124
 31
0.0
  0
ARC
  5
484F
  8
0
 10
675.2617245387035609
 20
50.5846163440115077
 30
0.0
 40
0.0300109810133689
 50
269.0790220684610858
 51
0.2690043197883446
  0
LINE
  5
4850
  8
0
 10
675.291735188949815
 20
50.5847572453822991
 30
0.0
 11
675.2915765189218291
 21
51.6274190577911369
 31
0.0
  0
ARC
  5
4851
  8
0
 10
675.5705362199083766
 20
51.6147587456674728
 30
0.0
 40
0.2792468411237063
 50
158.8672395550046019
 51
177.4014703973458893
  0
ARC
  5
4852
  8
0
 10
676.4970392021340331
 20
51.2491114242371566
 30
0.0
 40
1.2752864665776771
 50
153.2158546898484985
 51
158.5516498440524913
  0
LINE
  5
4853
  8
0
 10
675.3585775197218481
 20
51.8237944407911613
 30
0.0
 11
675.1389375221218643
 21
51.8249137400911408
 31
0.0
  0
ARC
  5
4854
  8
0
 10
674.438694418630007
 20
51.4957099242376088
 30
0.0
 40
0.7737671202373975
 50
16.5646992740313408
 51
25.1795262051667414
  0
ARC
  5
4855
  8
0
 10
674.9431049177687783
 20
51.6491744511153783
 30
0.0
 40
0.2465599881645391
 50
359.1750728977273184
 51
15.8003434661432607
  0
ARC
  5
4856
  8
0
 10
674.336565888889254
 20
51.8287857144631303
 30
0.0
 40
0.8023809755982497
 50
352.0199629454280057
 51
359.7235120751092836
  0
ARC
  5
4857
  8
0
 10
675.0325912181700687
 20
51.7312130201122784
 30
0.0
 40
0.0995497798736794
 50
326.475648807871778
 51
352.0199629454264141
  0
LINE
  5
4858
  8
0
 10
675.1155810085219855
 20
51.6762325383911403
 30
0.0
 11
675.056169055421833
 21
51.6496503795911508
 31
0.0
  0
ARC
  5
4859
  8
0
 10
675.0918715501386487
 20
51.5698541915681403
 30
0.0
 40
0.0874191040448262
 50
114.104747299434095
 51
125.8092768824043048
  0
ARC
  5
485A
  8
0
 10
675.053947581027046
 20
51.6224822792978415
 30
0.0
 40
0.0225504848272616
 50
125.9031526842963018
 51
170.9380309032601133
  0
LINE
  5
485B
  8
0
 10
675.0316785585217758
 20
51.6260340397911506
 30
0.0
 11
675.0317193650218996
 21
51.5580165107911625
 31
0.0
  0
ARC
  5
485C
  8
0
 10
675.0305963833758369
 20
51.494822257800557
 30
0.0
 40
0.0632042300705915
 50
5.0547381674044001
 51
88.9819432259711789
  0
ARC
  5
485D
  8
0
 10
674.2916511210053159
 20
51.8045352898593521
 30
0.0
 40
1.0671002085901471
 50
353.0253284664051989
 51
1.034137161235247
  0
LINE
  5
485E
  8
0
 10
675.3508547121217589
 20
51.6749567123911504
 30
0.0
 11
675.3309988060218529
 21
51.6479487043911618
 31
0.0
  0
ARC
  5
485F
  8
0
 10
675.3641820362663566
 20
51.6235528620975899
 30
0.0
 40
0.0411859671572331
 50
143.6771995639207091
 51
179.0366539871446889
  0
LINE
  5
4860
  8
0
 10
675.3230018905219367
 20
51.6242453121911495
 30
0.0
 11
675.3230247308217713
 21
51.5560344894911466
 31
0.0
  0
ARC
  5
4861
  8
0
 10
675.3836422166701823
 20
51.4859442491920589
 30
0.0
 40
0.0926667220513844
 50
130.854861667444311
 51
173.3635211077314864
  0
LINE
  5
4862
  8
0
 10
678.0935521126218646
 20
51.5207643297911417
 30
0.0
 11
678.190041954421531
 21
50.6086686515431978
 31
0.0
  0
LINE
  5
4863
  8
0
 10
678.190041954421531
 20
50.6086686515431978
 30
0.0
 11
678.1896366530219211
 21
51.6659979882911529
 31
0.0
  0
ARC
  5
4864
  8
0
 10
678.2201115121599742
 20
50.6136463402052001
 30
0.0
 40
0.030478774368567
 50
189.3994541102617859
 51
268.7116396354750805
  0
LINE
  5
4865
  8
0
 10
678.2194262202215214
 20
50.583175270943201
 30
0.0
 11
678.2612897790213538
 21
50.583175270943201
 31
0.0
  0
ARC
  5
4866
  8
0
 10
678.261772157675523
 20
50.6131823749724106
 30
0.0
 40
0.0300109810133689
 50
269.0790220684610858
 51
0.2690043197883446
  0
LINE
  5
4867
  8
0
 10
678.291782807921436
 20
50.613323276343209
 30
0.0
 11
678.291573820721851
 21
51.6477923675911512
 31
0.0
  0
ARC
  5
4868
  8
0
 10
678.5705335217085121
 20
51.6351320554674587
 30
0.0
 40
0.2792468411237063
 50
158.8672395550046019
 51
177.4014703973458893
  0
ARC
  5
4869
  8
0
 10
679.4970365039339413
 20
51.2694847340371425
 30
0.0
 40
1.2752864665776771
 50
153.2158546898484985
 51
158.5516498440524913
  0
LINE
  5
486A
  8
0
 10
678.35857482152187
 20
51.8441677505911684
 30
0.0
 11
678.1389348239217725
 21
51.8452870498911267
 31
0.0
  0
ARC
  5
486B
  8
0
 10
677.4386917204301426
 20
51.5160832340376089
 30
0.0
 40
0.7737671202373158
 50
16.5646992740327015
 51
25.1795262051685818
  0
ARC
  5
486C
  8
0
 10
677.9431022195686865
 20
51.6695477609153784
 30
0.0
 40
0.2465599881645391
 50
359.1750728977273184
 51
15.8003434661432607
  0
ARC
  5
486D
  8
0
 10
677.3365631906892759
 20
51.8491590242631091
 30
0.0
 40
0.8023809755982497
 50
352.0199629454280057
 51
359.7235120751092836
  0
ARC
  5
486E
  8
0
 10
678.0325885199702043
 20
51.7515863299122714
 30
0.0
 40
0.0995497798736794
 50
326.475648807871778
 51
352.0199629454264141
  0
LINE
  5
486F
  8
0
 10
678.11557831032178
 20
51.6966058481911617
 30
0.0
 11
678.0561663572218549
 21
51.6700236893911367
 31
0.0
  0
ARC
  5
4870
  8
0
 10
678.0918688519386706
 20
51.5902275013681333
 30
0.0
 40
0.0874191040448262
 50
114.104747299434095
 51
125.8092768824043048
  0
ARC
  5
4871
  8
0
 10
678.0539448828270679
 20
51.6428555890978487
 30
0.0
 40
0.0225504848272616
 50
125.9031526842963018
 51
170.9380309032601133
  0
LINE
  5
4872
  8
0
 10
678.0316758603219114
 20
51.6464073495911578
 30
0.0
 11
678.0317166668218078
 21
51.5783898205911484
 31
0.0
  0
ARC
  5
4873
  8
0
 10
678.0305936851758588
 20
51.5151955676005713
 30
0.0
 40
0.0632042300705915
 50
5.0547381674044001
 51
88.9819432259711789
  0
ARC
  5
4874
  8
0
 10
677.2916484228052241
 20
51.8249085996593521
 30
0.0
 40
1.0671002085901471
 50
353.0253284664051989
 51
1.034137161235247
  0
LINE
  5
4875
  8
0
 10
678.3508520139218945
 20
51.6953300221911505
 30
0.0
 11
678.3309961078217611
 21
51.6683220141911477
 31
0.0
  0
ARC
  5
4876
  8
0
 10
678.3641793380664922
 20
51.6439261718975899
 30
0.0
 40
0.0411859671572331
 50
143.6771995639207091
 51
179.0366539871446889
  0
LINE
  5
4877
  8
0
 10
678.3229991923218449
 20
51.6446186219911496
 30
0.0
 11
678.3230220326219069
 21
51.5764077992911609
 31
0.0
  0
ARC
  5
4878
  8
0
 10
678.3836395184699768
 20
51.506317558992059
 30
0.0
 40
0.0926667220513844
 50
130.854861667444311
 51
173.3635211077314864
  0
LINE
  5
4879
  8
0
 10
681.0935353191218837
 20
51.5502867423911582
 30
0.0
 11
681.1893460711494299
 21
50.6757690427749807
 31
0.0
  0
LINE
  5
487A
  8
0
 10
681.1892556603218054
 20
50.3390251429911402
 30
0.0
 11
681.1896198595219403
 21
51.695520400891148
 31
0.0
  0
ARC
  5
487B
  8
0
 10
681.2193252180604759
 20
50.3440028316531425
 30
0.0
 40
0.030478774368567
 50
189.3994541102617859
 51
268.7116396354750805
  0
LINE
  5
487C
  8
0
 10
681.2186399261219094
 20
50.3135317623911504
 30
0.0
 11
681.2605034849218555
 21
50.3135317623911504
 31
0.0
  0
ARC
  5
487D
  8
0
 10
681.260985863575911
 20
50.3435388664203387
 30
0.0
 40
0.0300109810133689
 50
269.0790220684610858
 51
0.2690043197883446
  0
LINE
  5
487E
  8
0
 10
681.2909965138219377
 20
50.3436797677911372
 30
0.0
 11
681.2915570272218702
 21
51.6773147801911534
 31
0.0
  0
ARC
  5
487F
  8
0
 10
681.5705167282085313
 20
51.6646544680674822
 30
0.0
 40
0.2792468411237063
 50
158.8672395550046019
 51
177.4014703973458893
  0
ARC
  5
4880
  8
0
 10
682.4970197104338467
 20
51.2990071466371589
 30
0.0
 40
1.2752864665776771
 50
153.2158546898484985
 51
158.5516498440524913
  0
LINE
  5
4881
  8
0
 10
681.3585580280218892
 20
51.8736901631911635
 30
0.0
 11
681.1389180304217916
 21
51.8748094624911715
 31
0.0
  0
ARC
  5
4882
  8
0
 10
680.4386749269290249
 20
51.5456056466373411
 30
0.0
 40
0.7737671202384484
 50
16.5646992740282606
 51
25.1795262051532802
  0
ARC
  5
4883
  8
0
 10
680.9430854260688193
 20
51.6990701735154019
 30
0.0
 40
0.2465599881645391
 50
359.1750728977273184
 51
15.8003434661432607
  0
ARC
  5
4884
  8
0
 10
680.336546397189295
 20
51.8786814368631326
 30
0.0
 40
0.8023809755982497
 50
352.0199629454280057
 51
359.7235120751092836
  0
ARC
  5
4885
  8
0
 10
681.0325717264702234
 20
51.7811087425122807
 30
0.0
 40
0.0995497798736794
 50
326.475648807871778
 51
352.0199629454264141
  0
LINE
  5
4886
  8
0
 10
681.1155615168217992
 20
51.7261282607911426
 30
0.0
 11
681.0561495637218741
 21
51.6995461019911602
 31
0.0
  0
ARC
  5
4887
  8
0
 10
681.0918520584386897
 20
51.6197499139681497
 30
0.0
 40
0.0874191040448262
 50
114.104747299434095
 51
125.8092768824043048
  0
ARC
  5
4888
  8
0
 10
681.0539280893272007
 20
51.6723780016978296
 30
0.0
 40
0.0225504848272616
 50
125.9031526842963018
 51
170.9380309032601133
  0
LINE
  5
4889
  8
0
 10
681.0316590668219305
 20
51.6759297621911529
 30
0.0
 11
681.0316998733219407
 21
51.6079122331911506
 31
0.0
  0
ARC
  5
488A
  8
0
 10
681.0305768916756506
 20
51.5447179802005806
 30
0.0
 40
0.0632042300705915
 50
5.0547381674044001
 51
88.9819432259711789
  0
ARC
  5
488B
  8
0
 10
680.568918670771609
 20
51.8497455462140167
 30
0.0
 40
0.7900023159464542
 50
351.305318808737411
 51
1.736875464294104
  0
LINE
  5
488C
  8
0
 10
681.3498422202219444
 20
51.7303216410911517
 30
0.0
 11
681.3298833390219897
 21
51.7052562588911613
 31
0.0
  0
ARC
  5
488D
  8
0
 10
681.356446362935003
 20
51.683098568303393
 30
0.0
 40
0.0345912921352646
 50
140.1666419070178051
 51
178.9722542078822869
  0
LINE
  5
488E
  8
0
 10
681.321860635621988
 20
51.6837190179911374
 30
0.0
 11
681.3217759673218552
 21
51.644777544391161
 31
0.0
  0
ARC
  5
488F
  8
0
 10
681.3150763771016045
 20
51.5652663430396103
 30
0.0
 40
0.0670746738110081
 50
91.7710898372270236
 51
110.5198933201319988
  0
LINE
  5
4890
  8
0
 10
669.3245358436219021
 20
50.5395250856911389
 30
0.0
 11
672.1605764539218626
 21
50.5395111211911399
 31
0.0
  0
LINE
  5
4891
  8
0
 10
672.3246634127218613
 20
50.539913273891159
 30
0.0
 11
675.1451718177219163
 21
50.5530731238911528
 31
0.0
  0
LINE
  5
4892
  8
0
 10
675.331980080321955
 20
50.5543686194911501
 30
0.0
 11
678.1635466702217627
 21
50.5796399287911527
 31
0.0
  0
LINE
  5
4893
  8
0
 10
678.3321010679219398
 20
50.5815013824911475
 30
0.0
 11
680.1239927043218358
 21
50.6029694347911487
 31
0.0
  0
LINE
  5
4894
  8
0
 10
680.4308170087216467
 20
50.5419910379879269
 30
0.0
 11
678.3321824986219326
 21
50.5114898238911465
 31
0.0
  0
ARC
  5
4895
  8
0
 10
677.5518913998121207
 20
104.1993798432848024
 30
0.0
 40
53.6935600322179027
 50
270.6527812235510737
 51
270.832668954816711
  0
LINE
  5
4896
  8
0
 10
678.1636186481217692
 20
50.509304608591151
 30
0.0
 11
675.3320671353219495
 21
50.4792866477911488
 31
0.0
  0
ARC
  5
4897
  8
0
 10
674.8978228641298074
 20
91.4409306185805661
 30
0.0
 40
40.963945670269247
 50
270.371050147915696
 51
270.6073836300803919
  0
LINE
  5
4898
  8
0
 10
675.1631054379218995
 20
50.4778439424911483
 30
0.0
 11
673.2193051675219522
 21
50.4652894996911527
 31
0.0
  0
ARC
  5
4899
  8
0
 10
673.2230227782043812
 20
49.7139294402331302
 30
0.0
 40
0.751369256476427
 50
90.2834881374559046
 51
129.724884635100608
  0
LINE
  5
489A
  8
0
 10
672.7263090748394916
 20
50.5417872610976033
 30
0.0
 11
672.7384364593219743
 21
50.3256754290911488
 31
0.0
  0
ARC
  5
489B
  8
0
 10
673.1129903270315253
 20
50.3456277921540689
 30
0.0
 40
0.3750849191956456
 50
183.0492455335894135
 51
188.2471858489022907
  0
LINE
  5
489C
  8
0
 10
672.8880921151071561
 20
50.386519367674218
 30
0.0
 11
675.1498629385218919
 21
50.4041020270911417
 31
0.0
  0
ARC
  5
489D
  8
0
 10
674.8769844501941861
 20
85.506221029823493
 30
0.0
 40
35.1031796444620667
 50
270.4453996284544814
 51
270.7429032083899756
  0
LINE
  5
489E
  8
0
 10
675.3321232806218859
 20
50.4059921160911415
 30
0.0
 11
678.166033336621922
 21
50.4426551902911484
 31
0.0
  0
ARC
  5
489F
  8
0
 10
677.7441294462762471
 20
83.0541506419105531
 30
0.0
 40
32.6142244807949169
 50
270.7412099145922753
 51
271.0332496797025215
  0
LINE
  5
48A0
  8
0
 10
678.3322497369218809
 20
50.4452292704911471
 30
0.0
 11
680.5428431738024528
 21
50.4821141348778823
 31
0.0
  0
ARC
  5
48A1
  8
0
 10
680.1343216256888127
 20
49.8525299741138568
 30
0.0
 40
0.750510540071365
 50
35.8260990152990999
 51
90.7885595913830201
  0
LINE
  5
48A2
  8
0
 10
680.6130376910515452
 20
50.4305412192655993
 30
0.0
 11
678.3323409961219568
 21
50.3854369403911377
 31
0.0
  0
ARC
  5
48A3
  8
0
 10
676.7256428783427964
 20
131.6280857181112935
 30
0.0
 40
81.2585346856665751
 50
271.0156756664648015
 51
271.132964320901408
  0
LINE
  5
48A4
  8
0
 10
678.166028097221897
 20
50.3823181379911418
 30
0.0
 11
675.3221948002219506
 21
50.3360434446911427
 31
0.0
  0
ARC
  5
48A5
  8
0
 10
674.841601929894864
 20
79.87110698527772
 30
0.0
 40
29.5389733716914193
 50
270.6244539080370828
 51
270.9322313864387866
  0
LINE
  5
48A6
  8
0
 10
675.1635342318219273
 20
50.3338879650911508
 30
0.0
 11
672.7640012443985142
 21
50.308786558439202
 31
0.0
  0
LINE
  5
48A7
  8
0
 10
674.7453442329043583
 20
50.2918241057911501
 30
0.0
 11
674.7421817972765439
 21
50.3294802162255266
 31
0.0
  0
ARC
  5
48A8
  8
0
 10
669.2342230738745457
 20
46.9603039767912094
 30
0.0
 40
3.580360337001617
 50
88.5545897755588243
 51
91.1820076591020552
  0
ARC
  5
48A9
  8
0
 10
669.2143990685073049
 20
43.89457127245484
 30
0.0
 40
6.5674343617539197
 50
89.152730487188208
 51
90.4712120151007753
  0
ARC
  5
48AA
  8
0
 10
669.2278201270037243
 20
46.3393332287797932
 30
0.0
 40
4.0450758633730199
 50
88.6686039366854715
 51
90.9177401931149944
  0
ARC
  5
48AB
  8
0
 10
669.1993536473972881
 20
41.9611647454818169
 30
0.0
 40
8.3456178443221187
 50
89.0904450484050443
 51
90.3262753078873004
  0
LINE
  5
48AC
  8
0
 10
669.3318325015218306
 20
50.3057310347911297
 30
0.0
 11
671.7281883723176179
 21
50.303574806324562
 31
0.0
  0
LINE
  5
48AD
  8
0
 10
669.3115124015218953
 20
50.4612875824911526
 30
0.0
 11
671.2689065326219406
 21
50.4596506946911632
 31
0.0
  0
ARC
  5
48AE
  8
0
 10
671.268255014916349
 20
49.7039351444762829
 30
0.0
 40
0.7557158310581351
 50
51.0708269891378279
 51
89.9506041584815534
  0
LINE
  5
48AF
  8
0
 10
671.7246025415182658
 20
50.5395132679014765
 30
0.0
 11
671.7453496316691144
 21
50.2918241057911501
 31
0.0
  0
LINE
  5
48B0
  8
0
 10
669.3218080867218305
 20
50.3833170323911474
 30
0.0
 11
671.6034283610290458
 21
50.3812572579256468
 31
0.0
  0
ARC
  5
48B1
  8
0
 10
672.2514769037768474
 20
46.9258775866528666
 30
0.0
 40
3.6147766478336401
 50
88.8398827850162291
 51
91.440963498736906
  0
ARC
  5
48B2
  8
0
 10
675.1507405285283312
 20
63.2194391475254065
 30
0.0
 40
12.6663672477635103
 50
269.9748101700695884
 51
270.8198574676567887
  0
LINE
  5
48B3
  8
0
 10
669.1850124545655945
 20
50.537423435287387
 30
0.0
 11
669.1900217475219961
 21
50.4897631960911397
 31
0.0
  0
LINE
  5
48B4
  8
0
 10
669.1900217475219961
 20
50.4897631960911397
 30
0.0
 11
669.1902576277313983
 21
50.5373870185439387
 31
0.0
  0
ARC
  5
48B5
  8
0
 10
669.2200913052604392
 20
50.4947408847531491
 30
0.0
 40
0.030478774368567
 50
189.3994541102617859
 51
268.7116396354750805
  0
LINE
  5
48B6
  8
0
 10
669.2194060133218727
 20
50.46426981549115
 30
0.0
 11
669.2612695721219325
 21
50.46426981549115
 31
0.0
  0
ARC
  5
48B7
  8
0
 10
669.2617519507758743
 20
50.4942769195203596
 30
0.0
 40
0.0300109810133689
 50
269.0790220684610858
 51
0.2690043197883446
  0
LINE
  5
48B8
  8
0
 10
669.291762601021901
 20
50.4944178208911509
 30
0.0
 11
669.2917608543535835
 21
50.5366904257309102
 31
0.0
  0
LINE
  5
48B9
  8
0
 10
669.1850053362655899
 20
50.4594419507873795
 30
0.0
 11
669.1900146292217642
 21
50.4117817115911393
 31
0.0
  0
LINE
  5
48BA
  8
0
 10
669.1900146292217642
 20
50.4117817115911393
 30
0.0
 11
669.1902505094315075
 21
50.4594055340439169
 31
0.0
  0
ARC
  5
48BB
  8
0
 10
669.2200841869605483
 20
50.4167594002531416
 30
0.0
 40
0.030478774368567
 50
189.3994541102617859
 51
268.7116396354750805
  0
LINE
  5
48BC
  8
0
 10
669.2193988950218682
 20
50.3862883309911567
 30
0.0
 11
669.2612624538219279
 21
50.3862883309911567
 31
0.0
  0
ARC
  5
48BD
  8
0
 10
669.2617448324757561
 20
50.4162954350203378
 30
0.0
 40
0.0300109810133689
 50
269.0790220684610858
 51
0.2690043197883446
  0
LINE
  5
48BE
  8
0
 10
669.2917554827218964
 20
50.4164363363911505
 30
0.0
 11
669.2917537360536926
 21
50.4587089412309027
 31
0.0
  0
LINE
  5
48BF
  8
0
 10
669.1850152268655165
 20
50.3819238472873892
 30
0.0
 11
669.1900245198219181
 21
50.334263608091149
 31
0.0
  0
LINE
  5
48C0
  8
0
 10
669.1900245198219181
 20
50.334263608091149
 30
0.0
 11
669.1902604000314341
 21
50.3818874305439408
 31
0.0
  0
ARC
  5
48C1
  8
0
 10
669.2200940775603613
 20
50.3392412967531584
 30
0.0
 40
0.030478774368567
 50
189.3994541102617859
 51
268.7116396354750805
  0
LINE
  5
48C2
  8
0
 10
669.2194087856217948
 20
50.3087702274911521
 30
0.0
 11
669.2612723444218545
 21
50.3087702274911521
 31
0.0
  0
ARC
  5
48C3
  8
0
 10
669.2617547230759101
 20
50.3387773315203617
 30
0.0
 40
0.0300109810133689
 50
269.0790220684610858
 51
0.2690043197883446
  0
LINE
  5
48C4
  8
0
 10
669.2917653733219367
 20
50.3389182328911602
 30
0.0
 11
669.2917636266538466
 21
50.3811908377309123
 31
0.0
  0
LINE
  5
48C5
  8
0
 10
672.1672444592015836
 20
50.5396726983054805
 30
0.0
 11
672.1897313450218689
 21
50.3173174863911399
 31
0.0
  0
LINE
  5
48C6
  8
0
 10
672.1897313450218689
 20
50.3173174863911399
 30
0.0
 11
672.1907933674432343
 21
50.5401448321870816
 31
0.0
  0
ARC
  5
48C7
  8
0
 10
672.2198009027604257
 20
50.3222951750531422
 30
0.0
 40
0.030478774368567
 50
189.3994541102617859
 51
268.7116396357390045
  0
ARC
  5
48C8
  8
0
 10
672.2614615482758609
 20
50.3218312098203384
 30
0.0
 40
0.0300109810133689
 50
270.9209779315356172
 51
0.2690043197883446
  0
LINE
  5
48C9
  8
0
 10
672.2914721985218875
 20
50.3219721111911511
 30
0.0
 11
672.2914635192620381
 21
50.5404330619921822
 31
0.0
  0
LINE
  5
48CA
  8
0
 10
675.1884051567468532
 20
50.3341695107300211
 30
0.0
 11
675.1900482516321063
 21
50.3185365070436674
 31
0.0
  0
LINE
  5
48CB
  8
0
 10
675.1900482516321063
 20
50.3185365070436674
 30
0.0
 11
675.1901257820187539
 21
50.334189763299463
 31
0.0
  0
ARC
  5
48CC
  8
0
 10
675.2201178093707767
 20
50.3235141957056769
 30
0.0
 40
0.030478774368567
 50
189.3994541102617859
 51
268.7116396354750805
  0
LINE
  5
48CD
  8
0
 10
675.2194325174320966
 20
50.2930431264436706
 30
0.0
 11
675.2612960762321563
 21
50.2930431264436706
 31
0.0
  0
ARC
  5
48CE
  8
0
 10
675.2617784548860982
 20
50.3230502304728873
 30
0.0
 40
0.0300109810133689
 50
269.0790220684610858
 51
0.2690043197883446
  0
LINE
  5
48CF
  8
0
 10
675.2917891051321249
 20
50.3231911318436786
 30
0.0
 11
675.2917885938820746
 21
50.3355643320427433
 31
0.0
  0
LINE
  5
48D0
  8
0
 10
675.1857046719666187
 20
50.4043989549504516
 30
0.0
 11
675.1900444396205785
 21
50.3631088235387665
 31
0.0
  0
LINE
  5
48D1
  8
0
 10
675.1900444396205785
 20
50.3631088235387665
 30
0.0
 11
675.1902491485573137
 21
50.4044392177824534
 31
0.0
  0
ARC
  5
48D2
  8
0
 10
675.220113997359249
 20
50.3680865122007688
 30
0.0
 40
0.030478774368567
 50
189.3994541102617859
 51
268.7116396354750805
  0
LINE
  5
48D3
  8
0
 10
675.2194287054204551
 20
50.3376154429387768
 30
0.0
 11
675.2612922642206286
 21
50.3376154429387768
 31
0.0
  0
ARC
  5
48D4
  8
0
 10
675.2617746428745704
 20
50.3676225469679792
 30
0.0
 40
0.0300109810133689
 50
269.0790220684610858
 51
0.2690043197883446
  0
LINE
  5
48D5
  8
0
 10
675.2917852931207108
 20
50.3677634483387777
 30
0.0
 11
675.2917837341997256
 21
50.4054922239231189
 31
0.0
  0
LINE
  5
48D6
  8
0
 10
675.1853311940654976
 20
50.4779939094408121
 30
0.0
 11
675.1900413788363267
 21
50.4331794945533503
 31
0.0
  0
LINE
  5
48D7
  8
0
 10
675.1900413788363267
 20
50.4331794945533503
 30
0.0
 11
675.190263517021549
 21
50.4780288251125171
 31
0.0
  0
ARC
  5
48D8
  8
0
 10
675.2201109365747698
 20
50.4381571832153597
 30
0.0
 40
0.030478774368567
 50
189.3994541102617859
 51
268.7116396354750805
  0
LINE
  5
48D9
  8
0
 10
675.2194256446364307
 20
50.4076861139533605
 30
0.0
 11
675.2612892034362631
 21
50.4076861139533605
 31
0.0
  0
ARC
  5
48DA
  8
0
 10
675.2617715820903186
 20
50.4376932179825701
 30
0.0
 40
0.0300109810133689
 50
269.0790220684610858
 51
0.2690043197883446
  0
LINE
  5
48DB
  8
0
 10
675.2917822323363453
 20
50.4378341193533615
 30
0.0
 11
675.2917805363813386
 21
50.4788793731992484
 31
0.0
  0
LINE
  5
48DC
  8
0
 10
675.185166488838604
 20
50.5531186830624506
 30
0.0
 11
675.1900392305708465
 21
50.5067576419881021
 31
0.0
  0
LINE
  5
48DD
  8
0
 10
675.1900392305708465
 20
50.5067576419881021
 30
0.0
 11
675.1902689300178508
 21
50.5531335787854914
 31
0.0
  0
ARC
  5
48DE
  8
0
 10
675.2201087883094033
 20
50.5117353306501116
 30
0.0
 40
0.030478774368567
 50
189.3994541102617859
 51
268.7116396354750805
  0
LINE
  5
48DF
  8
0
 10
675.2194234963708368
 20
50.4812642613881124
 30
0.0
 11
675.2612870551707829
 21
50.4812642613881124
 31
0.0
  0
ARC
  5
48E0
  8
0
 10
675.2617694338248384
 20
50.5112713654173078
 30
0.0
 40
0.0300109810133689
 50
269.0790220684610858
 51
0.2690043197883446
  0
LINE
  5
48E1
  8
0
 10
675.2917800840707514
 20
50.5114122667881205
 30
0.0
 11
675.2917783302846146
 21
50.5538571398286365
 31
0.0
  0
LINE
  5
48E2
  8
0
 10
678.1879288612965411
 20
50.3827093637259225
 30
0.0
 11
678.1900540486825548
 21
50.3624895562527684
 31
0.0
  0
LINE
  5
48E3
  8
0
 10
678.1900540486825548
 20
50.3624895562527684
 30
0.0
 11
678.1901543956894329
 21
50.3827494502538897
 31
0.0
  0
ARC
  5
48E4
  8
0
 10
678.2201236064211116
 20
50.3674672449147565
 30
0.0
 40
0.030478774368567
 50
189.3994541102617859
 51
268.7116396354750805
  0
LINE
  5
48E5
  8
0
 10
678.2194383144825451
 20
50.3369961756527928
 30
0.0
 11
678.2613018732826049
 21
50.3369961756527928
 31
0.0
  0
ARC
  5
48E6
  8
0
 10
678.2617842519365468
 20
50.3670032796819669
 30
0.0
 40
0.0300109810133689
 50
269.0790220684610858
 51
0.2690043197883446
  0
LINE
  5
48E7
  8
0
 10
678.2917949021824597
 20
50.3671441810527583
 30
0.0
 11
678.2917941790558416
 21
50.3846451867986218
 31
0.0
  0
LINE
  5
48E8
  8
0
 10
678.1867539089990942
 20
50.4429298418748431
 30
0.0
 11
678.1900500770376539
 21
50.4115688976207466
 31
0.0
  0
LINE
  5
48E9
  8
0
 10
678.1900500770376539
 20
50.4115688976207466
 30
0.0
 11
678.1902056403608867
 21
50.4429768741242412
 31
0.0
  0
ARC
  5
48EA
  8
0
 10
678.220119634776438
 20
50.4165465862827631
 30
0.0
 40
0.030478774368567
 50
189.3994541102617859
 51
268.7116396354750805
  0
LINE
  5
48EB
  8
0
 10
678.2194343428376442
 20
50.386075517020771
 30
0.0
 11
678.2612979016378176
 21
50.386075517020771
 31
0.0
  0
ARC
  5
48EC
  8
0
 10
678.2617802802916458
 20
50.4160826210499735
 30
0.0
 40
0.0300109810133689
 50
269.0790220684610858
 51
0.2690043197883446
  0
LINE
  5
48ED
  8
0
 10
678.2917909305376725
 20
50.4162235224207578
 30
0.0
 11
678.291789761158725
 21
50.4445246602592974
 31
0.0
  0
LINE
  5
48EE
  8
0
 10
678.1860871181995662
 20
50.5095653090161107
 30
0.0
 11
678.1900466085820653
 21
50.4718932741853479
 31
0.0
  0
LINE
  5
48EF
  8
0
 10
678.1900466085820653
 20
50.4718932741853479
 30
0.0
 11
678.1902334410864341
 21
50.5096144464074186
 31
0.0
  0
ARC
  5
48F0
  8
0
 10
678.2201161663208495
 20
50.4768709628473573
 30
0.0
 40
0.030478774368567
 50
189.3994541102617859
 51
268.7116396354750805
  0
LINE
  5
48F1
  8
0
 10
678.2194308743821693
 20
50.446399893585351
 30
0.0
 11
678.2612944331822291
 21
50.446399893585351
 31
0.0
  0
ARC
  5
48F2
  8
0
 10
678.2617768118360573
 20
50.4764069976145606
 30
0.0
 40
0.0300109810133689
 50
269.0790220684610858
 51
0.2690043197883446
  0
LINE
  5
48F3
  8
0
 10
678.2917874620821976
 20
50.4765478989853591
 30
0.0
 11
678.2917860419424869
 21
50.5109179091602911
 31
0.0
  0
LINE
  5
48F4
  8
0
 10
678.1856785991551533
 20
50.5800341769066222
 30
0.0
 11
678.1900439839048431
 21
50.5385003151080525
 31
0.0
  0
LINE
  5
48F5
  8
0
 10
678.1900439839048431
 20
50.5385003151080525
 30
0.0
 11
678.1902500759961185
 21
50.5801099659480684
 31
0.0
  0
ARC
  5
48F6
  8
0
 10
678.2201135416435136
 20
50.5434780037700619
 30
0.0
 40
0.030478774368567
 50
189.3994541102617859
 51
268.7116396354750805
  0
LINE
  5
48F7
  8
0
 10
678.2194282497048334
 20
50.5130069345080699
 30
0.0
 11
678.2612918085048932
 21
50.5130069345080699
 31
0.0
  0
ARC
  5
48F8
  8
0
 10
678.261774187158835
 20
50.5430140385372724
 30
0.0
 40
0.0300109810133689
 50
269.0790220684610858
 51
0.2690043197883446
  0
LINE
  5
48F9
  8
0
 10
678.291784837404748
 20
50.5431549399080566
 30
0.0
 11
678.2917832614839426
 21
50.5812951476765704
 31
0.0
  0
ARC
  5
48FA
  8
0
 10
678.3672734584666841
 20
39.7644254052871418
 30
0.0
 40
10.8171331596528209
 50
90.1863001088098031
 51
91.0791561077560345
  0
LINE
  5
48FB
  8
0
 10
675.5392982611039088
 20
50.3395761398309389
 30
0.0
 11
675.5410426456219284
 21
50.3192959317911388
 31
0.0
  0
ARC
  5
48FC
  8
0
 10
675.5764988861066058
 20
50.3223456695870297
 30
0.0
 40
0.035587159059695
 50
184.9161467203020948
 51
239.054481674080705
  0
ARC
  5
48FD
  8
0
 10
675.6380728181809445
 20
50.7690670372869022
 30
0.0
 40
0.4776408659869854
 50
272.3389602431195158
 51
297.3326449047377764
  0
LINE
  5
48FE
  8
0
 10
676.2139749234393094
 20
50.2918241057911501
 30
0.0
 11
678.1577546109218702
 21
50.3332508810911534
 31
0.0
  0
ARC
  5
48FF
  8
0
 10
676.2665031274312923
 20
139.0723861603628109
 30
0.0
 40
88.7592866256071318
 50
271.2209306020561144
 51
271.3189340152048885
  0
ARC
  5
4900
  8
0
 10
652.6762320445257046
 20
125.4177452582857057
 30
0.0
 40
0.1248825629406399
 50
90.0283943685490442
 51
134.9811033257003032
  0
LINE
  5
4901
  8
0
 10
686.6383369903219318
 20
125.850334569591098
 30
0.0
 11
680.1520562694219052
 21
125.5104030011910936
 31
0.0
  0
ARC
  5
4902
  8
0
 10
680.1644933911501312
 20
125.2607369837952973
 30
0.0
 40
0.2499756032878986
 50
92.8518339193787057
 51
136.5033570417703004
  0
LINE
  5
4903
  8
0
 10
679.9831574135217807
 20
125.4327982096911001
 30
0.0
 11
678.9326033504218003
 21
124.3249222461910932
 31
0.0
  0
LINE
  5
4904
  8
0
 10
652.6761701558244795
 20
125.5426278058911009
 30
0.0
 11
677.556564247503502
 21
125.5426278058911009
 31
0.0
  0
LINE
  5
4905
  8
0
 10
677.6447873866219425
 20
125.5060792207910936
 30
0.0
 11
678.8155468265219952
 21
124.3353197809910995
 31
0.0
  0
ARC
  5
4906
  8
0
 10
677.5564946065127288
 20
125.4177062909080007
 30
0.0
 40
0.1249215343947455
 50
45.0259939716430679
 51
89.968058869309516
  0
ARC
  5
4907
  8
0
 10
679.0232903268131395
 20
124.238878965395898
 30
0.0
 40
0.125010295003969
 50
136.50513532689979
 51
180.0006595371762899
  0
LINE
  5
4908
  8
0
 10
678.8982800318218551
 20
124.2388775263910929
 30
0.0
 11
678.8978173332266124
 21
123.9933861118122991
 31
0.0
  0
ARC
  5
4909
  8
0
 10
678.7720805347073565
 20
123.9936230986745045
 30
0.0
 40
0.1257370218537775
 50
315.0677095625497941
 51
359.8920098882186949
  0
LINE
  5
490A
  8
0
 10
678.8610950427217858
 20
123.9048187291911063
 30
0.0
 11
678.4219194315060122
 21
123.4662366744053941
 31
0.0
  0
ARC
  5
490B
  8
0
 10
678.5982601825860456
 20
123.2896572720045043
 30
0.0
 40
0.2495522908003727
 50
134.9612555099380131
 51
180.0445499313821074
  0
LINE
  5
490C
  8
0
 10
678.3487079672219124
 20
123.289463234391107
 30
0.0
 11
678.3487079672219124
 21
54.463724105791151
 31
0.0
  0
ARC
  5
490D
  8
0
 10
655.7870839657881561
 20
124.0975183388093939
 30
0.0
 40
0.0306776052286878
 50
4.7387984938909868
 51
89.3034685275918463
  0
ARC
  5
490E
  8
0
 10
648.7617078330456479
 20
123.8787902775254963
 30
0.0
 40
7.059417224577845
 50
0.6687704869782476
 51
1.79610869500448
  0
LINE
  5
490F
  8
0
 10
655.8206441708217653
 20
123.9611876675904938
 30
0.0
 11
655.8243043069219311
 21
123.6656348207904017
 31
0.0
  0
ARC
  5
4910
  8
0
 10
658.3684811915286446
 20
123.6971419903573945
 30
0.0
 40
2.5443719700353249
 50
180.7095165332999045
 51
185.1354085012858945
  0
LINE
  5
4911
  8
0
 10
655.7874568971176359
 20
124.1281936771903958
 30
0.0
 11
655.7941032393218848
 21
124.1498668253904043
 31
0.0
  0
ARC
  5
4912
  8
0
 10
655.8726498067884449
 20
123.9543085698850007
 30
0.0
 40
0.2107429584994842
 50
102.6044753017912967
 51
111.883011289094398
  0
ARC
  5
4913
  8
0
 10
655.9616257083333721
 20
124.0976549202804051
 30
0.0
 40
0.0303859647891173
 50
90.0709225513599137
 51
175.4740042968163038
  0
ARC
  5
4914
  8
0
 10
662.9872833699979537
 20
123.8787902775254963
 30
0.0
 40
7.059417224577845
 50
178.2038913049954942
 51
179.3312295130216967
  0
LINE
  5
4915
  8
0
 10
655.92834703222195
 20
123.9611876675904938
 30
0.0
 11
655.9246868961218979
 21
123.6656348207904017
 31
0.0
  0
ARC
  5
4916
  8
0
 10
653.3805100115150708
 20
123.6971419903573945
 30
0.0
 40
2.5443719700353249
 50
354.8645914987141055
 51
359.2904834666999818
  0
LINE
  5
4917
  8
0
 10
655.9615880956223464
 20
124.1280408617903959
 30
0.0
 11
655.9548879637219443
 21
124.1498668253904043
 31
0.0
  0
ARC
  5
4918
  8
0
 10
655.8763413962552704
 20
123.9543085698850007
 30
0.0
 40
0.2107429584994842
 50
68.1169887109055878
 51
77.3955246982086891
  0
LINE
  5
4919
  8
0
 10
655.9223296109219064
 20
124.1599725646904062
 30
0.0
 11
655.8266615904218497
 21
124.1599725640903955
 31
0.0
  0
LINE
  5
491A
  8
0
 10
655.8343224858218719
 20
123.4693956924903944
 30
0.0
 11
655.9146687172218435
 21
123.4693956924903944
 31
0.0
  0
ARC
  5
491B
  8
0
 10
633.8374876156505024
 20
-1133.0512318540399974
 30
0.0
 40
1257.373929890529098
 50
88.9046134378811814
 51
88.991801109217036
  0
ARC
  5
491C
  8
0
 10
653.4598302470802764
 20
54.3387241059476267
 30
0.0
 40
0.1249999998435153
 50
89.9999999809341773
 51
149.5344550792474934
  0
ARC
  5
491D
  8
0
 10
651.4989898587102743
 20
54.9152881135904281
 30
0.0
 40
0.1244854085328435
 50
180.0074218463660998
 51
225.0074217794320077
  0
LINE
  5
491E
  8
0
 10
651.4109767851217612
 20
54.8272522355911391
 30
0.0
 11
652.5771642307219054
 21
53.661064789991137
 31
0.0
  0
ARC
  5
491F
  8
0
 10
655.1753048764993537
 20
56.2592054357687417
 30
0.0
 40
3.674325738211472
 50
224.9999999999994031
 51
225.6383867515314989
  0
ARC
  5
4920
  8
0
 10
652.5629533928550927
 20
53.5880530619363
 30
0.0
 40
0.0619070468382871
 50
0.5329522997051451
 51
45.5925230429257624
  0
ARC
  5
4921
  8
0
 10
653.1264727113456274
 20
53.5928933806301586
 30
0.0
 40
0.5016330767515025
 50
180.4870885910976881
 51
185.288695695041099
  0
LINE
  5
4922
  8
0
 10
652.6269751351219384
 20
53.5466557872911508
 30
0.0
 11
652.6300407088219799
 21
53.5435902134911501
 31
0.0
  0
ARC
  5
4923
  8
0
 10
652.5262509025317286
 20
53.5270007015228373
 30
0.0
 40
0.1051072585366636
 50
2.4402631161333672
 51
9.0812032673719258
  0
ARC
  5
4924
  8
0
 10
652.7621577777932771
 20
53.5353832153428684
 30
0.0
 40
0.1309532368233747
 50
181.7098016814491928
 51
271.3505210921940147
  0
LINE
  5
4925
  8
0
 10
657.8746264418217606
 20
124.0929188006903985
 30
0.0
 11
659.6191936230219426
 21
124.092863253390405
 31
0.0
  0
ARC
  5
4926
  8
0
 10
659.6191695527398906
 20
124.0618424875039949
 30
0.0
 40
0.0310207752250099
 50
1.706733300839167
 51
89.9555418682138992
  0
LINE
  5
4927
  8
0
 10
659.650176566121786
 20
124.0627664012904035
 30
0.0
 11
659.667850224821791
 21
124.120102332990399
 31
0.0
  0
ARC
  5
4928
  8
0
 10
659.2339626563159527
 20
124.1679193292788028
 30
0.0
 40
0.4365144754048897
 50
353.7110421783431207
 51
358.9568701935352806
  0
ARC
  5
4929
  8
0
 10
662.2675746944620414
 20
123.9790618608382005
 30
0.0
 40
2.6187362242751151
 50
178.1683019949661002
 51
180.726629722800709
  0
ARC
  5
492A
  8
0
 10
3149.9999595648910145
 20
155.464697125416393
 30
0.0
 40
2490.5503598740469897
 50
180.7251188548667074
 51
180.7588751190700123
  0
ARC
  5
492B
  8
0
 10
663.2594425716526985
 20
122.5604001730314963
 30
0.0
 40
3.5923220995526681
 50
181.304031933195489
 51
184.4779017041132079
  0
ARC
  5
492C
  8
0
 10
659.817319892191108
 20
124.0618372980407003
 30
0.0
 40
0.031032708322962
 50
91.8552743861478831
 51
178.284337594053909
  0
LINE
  5
492D
  8
0
 10
659.7863010954218908
 20
124.0627664012904035
 30
0.0
 11
659.7686274367218857
 21
124.120102332990399
 31
0.0
  0
ARC
  5
492E
  8
0
 10
660.2025150052278377
 20
124.1679193292788028
 30
0.0
 40
0.4365144754048897
 50
181.043129806464691
 51
186.2889578216569078
  0
ARC
  5
492F
  8
0
 10
657.168902967081749
 20
123.9790618608382005
 30
0.0
 40
2.6187362242751151
 50
359.2733702771992057
 51
1.831698005033858
  0
ARC
  5
4930
  8
0
 10
-1830.5634819033471103
 20
155.464697125416393
 30
0.0
 40
2490.5503598740469897
 50
359.2411248809298741
 51
359.2748811451332926
  0
ARC
  5
4931
  8
0
 10
656.1770350898909783
 20
122.5604001730314963
 30
0.0
 40
3.5923220995526681
 50
355.5220982958867921
 51
358.6959680668044825
  0
LINE
  5
4932
  8
0
 10
659.6780859623219158
 20
122.2799310949904026
 30
0.0
 11
659.7583916992218747
 21
122.2799310949904026
 31
0.0
  0
LINE
  5
4933
  8
0
 10
659.6704047901217791
 20
124.1599725640903955
 30
0.0
 11
659.7660728714218976
 21
124.1599725640903955
 31
0.0
  0
LINE
  5
4934
  8
0
 10
659.8163152086218588
 20
124.0928537387903958
 30
0.0
 11
662.6200907269219442
 21
124.0926258132903968
 31
0.0
  0
ARC
  5
4935
  8
0
 10
662.6200666566398922
 20
124.0616050474040009
 30
0.0
 40
0.0310207752250099
 50
1.706733300839167
 51
89.9555418682138992
  0
LINE
  5
4936
  8
0
 10
662.6510736700217876
 20
124.0625289611903952
 30
0.0
 11
662.6687473287219063
 21
124.1198648928904049
 31
0.0
  0
ARC
  5
4937
  8
0
 10
662.234859760216068
 20
124.1676818891787946
 30
0.0
 40
0.4365144754048897
 50
353.7110421783431207
 51
358.9568701935352806
  0
ARC
  5
4938
  8
0
 10
665.268471798362043
 20
123.9788244207381069
 30
0.0
 40
2.6187362242751151
 50
178.1683019949661002
 51
180.726629722800709
  0
ARC
  5
4939
  8
0
 10
3153.0008566687911298
 20
155.4644596853163137
 30
0.0
 40
2490.5503598740469897
 50
180.7251188548667074
 51
180.7588751190700123
  0
ARC
  5
493A
  8
0
 10
666.2603396755525864
 20
122.5601627329315022
 30
0.0
 40
3.5923220995526681
 50
181.304031933195489
 51
184.4779017041132079
  0
ARC
  5
493B
  8
0
 10
662.8182613807545067
 20
124.0615807218251945
 30
0.0
 40
0.0310776511114371
 50
93.4442910398760631
 51
178.2515233548691072
  0
LINE
  5
493C
  8
0
 10
662.7871981993218924
 20
124.0625289611903952
 30
0.0
 11
662.7695245406218874
 21
124.1198648928904049
 31
0.0
  0
ARC
  5
493D
  8
0
 10
663.2034121091278394
 20
124.1676818891787946
 30
0.0
 40
0.4365144754048897
 50
181.043129806464691
 51
186.2889578216569078
  0
ARC
  5
493E
  8
0
 10
660.1698000709817507
 20
123.9788244207381069
 30
0.0
 40
2.6187362242751151
 50
359.2733702771992057
 51
1.831698005033858
  0
ARC
  5
493F
  8
0
 10
-1827.562584799446995
 20
155.4644596853163137
 30
0.0
 40
2490.5503598740469897
 50
359.2411248809298741
 51
359.2748811451332926
  0
ARC
  5
4940
  8
0
 10
659.1779321937909799
 20
122.5601627329315022
 30
0.0
 40
3.5923220995526681
 50
355.5220982958867921
 51
358.6959680668044825
  0
LINE
  5
4941
  8
0
 10
662.6789830662219174
 20
122.2796936548903943
 30
0.0
 11
662.7592888031218763
 21
122.2796936548903943
 31
0.0
  0
LINE
  5
4942
  8
0
 10
662.6713018940217808
 20
124.1597351239904015
 30
0.0
 11
662.7669699753217856
 21
124.1597351239904015
 31
0.0
  0
ARC
  5
4943
  8
0
 10
665.9988994057398486
 20
124.060983897504002
 30
0.0
 40
0.0310207752250099
 50
1.706733300839167
 51
89.9555418682138992
  0
LINE
  5
4944
  8
0
 10
666.0299064191218577
 20
124.0619078112903964
 30
0.0
 11
666.0475800778218627
 21
124.1192437429904061
 31
0.0
  0
ARC
  5
4945
  8
0
 10
665.6136925093160244
 20
124.1670607392787957
 30
0.0
 40
0.4365144754048897
 50
353.7110421783431207
 51
358.9568701935352806
  0
ARC
  5
4946
  8
0
 10
668.6473045474618857
 20
123.9782032708381934
 30
0.0
 40
2.6187362242751151
 50
178.1683019949661002
 51
180.726629722800709
  0
ARC
  5
4947
  8
0
 10
3253.2510540697858232
 20
156.6858394747629859
 30
0.0
 40
2587.4294317115900412
 50
180.7250293882574113
 51
180.7581476690704108
  0
ARC
  5
4948
  8
0
 10
669.639527809852666
 20
122.5312775349315046
 30
0.0
 40
3.5923220995526681
 50
181.304031933195489
 51
184.4779017041132079
  0
ARC
  5
4949
  8
0
 10
666.1969467180766742
 20
124.0610231274099959
 30
0.0
 40
0.0309284250959566
 50
90.6431674932617142
 51
178.3608745934791955
  0
LINE
  5
494A
  8
0
 10
666.1660309484218487
 20
124.0619078112903964
 30
0.0
 11
666.1483572897218437
 21
124.1192437429904061
 31
0.0
  0
ARC
  5
494B
  8
0
 10
666.5822448582277957
 20
124.1670607392787957
 30
0.0
 40
0.4365144754048897
 50
181.043129806464691
 51
186.2889578216569078
  0
ARC
  5
494C
  8
0
 10
663.5486328200818207
 20
123.9782032708381934
 30
0.0
 40
2.6187362242751151
 50
359.2733702771992057
 51
1.831698005033858
  0
ARC
  5
494D
  8
0
 10
-1921.0391395594479036
 20
155.4559871751575031
 30
0.0
 40
2587.3981856740801959
 50
359.269079530282113
 51
359.3021980110657978
  0
ARC
  5
494E
  8
0
 10
662.5571203280910595
 20
122.5312775349315046
 30
0.0
 40
3.5923220995526681
 50
355.5220982958867921
 51
358.6959680668044825
  0
LINE
  5
494F
  8
0
 10
666.0581712005217696
 20
122.2508084568903968
 30
0.0
 11
666.1384769374219559
 21
122.2508084568903968
 31
0.0
  0
LINE
  5
4950
  8
0
 10
666.0501346431218508
 20
124.1591139740904026
 30
0.0
 11
666.1458027244218556
 21
124.1591139740904026
 31
0.0
  0
ARC
  5
4951
  8
0
 10
668.7495387216398512
 20
124.0599262726040024
 30
0.0
 40
0.0310207752250099
 50
1.706733300839167
 51
89.9555418682138992
  0
LINE
  5
4952
  8
0
 10
668.7805457350218603
 20
124.0608501863903967
 30
0.0
 11
668.7982193937218653
 21
124.1181861180904065
 31
0.0
  0
ARC
  5
4953
  8
0
 10
668.364331825216027
 20
124.1660031143787961
 30
0.0
 40
0.4365144754048897
 50
353.7110421783431207
 51
358.9568701935352806
  0
ARC
  5
4954
  8
0
 10
671.397943863362002
 20
123.9771456459381938
 30
0.0
 40
2.6187362242751151
 50
178.1683019949661002
 51
180.726629722800709
  0
ARC
  5
4955
  8
0
 10
3355.7040671537729395
 20
156.2611437097204998
 30
0.0
 40
2687.1189908425658359
 50
180.689096494077603
 51
180.7215946405677869
  0
ARC
  5
4956
  8
0
 10
672.389572474952729
 20
122.5016709898314957
 30
0.0
 40
3.5923220995526681
 50
181.304031933195489
 51
184.4779017041132079
  0
ARC
  5
4957
  8
0
 10
668.9475020715354958
 20
124.0600017022882042
 30
0.0
 40
0.0308434800456836
 50
91.1233685231612469
 51
178.423631455076702
  0
LINE
  5
4958
  8
0
 10
668.9166702643219651
 20
124.0608501863903967
 30
0.0
 11
668.8989966056218464
 21
124.1181861180904065
 31
0.0
  0
ARC
  5
4959
  8
0
 10
669.3328841741276847
 20
124.1660031143787961
 30
0.0
 40
0.4365144754048897
 50
181.043129806464691
 51
186.2889578216569078
  0
ARC
  5
495A
  8
0
 10
666.2992721359818233
 20
123.9771456459381938
 30
0.0
 40
2.6187362242751151
 50
359.2733702771992057
 51
1.831698005033858
  0
ARC
  5
495B
  8
0
 10
-2018.0176079107229725
 20
157.104949761412513
 30
0.0
 40
2687.1400274585780608
 50
359.2604177312821889
 51
359.2929157505636795
  0
ARC
  5
495C
  8
0
 10
665.3071649931911224
 20
122.5016709898314957
 30
0.0
 40
3.5923220995526681
 50
355.5220982958867921
 51
358.6959680668044825
  0
LINE
  5
495D
  8
0
 10
668.8082158656219463
 20
122.2212019117904021
 30
0.0
 11
668.8885216025219052
 21
122.2212019117904021
 31
0.0
  0
LINE
  5
495E
  8
0
 10
668.8007739590218534
 20
124.158056349190403
 30
0.0
 11
668.8964420403219719
 21
124.158056349190403
 31
0.0
  0
ARC
  5
495F
  8
0
 10
672.3775658453397455
 20
124.0567492984040001
 30
0.0
 40
0.0310207752250099
 50
1.706733300839167
 51
89.9555418682138992
  0
LINE
  5
4960
  8
0
 10
672.4085728587218682
 20
124.0576732121904939
 30
0.0
 11
672.4262465174219869
 21
124.1150091438904042
 31
0.0
  0
ARC
  5
4961
  8
0
 10
671.9923589489160349
 20
124.1628261401787938
 30
0.0
 40
0.4365144754048897
 50
353.7110421783431207
 51
358.9568701935352806
  0
ARC
  5
4962
  8
0
 10
675.0259709870618963
 20
123.9739686717381062
 30
0.0
 40
2.6187362242751151
 50
178.1683019949661002
 51
180.726629722800709
  0
ARC
  5
4963
  8
0
 10
3649.9423037719311651
 20
158.404741902568901
 30
0.0
 40
2977.7343063565490411
 50
180.6631501259278139
 51
180.6940217209701132
  0
ARC
  5
4964
  8
0
 10
676.017838864252667
 20
122.4181880836005973
 30
0.0
 40
3.5923220995526681
 50
181.304031933195489
 51
184.4779017041132079
  0
ARC
  5
4965
  8
0
 10
672.5754313838448297
 20
124.0568668987372973
 30
0.0
 40
0.0307445709130558
 50
85.2103578529788734
 51
178.4971767672238911
  0
LINE
  5
4966
  8
0
 10
672.5446973880218593
 20
124.0576732121904939
 30
0.0
 11
672.5270237293218543
 21
124.1150091438904042
 31
0.0
  0
ARC
  5
4967
  8
0
 10
672.9609112978278063
 20
124.1628261401787938
 30
0.0
 40
0.4365144754048897
 50
181.043129806464691
 51
186.2889578216569078
  0
ARC
  5
4968
  8
0
 10
669.9272992596818312
 20
123.9739686717381062
 30
0.0
 40
2.6187362242751151
 50
359.2733702771992057
 51
1.831698005033858
  0
ARC
  5
4969
  8
0
 10
-2304.9890335255781793
 20
158.4047419025962995
 30
0.0
 40
2977.7343063569410333
 50
359.3059782790281815
 51
359.3368498740720725
  0
ARC
  5
496A
  8
0
 10
668.9354313824910605
 20
122.4181880836005973
 30
0.0
 40
3.5923220995526681
 50
355.5220982958867921
 51
358.6959680668044825
  0
LINE
  5
496B
  8
0
 10
672.4364822549218843
 20
122.1377190055595037
 30
0.0
 11
672.5167879918218432
 21
122.1377190055595037
 31
0.0
  0
LINE
  5
496C
  8
0
 10
672.4288010827218613
 20
124.1548793749904007
 30
0.0
 11
672.5244691640218662
 21
124.1548793749904007
 31
0.0
  0
ARC
  5
496D
  8
0
 10
675.3769194311398678
 20
124.0516125446039979
 30
0.0
 40
0.0310207752250099
 50
1.706733300839167
 51
89.9555418682138992
  0
LINE
  5
496E
  8
0
 10
675.4079264445219906
 20
124.0525364583904064
 30
0.0
 11
675.4256001032219956
 21
124.109872390090402
 31
0.0
  0
ARC
  5
496F
  8
0
 10
674.9917125347160436
 20
124.1576893863788058
 30
0.0
 40
0.4365144754048897
 50
353.7110421783431207
 51
358.9568701935352806
  0
ARC
  5
4970
  8
0
 10
678.0253245728620186
 20
123.968831917938104
 30
0.0
 40
2.6187362242751151
 50
178.1683019949661002
 51
180.726629722800709
  0
ARC
  5
4971
  8
0
 10
4125.7022388532614059
 20
161.0346982341287969
 30
0.0
 40
3450.4948868491378562
 50
180.6160453878260057
 51
180.6447242123529975
  0
ARC
  5
4972
  8
0
 10
679.0171924500526757
 20
122.2903688591979972
 30
0.0
 40
3.5923220995526681
 50
181.304031933195489
 51
184.4779017041132079
  0
ARC
  5
4973
  8
0
 10
675.5783946391215977
 20
124.0474660058841039
 30
0.0
 40
0.034715944965244
 50
87.8709559503931388
 51
171.6015980306376036
  0
LINE
  5
4974
  8
0
 10
675.544050973821868
 20
124.0525364583904064
 30
0.0
 11
675.5263773151218629
 21
124.109872390090402
 31
0.0
  0
ARC
  5
4975
  8
0
 10
675.9602648836278149
 20
124.1576893863788058
 30
0.0
 40
0.4365144754048897
 50
181.043129806464691
 51
186.2889578216569078
  0
ARC
  5
4976
  8
0
 10
672.9266528454818399
 20
123.968831917938104
 30
0.0
 40
2.6187362242751151
 50
359.2733702771992057
 51
1.831698005033858
  0
ARC
  5
4977
  8
0
 10
-2774.7502614357081256
 20
161.0346982341602029
 30
0.0
 40
3450.4948868499291166
 50
359.3552757876469173
 51
359.3839546121723743
  0
ARC
  5
4978
  8
0
 10
671.9347849682910692
 20
122.2903688591979972
 30
0.0
 40
3.5923220995526681
 50
355.5220982958867921
 51
358.6959680668044825
  0
LINE
  5
4979
  8
0
 10
675.435835840721893
 20
122.009899781157003
 30
0.0
 11
675.5161415776218519
 21
122.009899781157003
 31
0.0
  0
LINE
  5
497A
  8
0
 10
675.4281546685219837
 20
124.1497426211903985
 30
0.0
 11
675.5238227498217611
 21
124.1497426211903985
 31
0.0
  0
LINE
  5
497B
  8
0
 10
662.8163942970219296
 20
124.0926022368904
 30
0.0
 11
665.9989234760217869
 21
124.0920046633903979
 31
0.0
  0
LINE
  5
497C
  8
0
 10
666.1965995417219801
 20
124.0919496038903986
 30
0.0
 11
668.7495627919219032
 21
124.0909470384903983
 31
0.0
  0
LINE
  5
497D
  8
0
 10
668.9468973782219336
 20
124.0908392541903993
 30
0.0
 11
672.3775899156219111
 21
124.087770064290396
 31
0.0
  0
LINE
  5
497E
  8
0
 10
672.5779984847218884
 20
124.0875041086903963
 30
0.0
 11
675.3769435014219198
 21
124.0826333104903938
 31
0.0
  0
LINE
  5
497F
  8
0
 10
675.5796843461218941
 20
124.0821579860911044
 30
0.0
 11
678.5509169344219345
 21
124.0715785574910939
 31
0.0
  0
ARC
  5
4980
  8
0
 10
678.5469730021286523
 20
123.9813620145577033
 30
0.0
 40
0.0903027088231296
 50
2.503046402338716
 51
87.4968350515239308
  0
LINE
  5
4981
  8
0
 10
679.0105066143219119
 20
58.9427540615577428
 30
0.0
 11
679.0105066143219119
 21
54.463724105791151
 31
0.0
  0
ARC
  5
4982
  8
0
 10
679.425958810691327
 20
117.6232811069804995
 30
0.0
 40
6.5468255487898572
 50
89.7432952068164838
 51
93.6841708766025931
  0
ARC
  5
4983
  8
0
 10
679.4572829155773661
 20
124.1400239405253956
 30
0.0
 40
0.030083042370172
 50
93.797046929094293
 51
179.8112038939331114
  0
LINE
  5
4984
  8
0
 10
679.4272000365244821
 20
124.1401230673899931
 30
0.0
 11
679.4329393885598165
 21
54.463724105791151
 31
0.0
  0
LINE
  5
4985
  8
0
 10
679.4552907421217469
 20
124.1700409470910955
 30
0.0
 11
680.2863859575219294
 21
124.2128550439910981
 31
0.0
  0
ARC
  5
4986
  8
0
 10
680.9129333853552453
 20
112.0504924765942008
 30
0.0
 40
12.1784902553699794
 50
92.063934973655094
 51
92.9490008571246165
  0
LINE
  5
4987
  8
0
 10
680.4743290682217776
 20
124.2210820741911022
 30
0.0
 11
680.4703137369218666
 21
124.215849171391099
 31
0.0
  0
ARC
  5
4988
  8
0
 10
680.4962997670429559
 20
123.7156588667696013
 30
0.0
 40
0.5008648666045661
 50
92.9739730640723252
 51
141.8605903360362106
  0
LINE
  5
4989
  8
0
 10
680.1023643299218975
 20
124.0249814911910988
 30
0.0
 11
679.5319798534219444
 21
123.2816409202910961
 31
0.0
  0
ARC
  5
498A
  8
0
 10
679.980604648845997
 20
122.9481797001849941
 30
0.0
 40
0.5589817460203655
 50
143.3767086333992893
 51
171.8332146855204883
  0
LINE
  5
498B
  8
0
 10
679.0287694015219131
 20
124.177064774591102
 30
0.0
 11
686.4839098278218898
 21
124.560945777191094
 31
0.0
  0
ARC
  5
498C
  8
0
 10
686.4752198497925519
 20
124.7240741470515957
 30
0.0
 40
0.1633596669055417
 50
273.0493095115722895
 51
356.8775287801859122
  0
LINE
  5
498D
  8
0
 10
680.2833442142390368
 20
124.1689970927430977
 30
0.0
 11
686.483867751221851
 21
124.4820686646910985
 31
0.0
  0
ARC
  5
498E
  8
0
 10
686.4751533265350645
 20
124.6452436642513959
 30
0.0
 40
0.1634075325042381
 50
273.0569994008009189
 51
357.0005067135489867
  0
ARC
  5
498F
  8
0
 10
685.8987947131022338
 20
123.698866974685302
 30
0.0
 40
0.7534588945878899
 50
95.4591476824205216
 51
179.8989500615612087
  0
LINE
  5
4990
  8
0
 10
685.1453369903219937
 20
123.7001958148911029
 30
0.0
 11
685.1453369903219937
 21
120.2897524695910931
 31
0.0
  0
ARC
  5
4991
  8
0
 10
683.7603377779672655
 20
120.2897524695910931
 30
0.0
 40
1.384999212354511
 50
326.834102914029188
 51
0.0
  0
ARC
  5
4992
  8
0
 10
685.3382375337165513
 20
119.2585446298721052
 30
0.0
 40
0.4999828161783243
 50
146.8341029140291027
 51
203.4687043052539082
  0
ARC
  5
4993
  8
0
 10
676.9412250646006441
 20
115.6133311152665044
 30
0.0
 40
8.6541091641218255
 50
3.2320571352065341
 51
23.4659167225660816
  0
ARC
  5
4994
  8
0
 10
676.9468159074529012
 20
115.6134398943695061
 30
0.0
 40
8.648521083688804
 50
359.9992111302429976
 51
3.2334258862085892
  0
LINE
  5
4995
  8
0
 10
685.5953369903219254
 20
115.6133208182911005
 30
0.0
 11
685.5953369903219254
 21
54.463724105791151
 31
0.0
  0
LINE
  5
4996
  8
0
 10
685.7426078226141044
 20
124.4359598867887939
 30
0.0
 11
684.678460316355654
 21
124.3794884694942056
 31
0.0
  0
ARC
  5
4997
  8
0
 10
684.6884287739713955
 20
124.1916428332179976
 30
0.0
 40
0.1881099498039268
 50
93.0376819981998011
 51
194.1820108920375105
  0
ARC
  5
4998
  8
0
 10
682.578989406469077
 20
123.7346501393973028
 30
0.0
 40
1.9703840322979289
 50
0.5074474936215149
 51
12.0368450623456003
  0
ARC
  5
4999
  8
0
 10
679.1300115625251692
 20
123.7058257805091017
 30
0.0
 40
5.4194821655372802
 50
359.7527154520083741
 51
0.4892348782813402
  0
LINE
  5
499A
  8
0
 10
684.5494432531219218
 20
123.6824357498910985
 30
0.0
 11
684.5494432531219218
 21
120.3109539436911035
 31
0.0
  0
ARC
  5
499B
  8
0
 10
683.7597291547032228
 20
120.3109539436911035
 30
0.0
 40
0.7897140984186706
 50
302.3087083789802136
 51
0.0
  0
ARC
  5
499C
  8
0
 10
684.3074274453383623
 20
119.4448723905832992
 30
0.0
 40
0.2350154630746979
 50
122.3087083789801994
 51
207.3658478067744966
  0
ARC
  5
499D
  8
0
 10
676.9618867299309386
 20
115.6428588967862936
 30
0.0
 40
8.0361558571628748
 50
13.7626592182131091
 51
27.3658478067745712
  0
ARC
  5
499E
  8
0
 10
683.7310775544010539
 20
115.9740693918715948
 30
0.0
 40
1.8899948610099959
 50
15.5745333291547592
 51
68.0066371179195102
  0
ARC
  5
499F
  8
0
 10
684.9108265020804538
 20
118.7359116310392011
 30
0.0
 40
1.114269946919231
 50
226.7364620128670083
 51
244.9411746921788904
  0
LINE
  5
49A0
  8
0
 10
684.1471559418530433
 20
117.9244901683892977
 30
0.0
 11
684.1824298059120792
 21
117.8130406093559941
 31
0.0
  0
ARC
  5
49A1
  8
0
 10
684.9099179634213215
 20
118.5208588471744946
 30
0.0
 40
1.015010185714782
 50
224.2148485929251081
 51
244.734105988272205
  0
ARC
  5
49A2
  8
0
 10
683.6652578149045212
 20
115.7191289486572998
 30
0.0
 40
2.0511456390349299
 50
42.2401869006416391
 51
66.696579844527065
  0
ARC
  5
49A3
  8
0
 10
684.0401184543485442
 20
116.0612762326258007
 30
0.0
 40
1.543619290865627
 50
7.2243323966080126
 51
42.1916852245430221
  0
ARC
  5
49A4
  8
0
 10
687.3464013866524738
 20
120.0877135846481991
 30
0.0
 40
3.8967747315258272
 50
215.713477760723805
 51
220.3113216614108012
  0
ARC
  5
49A5
  8
0
 10
681.8869362457611487
 20
115.7408922506136975
 30
0.0
 40
3.0860846202363739
 50
357.6152026570197222
 51
36.2732197168496597
  0
LINE
  5
49A6
  8
0
 10
684.9703480268218527
 20
115.6124785765911014
 30
0.0
 11
684.9703480268218527
 21
92.4550906896079852
 31
0.0
  0
LINE
  5
49A7
  8
0
 10
684.9703480268218527
 20
91.9977530313660736
 30
0.0
 11
684.9703480268218527
 21
86.819133500630528
 31
0.0
  0
LINE
  5
49A8
  8
0
 10
684.9703480268218527
 20
86.7569022894665807
 30
0.0
 11
684.9703480268218527
 21
77.0773447078044427
 31
0.0
  0
LINE
  5
49A9
  8
0
 10
684.9703480268218527
 20
75.7496007503160342
 30
0.0
 11
684.9703480268218527
 21
71.6385663625539024
 31
0.0
  0
LINE
  5
49AA
  8
0
 10
684.9703480268218527
 20
70.3108224050655082
 30
0.0
 11
684.9703480268218527
 21
55.0318326110921134
 31
0.0
  0
ARC
  5
49AB
  8
0
 10
681.6637298061209549
 20
55.0373061877560872
 30
0.0
 40
3.3066227510124788
 50
353.3283620269912717
 51
359.9051561038011755
  0
ARC
  5
49AC
  8
0
 10
684.9778758341849425
 20
54.6530613722119014
 30
0.0
 40
0.0299149157656121
 50
179.8383788482267107
 51
269.7592684990801786
  0
LINE
  5
49AD
  8
0
 10
684.9777501453218065
 20
54.6231467204911496
 30
0.0
 11
685.5403263319218468
 21
54.6231639107911491
 31
0.0
  0
ARC
  5
49AE
  8
0
 10
685.5376900698840927
 20
54.6172176374182428
 30
0.0
 40
0.0065044634334852
 50
319.9991499438739879
 51
66.090042965493879
  0
LINE
  5
49AF
  8
0
 10
685.5426727159218672
 20
54.6130365749911491
 30
0.0
 11
685.5196517207946272
 21
54.5322543076068698
 31
0.0
  0
LINE
  5
49B0
  8
0
 10
684.9777501453218065
 20
54.6231467204911496
 30
0.0
 11
684.6711558121219241
 21
54.6091997236911482
 31
0.0
  0
ARC
  5
49B1
  8
0
 10
684.789811609899516
 20
52.0008105685475925
 30
0.0
 40
2.6110865904861891
 50
92.6045932451319374
 51
96.7637509109855927
  0
ARC
  5
49B2
  8
0
 10
686.4883369903218409
 20
52.7887241057911467
 30
0.0
 40
0.1500000000000052
 50
269.999999997502016
 51
0.0
  0
LINE
  5
49B3
  8
0
 10
686.4883369903218409
 20
52.638724105791141
 30
0.0
 11
686.2487612642219119
 21
52.638724105791141
 31
0.0
  0
ARC
  5
49B4
  8
0
 10
686.2487612642219119
 20
52.7887241997489909
 30
0.0
 40
0.1500000939578499
 50
186.0000323148117047
 51
270.0
  0
LINE
  5
49B5
  8
0
 10
686.0995828953217597
 20
52.7730448362911488
 30
0.0
 11
686.0837458660218999
 21
52.9237241057911518
 31
0.0
  0
ARC
  5
49B6
  8
0
 10
686.5783369899148738
 20
52.9837241060616009
 30
0.0
 40
0.0600000004789604
 50
269.9952234484600808
 51
0.0
  0
LINE
  5
49B7
  8
0
 10
686.5783319879219562
 20
52.9237241057911518
 30
0.0
 11
672.3378332979217475
 21
52.9237241057911518
 31
0.0
  0
LINE
  5
49B8
  8
0
 10
672.3378332979217475
 20
52.9237241057911518
 30
0.0
 11
672.2454572547219414
 21
52.7637241055911517
 31
0.0
  0
ARC
  5
49B9
  8
0
 10
672.0289509041056135
 20
52.8887241054199535
 30
0.0
 40
0.2499999996288045
 50
269.9999999349860218
 51
329.9999999961875119
  0
LINE
  5
49BA
  8
0
 10
672.0289509039217819
 20
52.638724105791141
 30
0.0
 11
671.3643840768219206
 21
52.638724105791141
 31
0.0
  0
ARC
  5
49BB
  8
0
 10
671.3643840768219206
 20
52.888724105791141
 30
0.0
 40
0.25
 50
210.0000000000003979
 51
270.0
  0
LINE
  5
49BC
  8
0
 10
671.1478777259219441
 20
52.763724105791141
 30
0.0
 11
671.0555016828218413
 21
52.9237241057911376
 31
0.0
  0
LINE
  5
49BD
  8
0
 10
671.0555016828218413
 20
52.9237241057911376
 30
0.0
 11
662.3378332979218612
 21
52.9237241057911518
 31
0.0
  0
LINE
  5
49BE
  8
0
 10
662.3378332979218612
 20
52.9237241057911518
 30
0.0
 11
662.2454572547219414
 21
52.7637241055911517
 31
0.0
  0
ARC
  5
49BF
  8
0
 10
662.0289509041056135
 20
52.8887241054199535
 30
0.0
 40
0.2499999996288103
 50
269.9999999349893187
 51
329.9999999961875119
  0
LINE
  5
49C0
  8
0
 10
662.0289509039218956
 20
52.638724105791141
 30
0.0
 11
661.3643840768219206
 21
52.638724105791141
 31
0.0
  0
ARC
  5
49C1
  8
0
 10
661.3643840768219206
 20
52.888724105791141
 30
0.0
 40
0.25
 50
210.0000000000003979
 51
270.0
  0
LINE
  5
49C2
  8
0
 10
661.1478777259219441
 20
52.763724105791141
 30
0.0
 11
661.0555016828218413
 21
52.9237241057911518
 31
0.0
  0
LINE
  5
49C3
  8
0
 10
661.0555016828218413
 20
52.9237241057911518
 30
0.0
 11
657.3804302955219327
 21
52.9237241057911518
 31
0.0
  0
ARC
  5
49C4
  8
0
 10
657.3804302955219327
 20
52.7759974873902067
 30
0.0
 40
0.147726618400938
 50
90.0
 51
160.738495145642986
  0
ARC
  5
49C5
  8
0
 10
656.8489163033428895
 20
52.9617302334588302
 30
0.0
 40
0.4153042660487963
 50
269.3350212309554195
 51
340.7384951456431281
  0
ARC
  5
49C6
  8
0
 10
658.3511056459249176
 20
182.3872830545371926
 30
0.0
 40
129.8495744415425861
 50
269.1394778901063773
 51
269.3350212309554195
  0
ARC
  5
49C7
  8
0
 10
656.407219126048517
 20
52.9680413113913389
 30
0.0
 40
0.4157348625013135
 50
204.5645540697209981
 51
269.1394778901063773
  0
ARC
  5
49C8
  8
0
 10
655.8702686267172339
 20
52.7477489273841798
 30
0.0
 40
0.1657821154156706
 50
16.6367191331974489
 51
92.3595278941010207
  0
LINE
  5
49C9
  8
0
 10
678.3095384849217453
 20
50.3366156457911416
 30
0.0
 11
680.3644109928218313
 21
50.3843280228911397
 31
0.0
  0
ARC
  5
49CA
  8
0
 10
680.3818052608057769
 20
49.6351931267931406
 30
0.0
 40
0.7493368088586529
 50
61.1971635235861413
 51
91.3301197215204041
  0
LINE
  5
49CB
  8
0
 10
678.1899729406655979
 20
50.3339433851807669
 30
0.0
 11
678.1900540486825548
 21
50.3331716939425675
 31
0.0
  0
LINE
  5
49CC
  8
0
 10
678.1900540486825548
 20
50.3331716939425675
 30
0.0
 11
678.1900578799791219
 21
50.3339452263423581
 31
0.0
  0
ARC
  5
49CD
  8
0
 10
678.2201236064211116
 20
50.3381493826045698
 30
0.0
 40
0.030478774368567
 50
189.3994541102617859
 51
268.7116396354750805
  0
LINE
  5
49CE
  8
0
 10
678.2194383144825451
 20
50.3076783133425778
 30
0.0
 11
678.2613018732826049
 21
50.3076783133425778
 31
0.0
  0
ARC
  5
49CF
  8
0
 10
678.2617842519365468
 20
50.3376854173717803
 30
0.0
 40
0.0300109810133689
 50
269.0790220684610858
 51
357.1783721094888051
  0
LINE
  5
49D0
  8
0
 10
678.1505814292219156
 20
50.3044388385911532
 30
0.0
 11
677.6581649788474806
 21
50.2918241057911501
 31
0.0
  0
ARC
  5
49D1
  8
0
 10
678.026418454561508
 20
58.7540224169849523
 30
0.0
 40
8.4504957897474231
 50
270.841876096779572
 51
272.0761587259975158
  0
LINE
  5
49D2
  8
0
 10
678.3325619705219651
 20
50.3090739126911402
 30
0.0
 11
680.5464628753996976
 21
50.3662153720543202
 31
0.0
  0
LINE
  5
49D3
  8
0
 10
660.3230661232219063
 20
51.609424021891158
 30
0.0
 11
663.0317627592219196
 21
51.5810331468911585
 31
0.0
  0
LINE
  5
49D4
  8
0
 10
663.323068125021905
 20
51.5790511255911497
 30
0.0
 11
666.0317480117217883
 21
51.5596701155911603
 31
0.0
  0
LINE
  5
49D5
  8
0
 10
666.3230533775218873
 20
51.5576880942911515
 30
0.0
 11
669.0317371170219758
 21
51.5483927986911468
 31
0.0
  0
LINE
  5
49D6
  8
0
 10
669.3230424828218474
 20
51.546410777391138
 30
0.0
 11
672.0317273205217816
 21
51.5478299216911395
 31
0.0
  0
LINE
  5
49D7
  8
0
 10
672.3230326863219943
 20
51.5458479003911521
 30
0.0
 11
675.0317193650218996
 21
51.5580165107911625
 31
0.0
  0
LINE
  5
49D8
  8
0
 10
675.3230247308217713
 20
51.5560344894911466
 30
0.0
 11
678.0317166668218078
 21
51.5783898205911484
 31
0.0
  0
LINE
  5
49D9
  8
0
 10
678.3230220326219069
 20
51.5764077992911609
 30
0.0
 11
681.0316998733219407
 21
51.6079122331911506
 31
0.0
  0
LINE
  5
49DA
  8
0
 10
681.3130033386219111
 20
51.6323089740911385
 30
0.0
 11
683.9344606924217942
 21
51.6622679217911411
 31
0.0
  0
ARC
  5
49DB
  8
0
 10
681.3064875106184672
 20
51.6462137815704807
 30
0.0
 40
0.0153557704335351
 50
295.1079073294226873
 51
354.6332368480490231
  0
ARC
  5
49DC
  8
0
 10
683.9019033618624235
 20
53.3752096432984615
 30
0.0
 40
1.713251096907163
 50
271.0888712857029077
 51
293.5000325045164118
  0
ARC
  5
49DD
  8
0
 10
687.6009935047044337
 20
45.5236470363700931
 30
0.0
 40
6.9670209240414263
 50
115.6509089959050982
 51
119.4412642297763938
  0
LINE
  5
49DE
  8
0
 10
684.176486244487819
 20
51.5909471427398785
 30
0.0
 11
682.8660419342219257
 21
50.8728738685911424
 31
0.0
  0
ARC
  5
49DF
  8
0
 10
681.9054510916904519
 20
52.631805781938219
 30
0.0
 40
2.004139776199767
 50
280.3174781766368824
 51
298.6399104345820774
  0
ARC
  5
49E0
  8
0
 10
682.395697537961496
 20
49.92034317865199
 30
0.0
 40
0.7512912703533907
 50
100.0650524511982979
 51
150.3660756917323909
  0
ARC
  5
49E1
  8
0
 10
683.8397718826214486
 20
53.4758985457839273
 30
0.0
 40
1.8812091059768501
 50
283.3997429596826123
 51
293.2602672097888785
  0
ARC
  5
49E2
  8
0
 10
686.1328515880610439
 20
48.4052727376404732
 30
0.0
 40
3.6843108763324142
 50
114.8819548712739049
 51
118.6590323722131046
  0
LINE
  5
49E3
  8
0
 10
684.3658701006421552
 20
51.6382161421218768
 30
0.0
 11
682.8659295791219392
 21
50.8122666383911508
 31
0.0
  0
ARC
  5
49E4
  8
0
 10
681.9056058610112814
 20
52.5562333725131623
 30
0.0
 40
1.9908896537201051
 50
273.1668472888467818
 51
298.8395914662143014
  0
ARC
  5
49E5
  8
0
 10
683.8310723464999228
 20
53.4260757258810486
 30
0.0
 40
1.8853336354338459
 50
284.1947690158602882
 51
293.4565386707612902
  0
ARC
  5
49E6
  8
0
 10
686.2848913530323216
 20
48.0636878616845422
 30
0.0
 40
4.0123619074680832
 50
115.1207233394357985
 51
118.5431078806481935
  0
LINE
  5
49E7
  8
0
 10
684.3677052898218562
 20
51.5883787240911431
 30
0.0
 11
682.8651370556219717
 21
50.7572498335911533
 31
0.0
  0
ARC
  5
49E8
  8
0
 10
681.8979367110069916
 20
52.5058167893747765
 30
0.0
 40
1.998239951928015
 50
270.8436669844268749
 51
298.9486865824342772
  0
ARC
  5
49E9
  8
0
 10
683.84839623757955
 20
53.3057842895804015
 30
0.0
 40
1.8070600064583631
 50
285.0537092376895885
 51
293.9197350653062131
  0
ARC
  5
49EA
  8
0
 10
686.3856602021637627
 20
47.845566208926769
 30
0.0
 40
4.2142737679672964
 50
115.3537994763948973
 51
118.602661711311498
  0
LINE
  5
49EB
  8
0
 10
684.3681497758492469
 20
51.5455331102772902
 30
0.0
 11
682.8639245181589104
 21
50.7100340116654422
 31
0.0
  0
ARC
  5
49EC
  8
0
 10
681.8932039387389068
 20
52.4577108387851681
 30
0.0
 40
1.9991680107886649
 50
269.3814772018229178
 51
299.0493180978165242
  0
ARC
  5
49ED
  8
0
 10
683.8007947478018878
 20
53.3910484799962504
 30
0.0
 40
1.9336830248285299
 50
286.6859327134004047
 51
293.802874892813918
  0
ARC
  5
49EE
  8
0
 10
686.0703341237099266
 20
48.4250792352306689
 30
0.0
 40
3.5265846985260212
 50
114.9771068876835045
 51
118.8633635513998996
  0
LINE
  5
49EF
  8
0
 10
684.3679723798718442
 20
51.5135682070411534
 30
0.0
 11
682.8538525862219331
 21
50.6697896119911491
 31
0.0
  0
ARC
  5
49F0
  8
0
 10
681.9034053586804021
 20
52.3753210967700866
 30
0.0
 40
1.9524824142392549
 50
275.9735200348089847
 51
299.1297583741626909
  0
ARC
  5
49F1
  8
0
 10
682.1869030521104378
 20
49.6892698318111599
 30
0.0
 40
0.7484910527310272
 50
96.1590843310352739
 51
126.3872961243692998
  0
ARC
  5
49F2
  8
0
 10
683.8444666404240024
 20
53.2379797198423077
 30
0.0
 40
1.791502888947031
 50
288.6962441089004869
 51
294.2874347967465951
  0
ARC
  5
49F3
  8
0
 10
685.9081677887281785
 20
48.7269528801427896
 30
0.0
 40
3.1692023065233319
 50
114.7502523029644976
 51
119.0810520687503953
  0
LINE
  5
49F4
  8
0
 10
684.3677884356218328
 20
51.4966233854911479
 30
0.0
 11
682.8618240968219197
 21
50.6555288475911425
 31
0.0
  0
ARC
  5
49F5
  8
0
 10
681.8863934191225553
 20
52.4020195800768533
 30
0.0
 40
2.0004236765384071
 50
272.1507930850984849
 51
299.1837486289527988
  0
ARC
  5
49F6
  8
0
 10
683.8877614478218447
 20
53.1165242922911602
 30
0.0
 40
1.664967703800019
 50
292.4715991045197825
 51
349.1788368810990164
  0
ARC
  5
49F7
  8
0
 10
685.6691146451923942
 20
52.7749587526991206
 30
0.0
 40
0.1488400699885662
 50
91.8155377398792751
 51
168.7734004852281942
  0
ARC
  5
49F8
  8
0
 10
681.7451470283391473
 20
51.5648459884826877
 30
0.0
 40
0.0774003693878584
 50
111.3689279599994961
 51
181.8045592850816945
  0
LINE
  5
49F9
  8
0
 10
681.6677850450681717
 20
51.5624086280756373
 30
0.0
 11
681.7403887084230973
 21
50.2918241057911501
 31
0.0
  0
ARC
  5
49FA
  8
0
 10
680.5816108845449435
 20
51.5545871575621391
 30
0.0
 40
0.059307570921513
 50
0.3866635924433277
 51
54.8410232244225426
  0
LINE
  5
49FB
  8
0
 10
680.6409171049502902
 20
51.5549873947970809
 30
0.0
 11
680.7453479890007202
 21
50.2918241057911501
 31
0.0
  0
LINE
  5
49FC
  8
0
 10
665.2584628102219995
 20
61.6679071740102103
 30
0.0
 11
664.30678458452212
 21
62.6157614056102005
 31
0.0
  0
LINE
  5
49FD
  8
0
 10
664.30678458452212
 20
62.6157614056102005
 30
0.0
 11
664.0050677695686545
 21
62.8983980998897323
 31
0.0
  0
LINE
  5
49FE
  8
0
 10
665.179216042122107
 20
61.5886403028101981
 30
0.0
 11
664.2351403543241304
 21
62.5432270131842074
 31
0.0
  0
LINE
  5
49FF
  8
0
 10
664.2351403543241304
 20
62.5432270131842074
 30
0.0
 11
663.9487997351337754
 21
62.8414309487393226
 31
0.0
  0
LINE
  5
4A00
  8
0
 10
664.0050677695686545
 20
62.8983980998897323
 30
0.0
 11
663.9487997351337754
 21
62.8414309487393226
 31
0.0
  0
LINE
  5
4A01
  8
0
 10
665.3008999423218484
 20
61.6679071740102103
 30
0.0
 11
666.2525781680219552
 21
62.6157614056102005
 31
0.0
  0
LINE
  5
4A02
  8
0
 10
666.2525781680219552
 20
62.6157614056102005
 30
0.0
 11
666.5542949829754207
 21
62.8983980998897323
 31
0.0
  0
LINE
  5
4A03
  8
0
 10
665.3801467104218546
 20
61.5886403028101981
 30
0.0
 11
666.3242223982199448
 21
62.5432270131842074
 31
0.0
  0
LINE
  5
4A04
  8
0
 10
666.3242223982199448
 20
62.5432270131842074
 30
0.0
 11
666.6105630174101861
 21
62.8414309487393226
 31
0.0
  0
LINE
  5
4A05
  8
0
 10
666.5542949829754207
 20
62.8983980998897323
 30
0.0
 11
666.6105630174101861
 21
62.8414309487393226
 31
0.0
  0
ARC
  5
4A06
  8
0
 10
665.2796813762720376
 20
61.6891454625075824
 30
0.0
 40
0.0300215329974018
 50
225.0266155590084054
 51
314.973384440988184
  0
LINE
  5
4A07
  8
0
 10
665.2584628102219995
 20
61.4786877702911596
 30
0.0
 11
664.30678458452212
 21
60.5308335386911693
 31
0.0
  0
LINE
  5
4A08
  8
0
 10
664.30678458452212
 20
60.5308335386911693
 30
0.0
 11
664.0050677695686545
 21
60.2481968444116376
 31
0.0
  0
LINE
  5
4A09
  8
0
 10
665.1792279319220142
 20
61.5462275968101977
 30
0.0
 11
664.2351403543241304
 21
60.6033679311171625
 31
0.0
  0
LINE
  5
4A0A
  8
0
 10
664.2351403543241304
 20
60.6033679311171625
 30
0.0
 11
663.9487997351337754
 21
60.3051639955620402
 31
0.0
  0
LINE
  5
4A0B
  8
0
 10
664.0050677695686545
 20
60.2481968444116376
 30
0.0
 11
663.9487997351337754
 21
60.3051639955620402
 31
0.0
  0
LINE
  5
4A0C
  8
0
 10
665.3008999423218484
 20
61.4786877702911596
 30
0.0
 11
666.2525781680219552
 21
60.5308335386911693
 31
0.0
  0
LINE
  5
4A0D
  8
0
 10
666.2525781680219552
 20
60.5308335386911693
 30
0.0
 11
666.5542949829754207
 21
60.2481968444116376
 31
0.0
  0
LINE
  5
4A0E
  8
0
 10
665.3801242333220216
 20
61.5462276696101966
 30
0.0
 11
666.3242223982199448
 21
60.6033679311171625
 31
0.0
  0
LINE
  5
4A0F
  8
0
 10
666.3242223982199448
 20
60.6033679311171625
 30
0.0
 11
666.6105630174101861
 21
60.3051639955620402
 31
0.0
  0
LINE
  5
4A10
  8
0
 10
666.5542949829754207
 20
60.2481968444116376
 30
0.0
 11
666.6105630174101861
 21
60.3051639955620402
 31
0.0
  0
ARC
  5
4A11
  8
0
 10
665.2796813762720376
 20
61.4574494817937875
 30
0.0
 40
0.0300215329974018
 50
45.0266155590118373
 51
134.9733844409915946
  0
ARC
  5
4A12
  8
0
 10
665.1580114073761933
 20
61.5674280037253325
 30
0.0
 40
0.0299933020384013
 50
315.0217713100424817
 51
45.0103528058459617
  0
ARC
  5
4A13
  8
0
 10
665.4013201959961634
 20
61.5674227591034509
 30
0.0
 40
0.0299750004556466
 50
134.94045098284289
 51
224.9988198078316941
  0
LINE
  5
4A14
  8
0
 10
665.2236595105217702
 20
115.6472380831904019
 30
0.0
 11
665.2236623404219245
 21
113.3834018830904
 31
0.0
  0
ARC
  5
4A15
  8
0
 10
681.3152703319309467
 20
113.3834219983449998
 30
0.0
 40
16.0916079915216486
 50
180.0000716223752875
 51
182.5438129522057125
  0
ARC
  5
4A16
  8
0
 10
679.8767738028843723
 20
115.6629904979380967
 30
0.0
 40
14.6531227594531597
 50
177.3345970896905897
 51
180.0615941783084111
  0
LINE
  5
4A17
  8
0
 10
665.3357232942009887
 20
115.6472380831904019
 30
0.0
 11
665.3357204643009482
 21
113.3834018830904
 31
0.0
  0
ARC
  5
4A18
  8
0
 10
649.2441124727919259
 20
113.3834219983449998
 30
0.0
 40
16.0916079915216486
 50
357.4561870477941738
 51
359.9999283776245989
  0
ARC
  5
4A19
  8
0
 10
650.6826090018385003
 20
115.6629904979380967
 30
0.0
 40
14.6531227594531597
 50
359.9384058216915037
 51
2.6654029103093348
  0
LINE
  5
4A1A
  8
0
 10
665.2395194194823489
 20
112.669222898856404
 30
0.0
 11
665.31986338524041
 21
112.669222898856404
 31
0.0
  0
LINE
  5
4A1B
  8
0
 10
665.2395037105175106
 20
116.3444087591469014
 30
0.0
 11
665.319879094205362
 21
116.3444087591469014
 31
0.0
  0
ARC
  5
4A1C
  8
0
 10
665.1178174805415892
 20
54.5810954229055625
 30
0.0
 40
3.4806108137277012
 50
175.4633530758144104
 51
178.6992041702667109
  0
LINE
  5
4A1D
  8
0
 10
661.6381036407470901
 20
54.6601095341815366
 30
0.0
 11
661.6380755628362067
 21
54.4637241057904617
 31
0.0
  0
LINE
  5
4A1E
  8
0
 10
661.6481116062361707
 20
54.8564003128904432
 30
0.0
 11
661.7284627064361757
 21
54.8564003128904432
 31
0.0
  0
ARC
  5
4A1F
  8
0
 10
658.2587568321310982
 20
54.5810954229055625
 30
0.0
 40
3.4806108137277012
 50
1.3007958297332689
 51
4.5366469241855532
  0
LINE
  5
4A20
  8
0
 10
661.7384706719254837
 20
54.6601095341815366
 30
0.0
 11
661.7384987498362534
 21
54.4637241057904617
 31
0.0
  0
ARC
  5
4A21
  8
0
 10
670.1179335450229928
 20
54.5810954229055625
 30
0.0
 40
3.4806108137277012
 50
175.4633530758144104
 51
178.6992041702667109
  0
LINE
  5
4A22
  8
0
 10
666.6382197052284937
 20
54.6601095341815366
 30
0.0
 11
666.6381916273177239
 21
54.4637241057904617
 31
0.0
  0
LINE
  5
4A23
  8
0
 10
666.6482276707176879
 20
54.8564003128904432
 30
0.0
 11
666.7285787709175793
 21
54.8564003128904432
 31
0.0
  0
ARC
  5
4A24
  8
0
 10
663.2588728966123881
 20
54.5810954229055625
 30
0.0
 40
3.4806108137277012
 50
1.3007958297332689
 51
4.5366469241855532
  0
LINE
  5
4A25
  8
0
 10
666.7385867364068872
 20
54.6601095341815366
 30
0.0
 11
666.7386148143177707
 21
54.4637241057904617
 31
0.0
  0
ARC
  5
4A26
  8
0
 10
675.1179087900741251
 20
54.5810954229055625
 30
0.0
 40
3.4806108137277012
 50
175.4633530758144104
 51
178.6992041702667109
  0
LINE
  5
4A27
  8
0
 10
671.638194950279626
 20
54.6601095341815366
 30
0.0
 11
671.6381668723688563
 21
54.4637241057904617
 31
0.0
  0
LINE
  5
4A28
  8
0
 10
671.6482029157688203
 20
54.8564003128904432
 30
0.0
 11
671.7285540159688253
 21
54.8564003128904432
 31
0.0
  0
ARC
  5
4A29
  8
0
 10
668.2588481416636341
 20
54.5810954229055625
 30
0.0
 40
3.4806108137277012
 50
1.3007958297332689
 51
4.5366469241855532
  0
LINE
  5
4A2A
  8
0
 10
671.7385619814581332
 20
54.6601095341815366
 30
0.0
 11
671.738590059368903
 21
54.4637241057904617
 31
0.0
  0
ARC
  5
4A2B
  8
0
 10
680.1177753011346567
 20
54.5810954229055625
 30
0.0
 40
3.4806108137277012
 50
175.4633530758144104
 51
178.6992041702667109
  0
LINE
  5
4A2C
  8
0
 10
676.6380614613401576
 20
54.6601095341815366
 30
0.0
 11
676.6380333834295016
 21
54.4637241057904617
 31
0.0
  0
LINE
  5
4A2D
  8
0
 10
676.6480694268293519
 20
54.8564003128904432
 30
0.0
 11
676.7284205270294706
 21
54.8564003128904432
 31
0.0
  0
ARC
  5
4A2E
  8
0
 10
673.258714652724052
 20
54.5810954229055625
 30
0.0
 40
3.4806108137277012
 50
1.3007958297332689
 51
4.5366469241855532
  0
LINE
  5
4A2F
  8
0
 10
676.7384284925185511
 20
54.6601095341815366
 30
0.0
 11
676.7384565704294346
 21
54.4637241057904617
 31
0.0
  0
LINE
  5
4A30
  8
0
 10
670.7896126421901499
 20
52.9237241057911376
 30
0.0
 11
670.7916534797218446
 21
52.0591615704911419
 31
0.0
  0
ARC
  5
4A31
  8
0
 10
670.5321673353306551
 20
52.0585490421420332
 30
0.0
 40
0.2594868673401808
 50
332.1293693794330011
 51
0.1352489325898413
  0
LINE
  5
4A32
  8
0
 10
670.6863169570623313
 20
52.9237241057911376
 30
0.0
 11
670.6897880480219101
 21
52.051299483791162
 31
0.0
  0
ARC
  5
4A33
  8
0
 10
670.928746873431237
 20
52.0522502224540489
 30
0.0
 40
0.2389607167401801
 50
180.2279598808661945
 51
208.7746366182607005
  0
LINE
  5
4A34
  8
0
 10
670.7192930608217694
 20
51.937222727791152
 30
0.0
 11
670.7615551198218782
 21
51.9372449669911589
 31
0.0
  0
ARC
  5
4A35
  8
0
 10
652.7965468833821205
 20
80.788215728971764
 30
0.0
 40
0.0300363936453368
 50
91.1928970280562083
 51
179.6137848173956115
  0
ARC
  5
4A36
  8
0
 10
652.974759063691522
 20
180.5737317021358876
 30
0.0
 40
99.755646395330885
 50
269.8972826162249135
 51
270.2148312525339975
  0
LINE
  5
4A37
  8
0
 10
653.3487932496218491
 20
80.818786530590458
 30
0.0
 11
655.8744956015218577
 21
80.8187865837904553
 31
0.0
  0
LINE
  5
4A38
  8
0
 10
655.8744956015218577
 20
80.8187865837904553
 30
0.0
 11
657.8746638019217698
 21
80.8076116361904582
 31
0.0
  0
LINE
  5
4A39
  8
0
 10
657.8746638019217698
 20
80.8076116361904582
 30
0.0
 11
663.6241034242218575
 21
80.8075882071904488
 31
0.0
  0
ARC
  5
4A3A
  8
0
 10
663.6241033019889528
 20
80.7775924263879546
 30
0.0
 40
0.0299957808027291
 50
0.0352281148437477
 51
89.9997665193634475
  0
LINE
  5
4A3B
  8
0
 10
663.6540990771219413
 20
80.777610869190454
 30
0.0
 11
663.6642227556219495
 21
79.5709220601904548
 31
0.0
  0
ARC
  5
4A3C
  8
0
 10
668.6837112114942556
 20
79.6130337355310331
 30
0.0
 40
5.0196651035537361
 50
180.4806793917846051
 51
183.6675951047342892
  0
ARC
  5
4A3D
  8
0
 10
652.7965150392014948
 20
80.9738584074060128
 30
0.0
 40
0.0300038671593786
 50
180.004179812220201
 51
268.8665828220912886
  0
ARC
  5
4A3E
  8
0
 10
653.3150168643539928
 20
112.5515201756463028
 30
0.0
 40
31.6119220511854593
 50
269.0591110633890253
 51
270.061218823964623
  0
LINE
  5
4A3F
  8
0
 10
653.3487932496218491
 20
80.9396161689904545
 30
0.0
 11
655.8744956016217884
 21
80.9396161689904545
 31
0.0
  0
LINE
  5
4A40
  8
0
 10
655.8744956016217884
 20
80.9396161689904545
 30
0.0
 11
663.6250706392992242
 21
80.9284402457909238
 31
0.0
  0
ARC
  5
4A41
  8
0
 10
663.6241059735218641
 20
80.9584186969904493
 30
0.0
 40
0.0299939679999937
 50
271.8430642684919007
 51
0.0023560787089123
  0
LINE
  5
4A42
  8
0
 10
663.6541022730218629
 20
80.9584251737904452
 30
0.0
 11
663.654098468321763
 21
92.8796008658904526
 31
0.0
  0
ARC
  5
4A43
  8
0
 10
663.6241163998711272
 20
92.8796008563215452
 30
0.0
 40
0.0299820684508161
 50
0.0000182862210367
 51
90.024681826475927
  0
LINE
  5
4A44
  8
0
 10
663.6241034842217914
 20
92.909582921990463
 30
0.0
 11
653.3487932496218491
 21
92.9206296998904548
 31
0.0
  0
ARC
  5
4A45
  8
0
 10
653.2039853104984104
 20
-41.7744381649568126
 30
0.0
 40
134.6951457048658085
 50
89.9384024917414564
 51
90.1735798749333952
  0
ARC
  5
4A46
  8
0
 10
652.798296248401698
 20
92.8860127528702577
 30
0.0
 40
0.034159305720309
 50
93.9863093055693071
 51
158.5121683323031903
  0
ARC
  5
4A47
  8
0
 10
652.7975442765366552
 20
93.0772659661660526
 30
0.0
 40
0.0316040737866854
 50
190.9075828730150874
 51
267.0568181233809923
  0
LINE
  5
4A48
  8
0
 10
652.7959215455717867
 20
93.0457035799424261
 30
0.0
 11
653.3487932496218491
 21
93.0414593383904531
 31
0.0
  0
LINE
  5
4A49
  8
0
 10
653.3487932496218491
 20
93.0414593383904531
 30
0.0
 11
663.624878588159163
 21
93.0304235203949048
 31
0.0
  0
ARC
  5
4A4A
  8
0
 10
663.6241040005219247
 20
93.060402812790457
 30
0.0
 40
0.0299892974000001
 50
271.4800459629670968
 51
0.0016072025996795
  0
LINE
  5
4A4B
  8
0
 10
663.6540982301219174
 20
93.0604133618904541
 30
0.0
 11
663.6540984264219105
 21
105.084336362190399
 31
0.0
  0
LINE
  5
4A4C
  8
0
 10
663.6540984264219105
 20
105.084336362190399
 30
0.0
 11
663.6643182049218694
 21
106.267930315190398
 31
0.0
  0
ARC
  5
4A4D
  8
0
 10
668.7933357527532507
 20
106.2236436549480061
 30
0.0
 40
5.1292087415348124
 50
176.3883044275455063
 51
179.505290118411807
  0
ARC
  5
4A4E
  8
0
 10
663.8048951383043459
 20
80.7775926143333436
 30
0.0
 40
0.0299953275374379
 50
90.0237655655247835
 51
179.9651303580070874
  0
LINE
  5
4A4F
  8
0
 10
663.774899816321863
 20
80.777610869190454
 30
0.0
 11
663.7647761378218547
 21
79.5709220601904548
 31
0.0
  0
ARC
  5
4A50
  8
0
 10
658.7452876819495486
 20
79.6130337355310331
 30
0.0
 40
5.0196651035537361
 50
356.3324048952657108
 51
359.5193206082154234
  0
ARC
  5
4A51
  8
0
 10
663.8049213120067407
 20
80.9584301897398859
 30
0.0
 40
0.0300223618123969
 50
180.0195793356747913
 51
268.1033214487915188
  0
LINE
  5
4A52
  8
0
 10
663.7748966204219414
 20
80.9584251737904452
 30
0.0
 11
663.7749004251219276
 21
92.8796008658904526
 31
0.0
  0
ARC
  5
4A53
  8
0
 10
663.8048874711706731
 20
92.8795987939034688
 30
0.0
 40
0.0299870461204316
 50
90.0027058134334936
 51
179.9960410868908127
  0
ARC
  5
4A54
  8
0
 10
663.8048948929218795
 20
93.060402812790457
 30
0.0
 40
0.0299892974000001
 50
179.9983927974002995
 51
269.1819812308480095
  0
LINE
  5
4A55
  8
0
 10
663.7749006633217732
 20
93.0604133618904541
 30
0.0
 11
663.7749004670218937
 21
105.084336362190399
 31
0.0
  0
LINE
  5
4A56
  8
0
 10
663.7749004670218937
 20
105.084336362190399
 30
0.0
 11
663.7646806885219348
 21
106.267930315190398
 31
0.0
  0
ARC
  5
4A57
  8
0
 10
658.6356631406905535
 20
106.2236436549480061
 30
0.0
 40
5.1292087415348124
 50
0.4947098815881758
 51
3.6116955724544408
  0
LINE
  5
4A58
  8
0
 10
663.6743266012217646
 20
79.2919362764904605
 30
0.0
 11
663.754672292221926
 21
79.2919362764904463
 31
0.0
  0
LINE
  5
4A59
  8
0
 10
663.6743141817219112
 20
106.5467542699904016
 30
0.0
 11
663.7546847117218931
 21
106.5467542699904016
 31
0.0
  0
LINE
  5
4A5A
  8
0
 10
663.6541511202143511
 20
105.0904390437792983
 30
0.0
 11
657.9644954440218498
 21
105.0904358237904006
 31
0.0
  0
ARC
  5
4A5B
  8
0
 10
657.9644955119305223
 20
104.970442682554804
 30
0.0
 40
0.119993141235598
 50
90.0000324258243865
 51
180.0136935499365052
  0
LINE
  5
4A5C
  8
0
 10
657.8445023741219302
 20
104.9704140044903937
 30
0.0
 11
657.8445001527602471
 21
93.0366312543964256
 31
0.0
  0
LINE
  5
4A5D
  8
0
 10
657.8445001302679884
 20
92.9157964564866035
 30
0.0
 11
657.844497900485635
 21
80.936775528871749
 31
0.0
  0
LINE
  5
4A5E
  8
0
 10
663.6540984255412923
 20
105.0303927222782931
 30
0.0
 11
657.9644955467218779
 21
105.0303891545903952
 31
0.0
  0
ARC
  5
4A5F
  8
0
 10
657.9644955843499474
 20
104.970381578399298
 30
0.0
 40
0.0600075761911392
 50
90.0000359275424273
 51
179.9690354525359055
  0
LINE
  5
4A60
  8
0
 10
657.9044880169218459
 20
104.9704140084903941
 30
0.0
 11
657.9044880169218459
 21
93.036566831502995
 31
0.0
  0
LINE
  5
4A61
  8
0
 10
657.9044880169218459
 20
92.9157319647247562
 30
0.0
 11
657.9044880169218459
 21
80.9366890262663645
 31
0.0
  0
LINE
  5
4A62
  8
0
 10
663.8044667466436977
 20
93.0304165717904255
 30
0.0
 11
678.3487079672219124
 21
93.0304165717904255
 31
0.0
  0
LINE
  5
4A63
  8
0
 10
663.8048860550219388
 20
92.9095858399904415
 30
0.0
 11
678.3487079672219124
 21
92.9095858399904415
 31
0.0
  0
LINE
  5
4A64
  8
0
 10
670.6353377510217797
 20
105.123724176690402
 30
0.0
 11
670.6353377510217797
 21
93.0304165717904255
 31
0.0
  0
LINE
  5
4A65
  8
0
 10
670.6353377510217797
 20
92.9095858399904415
 30
0.0
 11
670.6353377510217797
 21
86.7367192042467678
 31
0.0
  0
LINE
  5
4A66
  8
0
 10
670.6353377510217797
 20
86.6767208493312609
 30
0.0
 11
670.6353377510217797
 21
80.9284242760904533
 31
0.0
  0
LINE
  5
4A67
  8
0
 10
670.6353377510217797
 20
80.8075879392904568
 30
0.0
 11
670.6353377510217797
 21
54.4637241057904617
 31
0.0
  0
LINE
  5
4A68
  8
0
 10
670.6953374329218605
 20
105.1237240979904044
 30
0.0
 11
670.6953374329218605
 21
93.0304165717904255
 31
0.0
  0
LINE
  5
4A69
  8
0
 10
670.6953374329218605
 20
92.9095858399904415
 30
0.0
 11
670.6953374329218605
 21
86.7367191051960731
 31
0.0
  0
LINE
  5
4A6A
  8
0
 10
670.6953374329218605
 20
86.6767207487853568
 30
0.0
 11
670.6953374329218605
 21
80.9284242760904533
 31
0.0
  0
LINE
  5
4A6B
  8
0
 10
670.6953374329218605
 20
80.8075879392904568
 30
0.0
 11
670.6953374329218605
 21
54.4637241057904617
 31
0.0
  0
LINE
  5
4A6C
  8
0
 10
670.7703380361219843
 20
105.1237240924904057
 30
0.0
 11
670.7703380361219843
 21
93.0304165717904255
 31
0.0
  0
LINE
  5
4A6D
  8
0
 10
670.7703380361219843
 20
92.9095858399904415
 30
0.0
 11
670.7703380361219843
 21
86.7367189813811166
 31
0.0
  0
LINE
  5
4A6E
  8
0
 10
670.7703380361219843
 20
86.6767206231013319
 30
0.0
 11
670.7703380361219843
 21
80.9284242760904533
 31
0.0
  0
LINE
  5
4A6F
  8
0
 10
670.7703380361219843
 20
80.8075879392904568
 30
0.0
 11
670.7703380361219843
 21
54.4637241057904617
 31
0.0
  0
LINE
  5
4A70
  8
0
 10
670.8303376398218916
 20
105.1237241635903956
 30
0.0
 11
670.8303376398218916
 21
93.0304165717904255
 31
0.0
  0
LINE
  5
4A71
  8
0
 10
670.8303376398218916
 20
92.9095858399904415
 30
0.0
 11
670.8303376398218916
 21
86.7367188823305639
 31
0.0
  0
LINE
  5
4A72
  8
0
 10
670.8303376398218916
 20
86.6767205225555557
 30
0.0
 11
670.8303376398218916
 21
80.9284242760904533
 31
0.0
  0
LINE
  5
4A73
  8
0
 10
670.8303376398218916
 20
80.8075879392904568
 30
0.0
 11
670.8303376398218916
 21
54.4637241057904617
 31
0.0
  0
ARC
  5
4A74
  8
0
 10
670.7328376952538065
 20
105.1212242147609004
 30
0.0
 40
0.0975319892901957
 50
1.468771498531767
 51
178.5312208032611068
  0
ARC
  5
4A75
  8
0
 10
670.7328377344458659
 20
105.1226870849578034
 30
0.0
 40
0.0375146372822293
 50
1.5840143663222399
 51
178.4159772303628984
  0
LINE
  5
4A76
  8
0
 10
663.7748984645955943
 20
86.7367305298244418
 30
0.0
 11
670.6353377510217797
 21
86.7367192042467678
 31
0.0
  0
LINE
  5
4A77
  8
0
 10
670.6953374329218605
 20
86.7367191051960731
 30
0.0
 11
670.7703380361219843
 21
86.7367189813811166
 31
0.0
  0
LINE
  5
4A78
  8
0
 10
670.8303376398218916
 20
86.7367188823305639
 30
0.0
 11
675.7149272985219568
 21
86.7367108185904669
 31
0.0
  0
ARC
  5
4A79
  8
0
 10
675.7149271003952435
 20
86.6166961220883138
 30
0.0
 40
0.1200146965023193
 50
359.9930786113329191
 51
89.9999054130843348
  0
LINE
  5
4A7A
  8
0
 10
675.8349417960218943
 20
86.6166816241904485
 30
0.0
 11
675.8349417960218943
 21
80.9284242760904533
 31
0.0
  0
LINE
  5
4A7B
  8
0
 10
663.7748984454467518
 20
86.6767323458756067
 30
0.0
 11
670.6353377510217797
 21
86.6767208493312609
 31
0.0
  0
LINE
  5
4A7C
  8
0
 10
670.6953374329218605
 20
86.6767207487853568
 30
0.0
 11
670.7703380361219843
 21
86.6767206231013319
 31
0.0
  0
LINE
  5
4A7D
  8
0
 10
670.8303376398218916
 20
86.6767205225555557
 30
0.0
 11
675.7148066418219514
 21
86.6767123372904535
 31
0.0
  0
ARC
  5
4A7E
  8
0
 10
675.714806541199323
 20
86.6166668739616057
 30
0.0
 40
0.0600454633289286
 50
0.1287102061600091
 51
89.9999039852353349
  0
LINE
  5
4A7F
  8
0
 10
675.7748518530220281
 20
86.6168017609904553
 30
0.0
 11
675.7748518530220281
 21
80.9284242760904533
 31
0.0
  0
LINE
  5
4A80
  8
0
 10
663.8048826966219167
 20
80.8075879392904568
 30
0.0
 11
678.3487079672219124
 21
80.8075879392904568
 31
0.0
  0
LINE
  5
4A81
  8
0
 10
663.8039276546927567
 20
80.9284242760904533
 30
0.0
 11
678.3487079672219124
 21
80.9284242760904533
 31
0.0
  0
ARC
  5
4A82
  8
0
 10
681.5699956559145676
 20
106.9796615066987044
 30
0.0
 40
2.1443754703084581
 50
183.0324661622350106
 51
217.8783777314590964
  0
ARC
  5
4A83
  8
0
 10
678.3253089225084977
 20
104.4012668954949987
 30
0.0
 40
2.0002705382235471
 50
0.0006013236987601
 51
39.1093357519551574
  0
LINE
  5
4A84
  8
0
 10
680.3255794606218387
 20
104.4012878884910975
 30
0.0
 11
680.3255794606218387
 21
101.1122417245911009
 31
0.0
  0
ARC
  5
4A85
  8
0
 10
678.3252445026865871
 20
101.1122417245911009
 30
0.0
 40
2.0003349579352072
 50
320.6593373180799063
 51
0.0
  0
ARC
  5
4A86
  8
0
 10
681.4306901649690644
 20
98.5877976965549294
 30
0.0
 40
2.0017737879112918
 50
141.1245678033183992
 51
178.8759506586353893
  0
ARC
  5
4A87
  8
0
 10
684.3422335607095874
 20
104.1200241208528041
 30
0.0
 40
0.6752099664656991
 50
275.6002109614353799
 51
338.4739102921719791
  0
ARC
  5
4A88
  8
0
 10
683.1515278168334362
 20
123.5400151653052063
 30
0.0
 40
20.13123510575425
 50
269.361887159763512
 51
273.5787446654807127
  0
ARC
  5
4A89
  8
0
 10
680.943609140116223
 20
181.709139037610413
 30
0.0
 40
78.3242353384207917
 50
269.5478939620205097
 51
271.4512856952720199
  0
ARC
  5
4A8A
  8
0
 10
684.3409895800355116
 20
101.5357627633928956
 30
0.0
 40
0.6738748062327659
 50
20.9424812732796504
 51
86.0594514652805032
  0
ARC
  5
4A8B
  8
0
 10
684.2454422112480188
 20
87.1806772953837452
 30
0.0
 40
15.0280367061931006
 50
89.4591492345405186
 51
94.8870255148546846
  0
ARC
  5
4A8C
  8
0
 10
681.9072778691013355
 20
123.4844716265740061
 30
0.0
 40
21.3566083083510208
 50
268.7902893296572984
 51
272.8393265209822971
  0
ARC
  5
4A8D
  8
0
 10
681.2929872371585134
 20
-122.1396115944784952
 30
0.0
 40
224.2722944135686873
 50
89.9582522490004663
 51
90.2471484705639426
  0
ARC
  5
4A8E
  8
0
 10
691.0191414276396245
 20
102.1180857394620034
 30
0.0
 40
6.6324523696975417
 50
179.2228496067604055
 51
190.959533110488195
  0
ARC
  5
4A8F
  8
0
 10
684.3132393105913707
 20
100.8002899820625942
 30
0.0
 40
0.2025594492394806
 50
266.516991536313185
 51
16.3032746526878611
  0
ARC
  5
4A90
  8
0
 10
684.5832183785629468
 20
103.6374911577316027
 30
0.0
 40
3.0524670297040251
 50
242.951450209610698
 51
264.6938377069677131
  0
ARC
  5
4A91
  8
0
 10
691.2193763233283335
 20
116.7018663353329941
 30
0.0
 40
17.7056690347532886
 50
239.2864684010527014
 51
243.0506619699536941
  0
ARC
  5
4A92
  8
0
 10
679.4334489451586023
 20
96.5666514918164154
 30
0.0
 40
5.626860902381039
 50
60.8267123130885778
 51
80.8773423427467861
  0
ARC
  5
4A93
  8
0
 10
683.5703865767485468
 20
108.5741944598542972
 30
0.0
 40
2.0256376667716198
 50
325.6944002793612185
 51
358.5074550730936949
  0
ARC
  5
4A94
  8
0
 10
685.2800269225729153
 20
107.4101090476808054
 30
0.0
 40
0.0427314754449347
 50
148.3502547594517864
 51
180.6538693272410967
  0
LINE
  5
4A95
  8
0
 10
685.2372982297217732
 20
107.4096213992910975
 30
0.0
 11
685.2372982297217732
 21
101.2456434655911011
 31
0.0
  0
ARC
  5
4A96
  8
0
 10
685.2807305616991016
 20
101.2456434655911011
 30
0.0
 40
0.0434323319772361
 50
180.0000000000032117
 51
211.5333189228211097
  0
ARC
  5
4A97
  8
0
 10
683.6423570589532801
 20
100.1060592106055935
 30
0.0
 40
1.952366167278335
 50
10.9820746596721808
 51
34.8939582727822781
  0
ARC
  5
4A98
  8
0
 10
683.5616626417062207
 20
100.094829727661093
 30
0.0
 40
2.0337267008189932
 50
0.4111116167076684
 51
10.8595622496325603
  0
ARC
  5
4A99
  8
0
 10
596.6596768289207375
 20
111.5442002829803982
 30
0.0
 40
88.9355559459631593
 50
355.3647620528154221
 51
357.7470269248767067
  0
ARC
  5
4A9A
  8
0
 10
685.653917958887746
 20
104.3288035291724043
 30
0.0
 40
0.3507078610390348
 50
175.3647620528153936
 51
184.6280268594115057
  0
ARC
  5
4A9B
  8
0
 10
597.2727915364988576
 20
97.1434625335566011
 30
0.0
 40
88.3220198328134956
 50
2.5274841156887731
 51
4.6479745980418237
  0
LINE
  5
4A9C
  8
0
 10
685.2372982297217732
 20
104.8627544570125991
 30
0.0
 11
685.2807104147879045
 21
104.3497526476751034
 31
0.0
  0
ARC
  5
4A9D
  8
0
 10
685.0463873794849405
 20
104.3299233316985948
 30
0.0
 40
0.2351605550378795
 50
354.493459733091413
 51
4.8370646847490004
  0
LINE
  5
4A9E
  8
0
 10
685.2804627276259453
 20
104.3073574716792962
 30
0.0
 11
685.2372982297217732
 21
103.7956950935469962
 31
0.0
  0
LINE
  5
4A9F
  8
0
 10
685.2372982297217732
 20
105.0974409956247939
 30
0.0
 11
685.2921043154374274
 21
104.4490713755612035
 31
0.0
  0
ARC
  5
4AA0
  8
0
 10
596.4794003840668211
 20
111.6745836473884026
 30
0.0
 40
89.1061412428549602
 50
355.3488458495133955
 51
357.6285698218368907
  0
LINE
  5
4AA1
  8
0
 10
685.2372982297217732
 20
103.5657127030952012
 30
0.0
 11
685.2922179346157918
 21
104.210090075563798
 31
0.0
  0
ARC
  5
4AA2
  8
0
 10
597.073808058866689
 20
97.0116544457936669
 30
0.0
 40
88.5116111960551137
 50
2.5068693115994969
 51
4.6648794676676184
  0
ARC
  5
4AA3
  8
0
 10
593.5636431167843057
 20
104.7918135122956045
 30
0.0
 40
92.0218290176223945
 50
357.6623177098301767
 51
359.9056076938023807
  0
LINE
  5
4AA4
  8
0
 10
685.5853472556126462
 20
104.6402116175981973
 30
0.0
 11
685.5855933264607529
 21
104.682649688002499
 31
0.0
  0
ARC
  5
4AA5
  8
0
 10
596.8273569956863867
 20
104.5976976076908045
 30
0.0
 40
88.7582769853354421
 50
0.054838788800536
 51
2.162382047699027
  0
ARC
  5
4AA6
  8
0
 10
591.8620502851503034
 20
104.6671850299817947
 30
0.0
 40
93.7317664468458247
 50
357.6906636851906001
 51
2.0799301049366958
  0
ARC
  5
4AA7
  8
0
 10
685.116189347882937
 20
100.8640978301221054
 30
0.0
 40
0.3849911171396875
 50
356.510151135432011
 51
2.8259055113866758
  0
LINE
  5
4AA8
  8
0
 10
685.5004665370219072
 20
100.8406627669911018
 30
0.0
 11
685.4951788057514932
 21
100.7215145101397979
 31
0.0
  0
ARC
  5
4AA9
  8
0
 10
686.3410117759899549
 20
100.8619978276367988
 30
0.0
 40
0.8238063216334331
 50
178.0311918926325916
 51
181.9683650657082978
  0
LINE
  5
4AAA
  8
0
 10
685.5176915463218847
 20
100.8337019801910941
 30
0.0
 11
685.5264701954625934
 21
100.6177733299789026
 31
0.0
  0
ARC
  5
4AAB
  8
0
 10
704.1943789829992966
 20
99.8847090941799109
 30
0.0
 40
18.7026465116774787
 50
177.5420491638433873
 51
177.5645736977147919
  0
LINE
  5
4AAC
  8
0
 10
685.5089395673846866
 20
100.6867941184518997
 30
0.0
 11
685.5093266984779348
 21
100.6771616674614052
 31
0.0
  0
ARC
  5
4AAD
  8
0
 10
681.1836693808608061
 20
92.5519198970705759
 30
0.0
 40
3.7879164540939301
 50
353.5007651414493921
 51
358.5352081074884154
  0
ARC
  5
4AAE
  8
0
 10
688.00605275759699
 20
91.7695541014873442
 30
0.0
 40
3.079182156855484
 50
173.4056322592944923
 51
176.2963723261102018
  0
LINE
  5
4AAF
  8
0
 10
684.9333013790126188
 20
91.9684553848026951
 30
0.0
 11
684.9412656145584606
 21
91.9101729574336161
 31
0.0
  0
ARC
  5
4AB0
  8
0
 10
685.2911334427496968
 20
91.8868100289753755
 30
0.0
 40
0.3670282686204082
 50
112.0828385385215
 51
167.1470390576658076
  0
ARC
  5
4AB1
  8
0
 10
685.2417473786830442
 20
91.8590117022051658
 30
0.0
 40
0.3048061098601302
 50
134.2340237626710859
 51
170.3372488900944006
  0
ARC
  5
4AB2
  8
0
 10
685.3660237674000655
 20
91.7370400021265482
 30
0.0
 40
0.4789088073793099
 50
115.009046979967394
 51
134.7074699947715999
  0
ARC
  5
4AB3
  8
0
 10
684.8236131591448839
 20
92.9097950662444134
 30
0.0
 40
0.8132112719829407
 50
294.7102569170208994
 51
341.6194655980032167
  0
ARC
  5
4AB4
  8
0
 10
684.8667918937674131
 20
92.9171790925693557
 30
0.0
 40
0.7473069399183488
 50
292.5312469497187067
 51
347.1341435621591813
  0
ARC
  5
4AB5
  8
0
 10
685.2595615417535555
 20
91.2914781890829943
 30
0.0
 40
0.2893247396033334
 50
138.3677750329921992
 51
178.4112362395844968
  0
ARC
  5
4AB6
  8
0
 10
685.3908201747032081
 20
91.1748092387837943
 30
0.0
 40
0.4649392967668453
 50
113.3838762479954028
 51
138.3677750329921992
  0
ARC
  5
4AB7
  8
0
 10
684.9299956729819314
 20
92.3097066661024144
 30
0.0
 40
0.7601372508055452
 50
291.3140885368898125
 51
313.6868682475158039
  0
ARC
  5
4AB8
  8
0
 10
685.1383727309271308
 20
92.0936626604211455
 30
0.0
 40
0.4599831238976911
 50
313.5053137640624072
 51
353.4321035006680063
  0
ARC
  5
4AB9
  8
0
 10
685.2424221659571231
 20
91.2370230113951948
 30
0.0
 40
0.2725305238062106
 50
147.3107038096127042
 51
176.6836817232565977
  0
ARC
  5
4ABA
  8
0
 10
685.3733914871712614
 20
91.1394683459311068
 30
0.0
 40
0.4355918493725615
 50
113.5238036894427012
 51
145.8151295849166047
  0
ARC
  5
4ABB
  8
0
 10
684.8561931199983519
 20
92.3874538028165375
 30
0.0
 40
0.915420187754093
 50
292.0282294647440722
 51
303.5772276030451735
  0
ARC
  5
4ABC
  8
0
 10
685.0851697061684717
 20
92.0636548744283658
 30
0.0
 40
0.519143710107052
 50
302.2870041376424979
 51
349.3297811366638257
  0
ARC
  5
4ABD
  8
0
 10
683.5798146698047049
 20
91.0183984495931355
 30
0.0
 40
2.015772708272352
 50
334.4807736588750231
 51
352.2984080532585267
  0
ARC
  5
4ABE
  8
0
 10
683.5554007796692986
 20
91.0300533356697201
 30
0.0
 40
2.0428258855534152
 50
325.7336133385791754
 51
334.4807736588750231
  0
ARC
  5
4ABF
  8
0
 10
685.2799786657284358
 20
89.8574490715157026
 30
0.0
 40
0.0426833767196471
 50
148.3315548705465119
 51
180.6725693449427865
  0
LINE
  5
4AC0
  8
0
 10
685.2372982297217732
 20
89.8569480420911475
 30
0.0
 11
685.2372982297217732
 21
86.7084293782911573
 31
0.0
  0
ARC
  5
4AC1
  8
0
 10
685.2807305603475925
 20
86.7084293782911573
 30
0.0
 40
0.0434323306256275
 50
179.9999999999984084
 51
211.5333229576052076
  0
ARC
  5
4AC2
  8
0
 10
683.6373582836201876
 20
85.5661951579530751
 30
0.0
 40
1.9579822816190711
 50
27.3975838227531092
 51
34.8738821882240728
  0
ARC
  5
4AC3
  8
0
 10
683.6431475096101167
 20
85.569126304278484
 30
0.0
 40
1.9514936031777299
 50
5.6765111352369351
 51
27.3993926936299204
  0
ARC
  5
4AC4
  8
0
 10
685.347978385320971
 20
86.5143095952373642
 30
0.0
 40
0.39749125774819
 50
204.1712825084998997
 51
250.7801877678053017
  0
ARC
  5
4AC5
  8
0
 10
684.9575129606579367
 20
85.4657762339601845
 30
0.0
 40
0.7215219693791975
 50
47.8571503189442424
 51
68.91120030807717
  0
ARC
  5
4AC6
  8
0
 10
685.1279765739892582
 20
85.6498079984126548
 30
0.0
 40
0.4706982647337835
 50
6.8274198663489409
 51
48.2116768860041773
  0
LINE
  5
4AC7
  8
0
 10
684.9378245892219184
 20
86.8188400965911455
 30
0.0
 11
684.9537989802219045
 21
86.7566094099911282
 31
0.0
  0
LINE
  5
4AC8
  8
0
 10
684.9537989802219045
 20
86.7566094099911282
 30
0.0
 11
684.970336947621945
 21
86.7568958863911632
 31
0.0
  0
ARC
  5
4AC9
  8
0
 10
684.9553228185610578
 20
86.7828875235049537
 30
0.0
 40
0.0300164833267842
 50
300.0129772877946266
 51
359.288927973518696
  0
LINE
  5
4ACA
  8
0
 10
684.9853369903219118
 20
86.7933452971911237
 30
0.0
 11
684.9853369838363051
 21
82.7617811838497346
 31
0.0
  0
LINE
  5
4ACB
  8
0
 10
684.9853369798327094
 20
80.2730217096344347
 30
0.0
 11
684.9853369753218431
 21
77.468960289308157
 31
0.0
  0
ARC
  5
4ACC
  8
0
 10
685.4767014279808564
 20
82.8882475548499258
 30
0.0
 40
0.5073783203521325
 50
183.6424166660746096
 51
234.9022764899038123
  0
ARC
  5
4ACD
  8
0
 10
685.0208993792537058
 20
82.1932493927750727
 30
0.0
 40
0.3244228054394812
 50
359.9692668795264012
 51
59.619562888738912
  0
LINE
  5
4ACE
  8
0
 10
685.3453221380218565
 20
82.1930753742911548
 30
0.0
 11
685.3453221380218565
 21
80.8428697313911471
 31
0.0
  0
ARC
  5
4ACF
  8
0
 10
685.0203047477448308
 20
80.8428697313911471
 30
0.0
 40
0.3250173902770967
 50
303.0605177334539917
 51
0.0
  0
ARC
  5
4AD0
  8
0
 10
685.4704624405367213
 20
80.1512879725749912
 30
0.0
 40
0.5001657878760958
 50
123.0605177334540059
 51
179.1787852732556132
  0
LINE
  5
4AD1
  8
0
 10
685.2372982297217732
 20
80.6008983844056246
 30
0.0
 11
685.2372982297217732
 21
80.484096097391145
 31
0.0
  0
ARC
  5
4AD2
  8
0
 10
685.2807305613448534
 20
80.484096097391145
 30
0.0
 40
0.0434323316230554
 50
180.0
 51
211.5333190547409004
  0
ARC
  5
4AD3
  8
0
 10
683.7918271080889099
 20
79.4263167161132486
 30
0.0
 40
1.7830667898358259
 50
21.6510888344540717
 51
35.4854906508148886
  0
ARC
  5
4AD4
  8
0
 10
683.5752561813305874
 20
79.3285425399575104
 30
0.0
 40
2.0204620855420421
 50
1.11311274524255
 51
21.9622149061642205
  0
LINE
  5
4AD5
  8
0
 10
685.2372982297217732
 20
84.4223763868494075
 30
0.0
 11
685.2372982297217732
 21
82.4349551937092855
 31
0.0
  0
ARC
  5
4AD6
  8
0
 10
685.3501649899327504
 20
84.0293009521365235
 30
0.0
 40
0.399128542404937
 50
116.3196995652731971
 51
156.0727850106408994
  0
ARC
  5
4AD7
  8
0
 10
684.7585017078159808
 20
85.2154028110016242
 30
0.0
 40
0.9263568528341029
 50
296.5939967237050041
 51
314.4213338931589874
  0
ARC
  5
4AD8
  8
0
 10
684.9759372377194495
 20
85.0040935938868074
 30
0.0
 40
0.6232916004010089
 50
313.7416674327294004
 51
353.5938639928713769
  0
ARC
  5
4AD9
  8
0
 10
684.891819917116436
 20
85.1015112569065337
 30
0.0
 40
0.7124126327178698
 50
293.7437244766634876
 51
350.9361773415603807
  0
ARC
  5
4ADA
  8
0
 10
685.3251780123589469
 20
84.1163373699041443
 30
0.0
 40
0.3638618798223053
 50
113.7437244766635018
 51
159.0645512177584067
  0
LINE
  5
4ADB
  8
0
 10
685.3739262128401606
 20
84.5230230760233923
 30
0.0
 11
685.2372982297217732
 21
82.7358824945606557
 31
0.0
  0
ARC
  5
4ADC
  8
0
 10
590.8439067628218027
 20
79.2988069015584642
 30
0.0
 40
94.7571068036716184
 50
0.6274863460578699
 51
3.2085115718711368
  0
LINE
  5
4ADD
  8
0
 10
685.3450576577340598
 20
80.8297605195118507
 30
0.0
 11
685.38871567494175
 21
80.2195846923167437
 31
0.0
  0
LINE
  5
4ADE
  8
0
 10
685.3320288311381319
 20
80.7508675585087445
 30
0.0
 11
685.3686525565512966
 21
80.2587521082589888
 31
0.0
  0
LINE
  5
4ADF
  8
0
 10
685.3190244104429212
 20
89.9991463138369454
 30
0.0
 11
685.2372982297217732
 21
89.0167266329824258
 31
0.0
  0
LINE
  5
4AE0
  8
0
 10
685.3812189898663974
 20
90.1138384527251759
 30
0.0
 11
685.5215911497884917
 21
87.5402692849979758
 31
0.0
  0
LINE
  5
4AE1
  8
0
 10
685.5215911497884917
 20
87.5402692849979758
 30
0.0
 11
685.5605918403217629
 21
88.4131555078911759
 31
0.0
  0
ARC
  5
4AE2
  8
0
 10
685.0323403111650578
 20
88.4245051941214371
 30
0.0
 40
0.5283734412647105
 50
358.7691676235709224
 51
36.6684518126069676
  0
LINE
  5
4AE3
  8
0
 10
685.5310170520349402
 20
87.3894047588717058
 30
0.0
 11
685.5623611307737519
 21
88.3495519581321673
 31
0.0
  0
LINE
  5
4AE4
  8
0
 10
685.5623611307737519
 20
88.3495519581321673
 30
0.0
 11
685.5605918403217629
 21
88.4131555078911759
 31
0.0
  0
ARC
  5
4AE5
  8
0
 10
686.2030040919688645
 20
87.3681875238077481
 30
0.0
 40
0.6723219116636538
 50
178.1915509908839113
 51
181.8095809831609984
  0
ARC
  5
4AE6
  8
0
 10
596.8640096241919082
 20
83.9691067898798167
 30
0.0
 40
88.7313256561301529
 50
1.509357607601657
 51
2.181679762299749
  0
LINE
  5
4AE7
  8
0
 10
685.5645487398064688
 20
86.3063088122916895
 30
0.0
 11
685.562835721322017
 21
86.2156716326027066
 31
0.0
  0
ARC
  5
4AE8
  8
0
 10
685.0822116538165574
 20
86.2247552990906172
 30
0.0
 40
0.4807098992763056
 50
339.5698804877998214
 51
358.9172539791371719
  0
LINE
  5
4AE9
  8
0
 10
685.5531340745211537
 20
86.2355197401690816
 30
0.0
 11
685.522391386136178
 21
87.1835154056255988
 31
0.0
  0
LINE
  5
4AEA
  8
0
 10
685.522391386136178
 20
87.1835154056255135
 30
0.0
 11
685.4789611447373545
 21
86.2310293034589677
 31
0.0
  0
LINE
  5
4AEB
  8
0
 10
685.2372982297217732
 20
87.5364080233300967
 30
0.0
 11
685.3194516402650152
 21
86.5683211753111266
 31
0.0
  0
ARC
  5
4AEC
  8
0
 10
685.3440368179526558
 20
86.4483683687947746
 30
0.0
 40
0.3895304412618747
 50
202.9490639363804974
 51
249.4029661828367921
  0
ARC
  5
4AED
  8
0
 10
684.9430321631820107
 20
85.381345052311076
 30
0.0
 40
0.7503570492685019
 50
46.9823471128028629
 51
69.4029661828368489
  0
ARC
  5
4AEE
  8
0
 10
685.1475444784251749
 20
85.6005222338633871
 30
0.0
 40
0.450583928393088
 50
6.3809679843427398
 51
46.9823471128063588
  0
LINE
  5
4AEF
  8
0
 10
685.5953369903219254
 20
85.615344933293585
 30
0.0
 11
684.9853369903219118
 21
85.5991264072130491
 31
0.0
  0
ARC
  5
4AF0
  8
0
 10
684.9553241513626745
 20
86.7931509790415419
 30
0.0
 40
0.0300134680091733
 50
0.3709563865168277
 51
61.006291793386211
  0
LINE
  5
4AF1
  8
0
 10
684.9698720866836084
 20
86.8194029473455373
 30
0.0
 11
684.9378245892219184
 21
86.8188400965911455
 31
0.0
  0
ARC
  5
4AF2
  8
0
 10
684.9304619915224066
 20
86.7897736077472075
 30
0.0
 40
0.0299844729584849
 50
14.7970606317803792
 51
75.7858373504405023
  0
LINE
  5
4AF3
  8
0
 10
684.9594527340218519
 20
86.7974317011911438
 30
0.0
 11
684.9624614878217699
 21
86.7857947911911651
 31
0.0
  0
ARC
  5
4AF4
  8
0
 10
684.9338707015767795
 20
86.7784025679325737
 30
0.0
 40
0.0295309671838921
 50
312.4406768547219144
 51
14.4965121710195906
  0
ARC
  5
4AF5
  8
0
 10
681.5699956559145676
 20
92.4313151150364263
 30
0.0
 40
2.1443754703084581
 50
183.0324661622350106
 51
217.8783777314590964
  0
ARC
  5
4AF6
  8
0
 10
678.3253089225084977
 20
89.8529205038327348
 30
0.0
 40
2.0002705382235471
 50
0.0006013236987601
 51
39.1093357519551574
  0
LINE
  5
4AF7
  8
0
 10
680.3255794606218387
 20
89.8529414968288904
 30
0.0
 11
680.3255794606218387
 21
86.5638953329288938
 31
0.0
  0
ARC
  5
4AF8
  8
0
 10
678.3252445026865871
 20
86.5638953329288938
 30
0.0
 40
2.0003349579352072
 50
320.6593373180799063
 51
0.0
  0
ARC
  5
4AF9
  8
0
 10
681.4306901649690644
 20
84.0394513048926655
 30
0.0
 40
2.0017737879112918
 50
141.1245678033183992
 51
178.8759506586353893
  0
ARC
  5
4AFA
  8
0
 10
684.3422335607095874
 20
89.5716777291905828
 30
0.0
 40
0.6752099664656991
 50
275.6002109614353799
 51
338.4739102921719791
  0
ARC
  5
4AFB
  8
0
 10
683.1515278168334362
 20
108.9916687736429992
 30
0.0
 40
20.13123510575425
 50
269.361887159763512
 51
273.5787446654807127
  0
ARC
  5
4AFC
  8
0
 10
680.943609140116223
 20
167.1607926459481064
 30
0.0
 40
78.3242353384207917
 50
269.5478939620205097
 51
271.4512856952720199
  0
ARC
  5
4AFD
  8
0
 10
684.3409895800355116
 20
86.9874163717306601
 30
0.0
 40
0.6738748062327659
 50
20.9424812732796504
 51
86.0594514652805032
  0
ARC
  5
4AFE
  8
0
 10
684.2454422112480188
 20
72.6323309037214813
 30
0.0
 40
15.0280367061931006
 50
89.4591492345405186
 51
94.8870255148546846
  0
ARC
  5
4AFF
  8
0
 10
681.9072778691013355
 20
108.936125234911799
 30
0.0
 40
21.3566083083510208
 50
268.7902893296572984
 51
272.8393265209822971
  0
ARC
  5
4B00
  8
0
 10
681.2929872371585134
 20
-136.6879579861407024
 30
0.0
 40
224.2722944135686873
 50
89.9582522490004663
 51
90.2471484705639426
  0
ARC
  5
4B01
  8
0
 10
691.0191414276396245
 20
87.5697393477998105
 30
0.0
 40
6.6324523696975417
 50
179.2228496067604055
 51
190.959533110488195
  0
ARC
  5
4B02
  8
0
 10
684.3132393105913707
 20
86.2519435904004013
 30
0.0
 40
0.2025594492394806
 50
266.516991536313185
 51
16.3032746526878611
  0
ARC
  5
4B03
  8
0
 10
684.5832183785629468
 20
89.0891447660693814
 30
0.0
 40
3.0524670297040251
 50
242.951450209610698
 51
264.6938377069677131
  0
ARC
  5
4B04
  8
0
 10
691.2193763233283335
 20
102.1535199436707018
 30
0.0
 40
17.7056690347532886
 50
239.2864684010527014
 51
243.0506619699536941
  0
ARC
  5
4B05
  8
0
 10
679.4334489451586023
 20
82.0183051001541372
 30
0.0
 40
5.626860902381039
 50
60.8267123130885778
 51
80.8773423427467861
  0
ARC
  5
4B06
  8
0
 10
681.5699956559145676
 20
69.4748137107577008
 30
0.0
 40
2.1443754703084581
 50
183.0324661622350106
 51
217.8783777314590964
  0
ARC
  5
4B07
  8
0
 10
678.3253089225084977
 20
66.8964190995540093
 30
0.0
 40
2.0002705382235471
 50
0.0006013236987601
 51
39.1093357519551574
  0
LINE
  5
4B08
  8
0
 10
680.3255794606218387
 20
66.8964400925501792
 30
0.0
 11
680.3255794606218387
 21
63.6073939286501684
 31
0.0
  0
ARC
  5
4B09
  8
0
 10
678.3252445026865871
 20
63.6073939286501684
 30
0.0
 40
2.0003349579352072
 50
320.6593373180799063
 51
0.0
  0
ARC
  5
4B0A
  8
0
 10
681.4306901649690644
 20
61.0829499006139471
 30
0.0
 40
2.0017737879112918
 50
141.1245678033183992
 51
178.8759506586353893
  0
ARC
  5
4B0B
  8
0
 10
684.3422335607095874
 20
66.6151763249118574
 30
0.0
 40
0.6752099664656991
 50
275.6002109614353799
 51
338.4739102921719791
  0
ARC
  5
4B0C
  8
0
 10
683.1515278168334362
 20
86.0351673693642738
 30
0.0
 40
20.13123510575425
 50
269.361887159763512
 51
273.5787446654807127
  0
ARC
  5
4B0D
  8
0
 10
680.943609140116223
 20
144.2042912416694094
 30
0.0
 40
78.3242353384207917
 50
269.5478939620205097
 51
271.4512856952720199
  0
ARC
  5
4B0E
  8
0
 10
684.3409895800355116
 20
64.0309149674519347
 30
0.0
 40
0.6738748062327659
 50
20.9424812732796504
 51
86.0594514652805032
  0
ARC
  5
4B0F
  8
0
 10
684.2454422112480188
 20
49.6758294994427629
 30
0.0
 40
15.0280367061931006
 50
89.4591492345405186
 51
94.8870255148546846
  0
ARC
  5
4B10
  8
0
 10
681.9072778691013355
 20
85.9796238306330736
 30
0.0
 40
21.3566083083510208
 50
268.7902893296572984
 51
272.8393265209822971
  0
ARC
  5
4B11
  8
0
 10
681.2929872371585134
 20
-159.6444593904195131
 30
0.0
 40
224.2722944135686873
 50
89.9582522490004663
 51
90.2471484705639426
  0
ARC
  5
4B12
  8
0
 10
691.0191414276396245
 20
64.6132379435210851
 30
0.0
 40
6.6324523696975417
 50
179.2228496067604055
 51
190.959533110488195
  0
ARC
  5
4B13
  8
0
 10
684.3132393105913707
 20
63.2954421861216687
 30
0.0
 40
0.2025594492394806
 50
266.516991536313185
 51
16.3032746526878611
  0
ARC
  5
4B14
  8
0
 10
684.5832183785629468
 20
66.1326433617906559
 30
0.0
 40
3.0524670297040251
 50
242.951450209610698
 51
264.6938377069677131
  0
ARC
  5
4B15
  8
0
 10
691.2193763233283335
 20
79.1970185393920332
 30
0.0
 40
17.7056690347532886
 50
239.2864684010527014
 51
243.0506619699536941
  0
ARC
  5
4B16
  8
0
 10
679.4334489451586023
 20
59.0618036958754118
 30
0.0
 40
5.626860902381039
 50
60.8267123130885778
 51
80.8773423427467861
  0
ARC
  5
4B17
  8
0
 10
684.9553369851219031
 20
77.468960317991133
 30
0.0
 40
0.0299999901999927
 50
300.0243642386378724
 51
359.9999452195201002
  0
ARC
  5
4B18
  8
0
 10
685.00032464003516
 20
77.5529432744789062
 30
0.0
 40
0.0299069043378271
 50
239.9242869831562075
 51
270.0236607343878745
  0
LINE
  5
4B19
  8
0
 10
685.0003369903218982
 20
77.523036372691152
 30
0.0
 11
685.3353369903219345
 21
77.523036372691152
 31
0.0
  0
ARC
  5
4B1A
  8
0
 10
685.3353369903219345
 20
77.5130363726911469
 30
0.0
 40
0.009999999999998
 50
359.9999999999789111
 51
90.0
  0
LINE
  5
4B1B
  8
0
 10
685.3453369903219254
 20
77.5130363726911469
 30
0.0
 11
685.3453369903219254
 21
77.4326780275911517
 31
0.0
  0
ARC
  5
4B1C
  8
0
 10
685.3353369903219345
 20
77.4326780275911517
 30
0.0
 40
0.0100000000000016
 50
272.000000000010175
 51
0.0000000000179129
  0
LINE
  5
4B1D
  8
0
 10
685.3356859852889329
 20
77.4226841193209623
 30
0.0
 11
684.9992900054219263
 21
77.4109369128911453
 31
0.0
  0
ARC
  5
4B1E
  8
0
 10
685.0003369903191697
 20
77.3809551880817139
 30
0.0
 40
0.0299999999987443
 50
91.9999999930133612
 51
178.4458031778995064
  0
ARC
  5
4B1F
  8
0
 10
685.1056477759339032
 20
77.843605711129328
 30
0.0
 40
0.7153911464894889
 50
214.2815746097521981
 51
240.8474287400802041
  0
ARC
  5
4B20
  8
0
 10
683.9482370493327608
 20
75.7686316177765775
 30
0.0
 40
1.6605543659615249
 50
23.667538341780169
 51
60.847428740080197
  0
ARC
  5
4B21
  8
0
 10
683.9783635845715253
 20
75.8088953017198293
 30
0.0
 40
1.616988698772196
 50
0.2491903010013873
 51
22.7893363661075306
  0
LINE
  5
4B22
  8
0
 10
684.5145347567219005
 20
77.4406542363911541
 30
0.0
 11
684.5145347567219005
 21
77.3269270806911493
 31
0.0
  0
ARC
  5
4B23
  8
0
 10
685.0430125807495187
 20
77.6392087074390389
 30
0.0
 40
0.6138473954439611
 50
210.5791687083579973
 51
241.5511636266948869
  0
ARC
  5
4B24
  8
0
 10
683.9627082891912551
 20
75.6452917290712747
 30
0.0
 40
1.65391852699653
 50
33.8267639584483533
 51
61.5511636266949367
  0
ARC
  5
4B25
  8
0
 10
683.8910697874091511
 20
75.6581961810909291
 30
0.0
 40
1.706996814942392
 50
3.2406313266214939
 51
32.1281122466881328
  0
ARC
  5
4B26
  8
0
 10
688.9761529148313457
 20
79.2456080656201749
 30
0.0
 40
4.856683365291607
 50
203.2697117246923995
 51
206.6004472747036971
  0
ARC
  5
4B27
  8
0
 10
681.5520859029688836
 20
75.5819099049382714
 30
0.0
 40
3.4223728854395699
 50
2.8085269279503602
 51
25.7910195191230116
  0
ARC
  5
4B28
  8
0
 10
685.1056477759339032
 20
69.5445614017406228
 30
0.0
 40
0.7153911464894889
 50
119.1525712599196964
 51
145.7184253902478019
  0
ARC
  5
4B29
  8
0
 10
683.9482370493327608
 20
71.6195354950933734
 30
0.0
 40
1.6605543659615249
 50
299.1525712599196822
 51
336.332461658220609
  0
ARC
  5
4B2A
  8
0
 10
683.9783635845715253
 20
71.5792718111501216
 30
0.0
 40
1.616988698772196
 50
337.2106636338925227
 51
359.7508096989986939
  0
LINE
  5
4B2B
  8
0
 10
684.5145347567219005
 20
69.9475128764787968
 30
0.0
 11
684.5145347567219005
 21
70.0612400321788016
 31
0.0
  0
ARC
  5
4B2C
  8
0
 10
685.0430125807495187
 20
69.748958405430912
 30
0.0
 40
0.6138473954439611
 50
118.4488363733049994
 51
149.4208312916420027
  0
ARC
  5
4B2D
  8
0
 10
683.9627082891912551
 20
71.7428753837986761
 30
0.0
 40
1.65391852699653
 50
298.4488363733050278
 51
326.1732360415514904
  0
ARC
  5
4B2E
  8
0
 10
683.8910697874091511
 20
71.7299709317790217
 30
0.0
 40
1.706996814942392
 50
327.8718877533119098
 51
356.7593686733785034
  0
ARC
  5
4B2F
  8
0
 10
688.9761529148313457
 20
68.1425590472497618
 30
0.0
 40
4.856683365291607
 50
153.3995527252938871
 51
156.7302882753074869
  0
ARC
  5
4B30
  8
0
 10
681.5520859029688836
 20
71.8062572079316794
 30
0.0
 40
3.4223728854395699
 50
334.2089804808769031
 51
357.1914730720480975
  0
LINE
  5
4B31
  8
0
 10
684.9703480268218527
 20
71.7237489890403168
 30
0.0
 11
685.5953369903219254
 21
71.719229090854725
 31
0.0
  0
LINE
  5
4B32
  8
0
 10
685.5953369903219254
 20
75.6811615675062797
 30
0.0
 11
684.9703480268218527
 21
75.6548165738787333
 31
0.0
  0
ARC
  5
4B33
  8
0
 10
685.0074396727343355
 20
68.0595557526237229
 30
0.0
 40
0.6126512157102258
 50
289.8603042191897998
 51
343.6572166414761114
  0
ARC
  5
4B34
  8
0
 10
685.349742541471187
 20
67.111903650316691
 30
0.0
 40
0.394927942943071
 50
109.8603042191898993
 51
163.8769864757940979
  0
ARC
  5
4B35
  8
0
 10
685.3468450064979152
 20
67.1726411168791628
 30
0.0
 40
0.3920231486112874
 50
111.0103025604126969
 51
163.82077138978471
  0
ARC
  5
4B36
  8
0
 10
685.0353185573185328
 20
68.0861654437209438
 30
0.0
 40
0.5736360311748518
 50
287.3405078125139198
 51
347.4907121354543733
  0
ARC
  5
4B37
  8
0
 10
683.573500521410665
 20
68.0666364619609965
 30
0.0
 40
2.0222828181205719
 50
325.677177048945282
 51
353.9638685478983007
  0
ARC
  5
4B38
  8
0
 10
685.2807104962947733
 20
66.9037502156730284
 30
0.0
 40
0.0434132900671266
 50
148.6106886348212868
 51
180.3934321183672864
  0
LINE
  5
4B39
  8
0
 10
685.2372982297217732
 20
66.9034521125911539
 30
0.0
 11
685.2372982297217732
 21
63.7549334488911512
 31
0.0
  0
ARC
  5
4B3A
  8
0
 10
685.2807305616991016
 20
63.7549334488911512
 30
0.0
 40
0.0434323319772396
 50
180.0000000000015916
 51
211.5333189228190918
  0
ARC
  5
4B3B
  8
0
 10
683.5630858340308578
 20
62.5840650704378376
 30
0.0
 40
2.035376994268141
 50
3.1758064588111479
 51
34.3397267990222801
  0
ARC
  5
4B3C
  8
0
 10
597.2793560609882206
 20
61.016534291470272
 30
0.0
 40
88.3157283008336833
 50
1.5113989266594079
 51
3.9888452666063641
  0
ARC
  5
4B3D
  8
0
 10
684.7090762320856356
 20
63.3233681427669808
 30
0.0
 40
0.8555805098889447
 50
344.4769445093191962
 51
1.5113989266594079
  0
LINE
  5
4B3E
  8
0
 10
685.3194043615089868
 20
67.0461230727318309
 30
0.0
 11
685.2372982297217732
 21
66.0652983905283833
 31
0.0
  0
LINE
  5
4B3F
  8
0
 10
685.2372982297217732
 20
64.5878806085295878
 30
0.0
 11
685.3202344336806391
 21
63.6112886622350828
 31
0.0
  0
ARC
  5
4B40
  8
0
 10
678.8177495569475468
 20
60.7507378636596016
 30
0.0
 40
0.1948996613185807
 50
275.9440745226465879
 51
351.4793981576939927
  0
LINE
  5
4B41
  8
0
 10
678.8379329131219038
 20
60.5568860900911474
 30
0.0
 11
678.6124254124217714
 21
60.5450641419911406
 31
0.0
  0
ARC
  5
4B42
  8
0
 10
678.6206588730842668
 20
60.5132982374598498
 30
0.0
 40
0.0328155841814759
 50
104.5308311072083995
 51
159.2884159317796104
  0
ARC
  5
4B43
  8
0
 10
678.6661830881778315
 20
60.4922244755030576
 30
0.0
 40
0.0829293933845666
 50
156.7924168280268873
 51
179.8926241193767908
  0
LINE
  5
4B44
  8
0
 10
678.5832538404218894
 20
60.4923798902911471
 30
0.0
 11
678.5832538404218894
 21
60.1454140076911585
 31
0.0
  0
ARC
  5
4B45
  8
0
 10
678.9763038472788139
 20
60.1454140076911585
 30
0.0
 40
0.393050006856896
 50
180.0
 51
202.8357695610141036
  0
LINE
  5
4B46
  8
0
 10
678.6140606883218425
 20
59.9928748268911605
 30
0.0
 11
678.9567000230219946
 21
59.1794782484911508
 31
0.0
  0
ARC
  5
4B47
  8
0
 10
678.2035016671111407
 20
58.883801739958777
 30
0.0
 40
0.8091553380190361
 50
4.1780785791439721
 51
21.4330494827958304
  0
ARC
  5
4B48
  8
0
 10
678.8012174143092352
 20
60.4460973303242284
 30
0.0
 40
0.1952387360361391
 50
273.5337266811374093
 51
323.3537284321059246
  0
LINE
  5
4B49
  8
0
 10
678.8132511632219348
 20
60.2512298036911602
 30
0.0
 11
678.5832538404218894
 21
60.2414915974661085
 31
0.0
  0
ARC
  5
4B4A
  8
0
 10
678.7513830514699293
 20
60.4861168474740367
 30
0.0
 40
0.2591199817869381
 50
322.8309346281562853
 51
0.365369965889219
  0
LINE
  5
4B4B
  8
0
 10
678.3487079672219124
 20
54.7345197153040317
 30
0.0
 11
678.9398669214219808
 21
54.764269080391152
 31
0.0
  0
ARC
  5
4B4C
  8
0
 10
678.93588712320593
 20
54.8433528976228786
 30
0.0
 40
0.0791838931966611
 50
272.8809110451584274
 51
340.4512169147673717
  0
ARC
  5
4B4D
  8
0
 10
685.2794556917947375
 20
99.2369377055608339
 30
0.0
 40
0.3135262476309292
 50
189.6306043656927045
 51
230.2735080330637913
  0
ARC
  5
4B4E
  8
0
 10
685.4253386526022496
 20
99.4124893590042689
 30
0.0
 40
0.5417809765647413
 50
230.2735080330637913
 51
243.480758336260692
  0
ARC
  5
4B4F
  8
0
 10
684.8075831894374232
 20
98.1598748759056434
 30
0.0
 40
0.8548907451541312
 50
39.6343892367796471
 51
63.9185642436868022
  0
ARC
  5
4B50
  8
0
 10
685.0422436784989486
 20
98.3487464784093248
 30
0.0
 40
0.5537090902302627
 50
2.7023978579145211
 51
40.0721951442072992
  0
ARC
  5
4B51
  8
0
 10
685.250759112057267
 20
99.1414854297700145
 30
0.0
 40
0.2806473178148247
 50
182.3510266210041948
 51
230.1115404164629865
  0
ARC
  5
4B52
  8
0
 10
685.5272241435474143
 20
99.4955711222090144
 30
0.0
 40
0.729783942769077
 50
231.2848351281801058
 51
244.5932578310300016
  0
ARC
  5
4B53
  8
0
 10
684.82191661301772
 20
98.111528491027201
 30
0.0
 40
0.8241442100171468
 50
39.1794303671240769
 51
61.5828446609114479
  0
ARC
  5
4B54
  8
0
 10
684.9375573362334535
 20
98.2283582274299079
 30
0.0
 40
0.6609274324855977
 50
5.5941658004668646
 51
37.6615788786132768
  0
ARC
  5
4B55
  8
0
 10
685.2629559944857647
 20
98.2169769501659289
 30
0.0
 40
0.2935977983395801
 50
184.7061284560718946
 51
226.045355489161409
  0
ARC
  5
4B56
  8
0
 10
685.394123262422454
 20
98.3477913468836817
 30
0.0
 40
0.4788251794280757
 50
225.6110920976063028
 51
245.7612367235840054
  0
ARC
  5
4B57
  8
0
 10
684.8280495237469268
 20
97.1767346726338133
 30
0.0
 40
0.8221527533141445
 50
36.9673803478949878
 51
63.2931364792776705
  0
ARC
  5
4B58
  8
0
 10
685.0375654694543073
 20
97.3370228979455305
 30
0.0
 40
0.5583669993107157
 50
2.6463628132635848
 51
36.7547443414593502
  0
ARC
  5
4B59
  8
0
 10
685.3285667504534331
 20
98.1944845521081646
 30
0.0
 40
0.3648351801313607
 50
190.9284996798581915
 51
243.9689291898125134
  0
ARC
  5
4B5A
  8
0
 10
684.8411569772954408
 20
97.1342578022584746
 30
0.0
 40
0.8022075369282262
 50
40.5135022381162102
 51
65.9208902836336961
  0
ARC
  5
4B5B
  8
0
 10
685.0196850919785447
 20
97.2706406365671938
 30
0.0
 40
0.5780137181054732
 50
5.1813141522627131
 51
41.7319707348129327
  0
ARC
  5
4B5D
  8
0
 10
680.5264985209337283
 20
123.8333588643515952
 30
0.0
 40
1.89540925254457
 50
175.4019071449939986
 51
180.7930253071654079
  0
LINE
  5
4B5E
  8
0
 10
678.6312708178219282
 20
123.8071255269911006
 30
0.0
 11
678.6312708178219282
 21
123.6753051172737941
 31
0.0
  0
ARC
  5
4B5F
  8
0
 10
678.7123194389680521
 20
124.232186016076696
 30
0.0
 40
0.1459193853009403
 50
359.9680589303825968
 51
44.9740058549371184
  0
LINE
  5
4B60
  8
0
 10
678.8582388016219511
 20
124.2321046694910933
 30
0.0
 11
678.8582388459218464
 21
124.0637101155911068
 31
0.0
  0
ARC
  5
4B61
  8
0
 10
678.224656505425969
 20
124.0637099489130009
 30
0.0
 40
0.6335823404958602
 50
354.3027297696124833
 51
0.0000150729525438
  0
LINE
  5
4B62
  8
0
 10
678.855109139721776
 20
124.0008127462911034
 30
0.0
 11
678.8203731627219213
 21
123.966074105791094
 31
0.0
  0
LINE
  5
4B63
  8
0
 10
678.8675236891218674
 20
123.965987814666903
 30
0.0
 11
678.7732221578218059
 21
123.9661603977911
 31
0.0
  0
ARC
  5
4B64
  8
0
 10
678.7741359940049506
 20
124.465499011720695
 30
0.0
 40
0.49933945013156
 50
254.0823661254212027
 51
269.8951435027473735
  0
LINE
  5
4B65
  8
0
 10
678.8993711102326643
 20
124.2553593057783985
 30
0.0
 11
678.8846877909219302
 21
124.2398863155910931
 31
0.0
  0
ARC
  5
4B66
  8
0
 10
678.9300236897072409
 20
124.1968641543891039
 30
0.0
 40
0.0625000005853072
 50
136.5000002296939954
 51
179.9999998148084046
  0
LINE
  5
4B67
  8
0
 10
678.8675236891218674
 20
124.196864154591097
 30
0.0
 11
678.8675236891218674
 21
123.9117671096446998
 31
0.0
  0
ARC
  5
4B68
  8
0
 10
678.9075437066219365
 20
124.1732419762910951
 30
0.0
 40
0.0624993501000818
 50
121.2983698589970061
 51
135.4263937168782093
  0
LINE
  5
4B69
  8
0
 10
678.8630223306819289
 20
124.2171055813336977
 30
0.0
 11
678.8582388068118689
 21
124.2123759990780059
 31
0.0
  0
LINE
  5
4B6A
  8
0
 10
678.8451298132220018
 20
123.9908326545920971
 30
0.0
 11
678.8451298132220018
 21
123.9660287981484004
 31
0.0
  0
ARC
  5
4B6B
  8
0
 10
679.0292986227494794
 20
124.1527510554149956
 30
0.0
 40
0.0243194781046651
 50
91.2469238164788692
 51
177.8147439523872038
  0
LINE
  5
4B6C
  8
0
 10
679.0049968307012023
 20
124.1536783733356941
 30
0.0
 11
679.0104977647220039
 21
60.4877692207911579
 31
0.0
  0
LINE
  5
4B6D
  8
0
 10
684.9503799521219207
 20
54.5031593525911617
 30
0.0
 11
685.4929440913218741
 21
54.5219636666911498
 31
0.0
  0
LINE
  5
4B6E
  8
0
 10
684.9503799521219207
 20
54.5031593525911617
 30
0.0
 11
684.6711558121219241
 21
54.5090185468911486
 31
0.0
  0
ARC
  5
4B6F
  8
0
 10
684.789811609899516
 20
57.1174077020347113
 30
0.0
 40
2.6110865904861891
 50
263.2362490890145068
 51
267.3954067548680769
  0
LINE
  5
4B70
  8
0
 10
684.482288982749651
 20
54.5937245695911386
 30
0.0
 11
684.482288982749651
 21
54.5244937009911723
 31
0.0
  0
ARC
  5
4B71
  8
0
 10
685.4884339060160983
 20
54.5734719977654379
 30
0.0
 40
0.0517054150118896
 50
275.0041840782831173
 51
307.1398783660320078
  0
ARC
  5
4B72
  8
0
 10
681.7669353202887805
 20
54.8642886376998433
 30
0.0
 40
3.8285389838648531
 50
353.9943835714900047
 51
359.5147343674967146
  0
ARC
  5
4B73
  8
0
 10
681.5929434635161215
 20
54.9905490758243971
 30
0.0
 40
4.0030173754205629
 50
352.437537414115809
 51
358.9884458397739877
  0
ARC
  5
4B74
  8
0
 10
685.585035748636642
 20
54.5340118639590017
 30
0.0
 40
0.0104394959979124
 50
273.5223855351171096
 51
350.6649281163834075
  0
LINE
  5
4B75
  8
0
 10
685.5856771356889112
 20
54.5235920895209603
 30
0.0
 11
685.5802682291315477
 21
54.5234032063443692
 31
0.0
  0
ARC
  5
4B76
  8
0
 10
652.7965210535312508
 20
53.5787030009492895
 30
0.0
 40
0.0300098850239537
 50
180.0281215459507109
 51
268.1977646364235284
  0
LINE
  5
4B77
  8
0
 10
652.7955772500220064
 20
53.5487079607911625
 30
0.0
 11
652.8501054567282154
 21
53.5487304986196975
 31
0.0
  0
ENDSEC
  0
EOF
