  0
SECTION
  2
HEADER
  9
$ACADVER
  1
AC1009
  9
$INSBASE
 10
572.312071926346789
 20
9.9235591138043233
 30
0.0
  9
$EXTMIN
 10
548.2786117609030043
 20
9.9170930913982716
 30
-0.0000000000000058
  9
$EXTMAX
 10
596.3245351329508139
 20
85.4855234429328448
 30
0.0000000000000104
  9
$LIMMIN
 10
0.0
 20
0.0
  9
$LIMMAX
 10
11.6929133858000007
 20
8.2677165353999982
  9
$ORTHOMODE
 70
     1
  9
$REGENMODE
 70
     1
  9
$FILLMODE
 70
     1
  9
$QTEXTMODE
 70
     0
  9
$MIRRTEXT
 70
     0
  9
$DRAGMODE
 70
     2
  9
$LTSCALE
 40
0.6431102362
  9
$OSMODE
 70
     7
  9
$ATTMODE
 70
     1
  9
$TEXTSIZE
 40
0.2
  9
$TRACEWID
 40
0.05
  9
$TEXTSTYLE
  7
STANDARD
  9
$CLAYER
  8
0
  9
$CELTYPE
  6
BYLAYER
  9
$CECOLOR
 62
   256
  9
$DIMSCALE
 40
1.0
  9
$DIMASZ
 40
0.1875
  9
$DIMEXO
 40
0.0625
  9
$DIMDLI
 40
0.4443307087
  9
$DIMRND
 40
0.0
  9
$DIMDLE
 40
0.0
  9
$DIMEXE
 40
0.125
  9
$DIMTP
 40
0.01
  9
$DIMTM
 40
0.01
  9
$DIMTXT
 40
2.0
  9
$DIMCEN
 40
0.1052362205
  9
$DIMTSZ
 40
0.0
  9
$DIMTOL
 70
     1
  9
$DIMLIM
 70
     0
  9
$DIMTIH
 70
     1
  9
$DIMTOH
 70
     1
  9
$DIMSE1
 70
     0
  9
$DIMSE2
 70
     0
  9
$DIMTAD
 70
     0
  9
$DIMZIN
 70
     0
  9
$DIMBLK
  1

  9
$DIMASO
 70
     1
  9
$DIMSHO
 70
     1
  9
$DIMPOST
  1
\X
  9
$DIMAPOST
  1

  9
$DIMALT
 70
     1
  9
$DIMALTD
 70
     2
  9
$DIMALTF
 40
25.3999999999999986
  9
$DIMLFAC
 40
1.0
  9
$DIMTOFL
 70
     0
  9
$DIMTVP
 40
0.0
  9
$DIMTIX
 70
     0
  9
$DIMSOXD
 70
     0
  9
$DIMSAH
 70
     0
  9
$DIMBLK1
  1

  9
$DIMBLK2
  1

  9
$DIMSTYLE
  2
STANDARD
  9
$DIMCLRD
 70
     0
  9
$DIMCLRE
 70
     0
  9
$DIMCLRT
 70
     0
  9
$DIMTFAC
 40
1.0
  9
$DIMGAP
 40
0.09
  9
$LUNITS
 70
     2
  9
$LUPREC
 70
     4
  9
$SKETCHINC
 40
0.1
  9
$FILLETRAD
 40
0.0
  9
$AUNITS
 70
     0
  9
$AUPREC
 70
     0
  9
$MENU
  1
.
  9
$ELEVATION
 40
0.0
  9
$PELEVATION
 40
0.0
  9
$THICKNESS
 40
0.0
  9
$LIMCHECK
 70
     0
  9
$BLIPMODE
 70
     0
  9
$CHAMFERA
 40
0.0
  9
$CHAMFERB
 40
0.0
  9
$SKPOLY
 70
     0
  9
$TDCREATE
 40
2458106.4931018520146608
  9
$TDUPDATE
 40
2459685.6747453701682389
  9
$TDINDWG
 40
0.2809823611
  9
$TDUSRTIMER
 40
0.2809823611
  9
$USRTIMER
 70
     1
  9
$ANGBASE
 50
0.0
  9
$ANGDIR
 70
     0
  9
$PDMODE
 70
     0
  9
$PDSIZE
 40
0.3125
  9
$PLINEWID
 40
0.0
  9
$COORDS
 70
     1
  9
$SPLFRAME
 70
     0
  9
$SPLINETYPE
 70
     6
  9
$SPLINESEGS
 70
     8
  9
$ATTDIA
 70
     1
  9
$ATTREQ
 70
     1
  9
$HANDLING
 70
     1
  9
$HANDSEED
  5
3C1C
  9
$SURFTAB1
 70
     6
  9
$SURFTAB2
 70
     6
  9
$SURFTYPE
 70
     6
  9
$SURFU
 70
     6
  9
$SURFV
 70
     6
  9
$UCSNAME
  2

  9
$UCSORG
 10
0.0
 20
0.0
 30
0.0
  9
$UCSXDIR
 10
1.0
 20
0.0
 30
0.0
  9
$UCSYDIR
 10
0.0
 20
1.0
 30
0.0
  9
$PUCSNAME
  2

  9
$PUCSORG
 10
0.0
 20
0.0
 30
0.0
  9
$PUCSXDIR
 10
1.0
 20
0.0
 30
0.0
  9
$PUCSYDIR
 10
0.0
 20
1.0
 30
0.0
  9
$USERI1
 70
     0
  9
$USERI2
 70
     0
  9
$USERI3
 70
     0
  9
$USERI4
 70
     0
  9
$USERI5
 70
     0
  9
$USERR1
 40
0.0
  9
$USERR2
 40
0.0
  9
$USERR3
 40
0.0
  9
$USERR4
 40
0.0
  9
$USERR5
 40
0.0
  9
$WORLDVIEW
 70
     1
  9
$SHADEDGE
 70
     3
  9
$SHADEDIF
 70
    70
  9
$TILEMODE
 70
     1
  9
$MAXACTVP
 70
    64
  9
$PLIMCHECK
 70
     0
  9
$PEXTMIN
 10
1.0000000000000000E+20
 20
1.0000000000000000E+20
 30
1.0000000000000000E+20
  9
$PEXTMAX
 10
-1.0000000000000000E+20
 20
-1.0000000000000000E+20
 30
-1.0000000000000000E+20
  9
$PLIMMIN
 10
0.0
 20
0.0
  9
$PLIMMAX
 10
12.0
 20
9.0
  9
$UNITMODE
 70
     0
  9
$VISRETAIN
 70
     1
  9
$PLINEGEN
 70
     0
  9
$PSLTSCALE
 70
     1
  0
ENDSEC
  0
SECTION
  2
TABLES
  0
TABLE
  2
VPORT
 70
     1
  0
VPORT
  2
*ACTIVE
 70
     0
 10
0.0
 20
0.0
 11
1.0
 21
1.0
 12
298.7273718904137922
 22
65.307269001187052
 13
0.0
 23
0.0
 14
1.0
 24
1.0
 15
0.0
 25
0.0
 16
-0.0000000000000568
 26
0.0
 36
193.9250709296327955
 17
273.5742015565131169
 27
-17.6059607340214797
 37
0.0
 40
76.1094930986816109
 41
2.2831541218637992
 42
50.0
 43
0.0
 44
0.0
 50
0.0
 51
0.0
 71
     0
 72
   100
 73
     1
 74
     1
 75
     0
 76
     0
 77
     0
 78
     0
  0
ENDTAB
  0
TABLE
  2
LTYPE
 70
     2
  0
LTYPE
  2
CONTINUOUS
 70
     0
  3
Solid line
 72
    65
 73
     0
 40
0.0
  0
LTYPE
  2
PHANTOM2
 70
     0
  3
___ _ _ ___ _ _ ___ _ _ ___ _ _
 72
    65
 73
     6
 40
1.25
 49
0.625
 49
-0.125
 49
0.125
 49
-0.125
 49
0.125
 49
-0.125
  0
ENDTAB
  0
TABLE
  2
LAYER
 70
     2
  0
LAYER
  2
0
 70
     0
 62
   255
  6
CONTINUOUS
  0
LAYER
  2
DEFPOINTS
 70
     0
 62
     7
  6
CONTINUOUS
  0
ENDTAB
  0
TABLE
  2
STYLE
 70
     1
  0
STYLE
  2
STANDARD
 70
     0
 40
0.0
 41
0.8
 50
0.0
 71
     0
 42
0.2
  3
txt
  4

  0
ENDTAB
  0
TABLE
  2
VIEW
 70
     0
  0
ENDTAB
  0
TABLE
  2
UCS
 70
     0
  0
ENDTAB
  0
TABLE
  2
APPID
 70
     9
  0
APPID
  2
ACAD
 70
     0
  0
APPID
  2
ACAD_MLEADERVER
 70
     0
  0
APPID
  2
ACAD_EXEMPT_FROM_CAD_STANDARDS
 70
     0
  0
APPID
  2
ACAD_NAV_VCDISPLAY
 70
     0
  0
APPID
  2
ACAD_DSTYLE_DIMJAG
 70
     0
  0
APPID
  2
ACAD_DSTYLE_DIMTALN
 70
     0
  0
APPID
  2
ACAECLAYERSTANDARD
 70
     0
  0
APPID
  2
ACCMTRANSPARENCY
 70
     0
  0
APPID
  2
ACDBATTR
 70
     0
  0
ENDTAB
  0
TABLE
  2
DIMSTYLE
 70
     1
  0
DIMSTYLE
  2
STANDARD
 70
     0
  3

  4

  5

  6

  7

 40
1.0
 41
0.1875
 42
0.0625
 43
0.38
 44
0.125
 45
0.0
 46
0.0
 47
0.01
 48
0.01
140
0.15625
141
0.09
142
0.0
143
25.3999999999999986
144
1.0
145
0.0
146
1.0
147
0.09
 71
     1
 72
     0
 73
     1
 74
     1
 75
     0
 76
     0
 77
     0
 78
     4
170
     0
171
     2
172
     0
173
     0
174
     0
175
     0
176
     0
177
     0
178
     0
  0
ENDTAB
  0
ENDSEC
  0
SECTION
  2
BLOCKS
  0
BLOCK
  8
0
  2
$MODEL_SPACE
 70
     0
 10
0.0
 20
0.0
 30
0.0
  3
$MODEL_SPACE
  1

  0
ENDBLK
  5
21
  8
0
  0
BLOCK
 67
     1
  8
0
  2
$PAPER_SPACE
 70
     0
 10
0.0
 20
0.0
 30
0.0
  3
$PAPER_SPACE
  1

  0
ENDBLK
  5
1D
 67
     1
  8
0
  0
ENDSEC
  0
SECTION
  2
ENTITIES
  0
ATTDEF
  5
FAA
  8
DEFPOINTS
 10
572.312383039719748
 20
9.9273222656160538
 30
0.0
 40
0.001
  1
72410106
  3

  2
MODELNUMBER
 70
     0
1001
ACDBATTR
1070
     0
1070
     1
  0
ATTDEF
  5
FAB
  8
DEFPOINTS
 10
572.312383039719748
 20
9.9256555989493886
 30
0.0
 40
0.001
  1
ENSEMBLE
  3

  2
TRADENAME
 70
     0
1001
ACDBATTR
1070
     0
1070
     1
  0
ATTDEF
  5
FAC
  8
DEFPOINTS
 10
572.312383039719748
 20
9.9239889322827235
 30
0.0
 40
0.001
  1
BATH AND SHOWER STALL
  3

  2
PRODUCT
 70
     0
1001
ACDBATTR
1070
     0
1070
     1
  0
LINE
  5
3933
  8
0
 10
548.4577578845468224
 20
9.9235591138043091
 30
0.0
 11
596.1663859681467557
 21
9.9235591138043091
 31
0.0
  0
LINE
  5
3934
  8
0
 10
548.3116423482466644
 20
85.1743632776043142
 30
0.0
 11
548.3116423482466644
 21
13.2924826307375206
 31
0.0
  0
LINE
  5
3935
  8
0
 10
548.5773259051137529
 20
85.4820695776043351
 30
0.0
 11
596.0468179475798252
 21
85.4820695776043351
 31
0.0
  0
LINE
  5
3936
  8
0
 10
548.3116423482466644
 20
85.1743632776043142
 30
0.0
 11
548.3519395135467676
 21
85.1722513927043252
 31
0.0
  0
ARC
  5
3937
  8
0
 10
548.6214186696156503
 20
82.4023502565689938
 30
0.0
 40
3.0800349459445679
 50
90.8202555021738362
 51
92.1832966940563239
  0
ARC
  5
3938
  8
0
 10
548.5377089864024356
 20
84.6408291455140755
 30
0.0
 40
0.8399935816574272
 50
92.2944298438105761
 51
95.2209366914313051
  0
ARC
  5
3939
  8
0
 10
548.4709662852113752
 20
85.3712507699962231
 30
0.0
 40
0.1065289692367449
 50
95.2209366914247397
 51
103.2674959964504069
  0
ARC
  5
393A
  8
0
 10
548.447493956048902
 20
85.4707979246743008
 30
0.0
 40
0.0042519618459557
 50
103.2674959964839019
 51
136.9228040218694105
  0
LINE
  5
393B
  8
0
 10
548.4443881778466903
 20
85.473701942804297
 30
0.0
 11
548.3441227521459496
 21
85.1726610518018532
 31
0.0
  0
ARC
  5
393C
  8
0
 10
548.481833049640386
 20
85.4109526219207851
 30
0.0
 40
0.0625400312658989
 50
0.1184120816497371
 51
89.9547454522541443
  0
LINE
  5
393D
  8
0
 10
548.4818824463071678
 20
85.47349263367893
 30
0.0
 11
548.4443881778466903
 21
85.473701942804297
 31
0.0
  0
LINE
  5
393E
  8
0
 10
548.5443729473468011
 20
85.411081872104333
 30
0.0
 11
548.5443729473468011
 21
84.3648068113043053
 31
0.0
  0
ARC
  5
393F
  8
0
 10
548.6067833842853361
 20
84.3648068113043053
 30
0.0
 40
0.062410436938535
 50
180.0000000000129887
 51
267.0692737950608944
  0
LINE
  5
3940
  8
0
 10
548.6035924310468772
 20
84.3024780021042943
 30
0.0
 11
549.2678108316466705
 21
84.2676200191043137
 31
0.0
  0
ARC
  5
3941
  8
0
 10
550.9425556233414909
 20
116.179859661479199
 30
0.0
 40
31.9561544793749306
 50
266.995890497066398
 51
270.0000000000553086
  0
LINE
  5
3942
  8
0
 10
550.9425556233718453
 20
84.2237051821043252
 30
0.0
 11
593.6815882293520872
 21
84.2237051821043252
 31
0.0
  0
CIRCLE
  5
3943
  8
0
 10
549.062071926346789
 20
84.9868287997043268
 30
0.0
 40
0.0939999999999941
  0
CIRCLE
  5
3944
  8
0
 10
549.8120719263466754
 20
84.9868287997043268
 30
0.0
 40
0.0939999999999941
  0
CIRCLE
  5
3945
  8
0
 10
550.5620719263466754
 20
84.9868287997043268
 30
0.0
 40
0.0939999999999941
  0
CIRCLE
  5
3946
  8
0
 10
551.312071926346789
 20
84.9868287997043268
 30
0.0
 40
0.0939999999999941
  0
CIRCLE
  5
3947
  8
0
 10
552.062071926346789
 20
84.9868287997043268
 30
0.0
 40
0.0939999999999941
  0
CIRCLE
  5
3948
  8
0
 10
552.8120719263466754
 20
84.9868287997043268
 30
0.0
 40
0.0939999999999941
  0
CIRCLE
  5
3949
  8
0
 10
553.562071926346789
 20
84.9868287997043268
 30
0.0
 40
0.0939999999999941
  0
CIRCLE
  5
394A
  8
0
 10
554.312071926346789
 20
84.9868287997043268
 30
0.0
 40
0.0939999999999941
  0
CIRCLE
  5
394B
  8
0
 10
555.0620719263466754
 20
84.9868287997043268
 30
0.0
 40
0.0939999999999941
  0
CIRCLE
  5
394C
  8
0
 10
555.812071926346789
 20
84.9868287997043268
 30
0.0
 40
0.0939999999999941
  0
CIRCLE
  5
394D
  8
0
 10
556.562071926346789
 20
84.9868287997043268
 30
0.0
 40
0.0939999999999941
  0
CIRCLE
  5
394E
  8
0
 10
557.3120719263466754
 20
84.9868287997043268
 30
0.0
 40
0.0939999999999941
  0
CIRCLE
  5
394F
  8
0
 10
558.062071926346789
 20
84.9868287997043268
 30
0.0
 40
0.0939999999999941
  0
CIRCLE
  5
3950
  8
0
 10
558.812071926346789
 20
84.9868287997043268
 30
0.0
 40
0.0939999999999941
  0
CIRCLE
  5
3951
  8
0
 10
559.5620719263466754
 20
84.9868287997043268
 30
0.0
 40
0.0939999999999941
  0
CIRCLE
  5
3952
  8
0
 10
560.3120719263466754
 20
84.9868287997043268
 30
0.0
 40
0.0939999999999941
  0
CIRCLE
  5
3953
  8
0
 10
561.062071926346789
 20
84.9868287997043268
 30
0.0
 40
0.0939999999999941
  0
CIRCLE
  5
3954
  8
0
 10
561.8120719263466754
 20
84.9868287997043268
 30
0.0
 40
0.0939999999999941
  0
CIRCLE
  5
3955
  8
0
 10
562.5620719263466754
 20
84.9868287997043268
 30
0.0
 40
0.0939999999999941
  0
CIRCLE
  5
3956
  8
0
 10
563.312071926346789
 20
84.9868287997043268
 30
0.0
 40
0.0939999999999941
  0
CIRCLE
  5
3957
  8
0
 10
564.0620719263466754
 20
84.9868287997043268
 30
0.0
 40
0.0939999999999941
  0
CIRCLE
  5
3958
  8
0
 10
564.8120719263466754
 20
84.9868287997043268
 30
0.0
 40
0.0939999999999941
  0
CIRCLE
  5
3959
  8
0
 10
565.562071926346789
 20
84.9868287997043268
 30
0.0
 40
0.0939999999999941
  0
CIRCLE
  5
395A
  8
0
 10
566.3120719263466754
 20
84.9868287997043268
 30
0.0
 40
0.0939999999999941
  0
CIRCLE
  5
395B
  8
0
 10
567.0620719263466754
 20
84.9868287997043268
 30
0.0
 40
0.0939999999999941
  0
CIRCLE
  5
395C
  8
0
 10
567.812071926346789
 20
84.9868287997043268
 30
0.0
 40
0.0939999999999941
  0
CIRCLE
  5
395D
  8
0
 10
568.5620719263466754
 20
84.9868287997043268
 30
0.0
 40
0.0939999999999941
  0
CIRCLE
  5
395E
  8
0
 10
569.3120719263466754
 20
84.9868287997043268
 30
0.0
 40
0.0939999999999941
  0
CIRCLE
  5
395F
  8
0
 10
570.062071926346789
 20
84.9868287997043268
 30
0.0
 40
0.0939999999999941
  0
CIRCLE
  5
3960
  8
0
 10
570.812071926346789
 20
84.9868287997043268
 30
0.0
 40
0.0939999999999941
  0
CIRCLE
  5
3961
  8
0
 10
571.5620719263466754
 20
84.9868287997043268
 30
0.0
 40
0.0939999999999941
  0
CIRCLE
  5
3962
  8
0
 10
572.312071926346789
 20
84.9868287997043268
 30
0.0
 40
0.0939999999999941
  0
ARC
  5
3963
  8
0
 10
548.3486423482222563
 20
85.1093377319945574
 30
0.0
 40
0.0630000000244517
 50
0.0000000088847904
 51
86.9999999272758942
  0
LINE
  5
3964
  8
0
 10
548.4116423482466871
 20
85.1093377319945574
 30
0.0
 11
548.4116423482466871
 21
13.3963454453323898
 31
0.0
  0
LINE
  5
3965
  8
0
 10
548.4713451830468784
 20
83.9159936067043049
 30
0.0
 11
550.4479183558466957
 21
83.812405796104315
 31
0.0
  0
ARC
  5
3966
  8
0
 10
550.423876979069064
 20
83.4535635743239936
 30
0.0
 40
0.3596466709557958
 50
357.7493373307074762
 51
86.1670787344975935
  0
LINE
  5
3967
  8
0
 10
550.7832462121467643
 20
83.4394397559043028
 30
0.0
 11
550.7808735087468222
 21
79.825924004804321
 31
0.0
  0
ARC
  5
3968
  8
0
 10
551.3992495241323013
 20
79.8242834253212976
 30
0.0
 40
0.6183781916472917
 50
179.8479920671981063
 51
232.9675583302908137
  0
ARC
  5
3969
  8
0
 10
550.863314459266121
 20
78.9827053054524555
 30
0.0
 40
0.3844342045331886
 50
334.0167651088723915
 51
64.8293017365902244
  0
ARC
  5
396A
  8
0
 10
558.3792493648251138
 20
75.171353027000464
 30
0.0
 40
8.0426965830705033
 50
153.0669760241376025
 51
179.915774902169801
  0
ARC
  5
396B
  8
0
 10
1678.6241972598359098
 20
71.5993805721035557
 30
0.0
 40
1128.2933274025729133
 50
179.8180112536792876
 51
179.9170962084189114
  0
LINE
  5
396C
  8
0
 10
550.3320509811968577
 20
73.2319574043325048
 30
0.0
 11
550.3320509811968577
 21
14.8077262067942304
 31
0.0
  0
LINE
  5
396D
  8
0
 10
550.5652562930464455
 20
63.1680207715469493
 30
0.0
 11
556.5723737271499658
 21
63.1680207715469493
 31
0.0
  0
ARC
  5
396E
  8
0
 10
550.5729707875806298
 20
63.7919441114455665
 30
0.0
 40
0.623971030975159
 50
247.2874963661118954
 51
269.2916029472760897
  0
ARC
  5
396F
  8
0
 10
558.9380882937850856
 20
-156.1179378431762075
 30
0.0
 40
219.2987192187607945
 50
90.5009528127381202
 51
90.6180979523948764
  0
ARC
  5
3970
  8
0
 10
557.0143745559164472
 20
71.3642129682029775
 30
0.0
 40
8.1918161311201931
 50
270.0444062291044816
 51
274.8521622636117172
  0
ARC
  5
3971
  8
0
 10
557.3476819536889479
 20
66.5417441062440815
 30
0.0
 40
3.3592921017445239
 50
276.1450366392900264
 51
280.8173873964374252
  0
ARC
  5
3972
  8
0
 10
559.9418686489776746
 20
52.4227681530577527
 30
0.0
 40
10.9961406539630602
 50
98.4864568112247554
 51
100.2871973109773052
  0
ARC
  5
3973
  8
0
 10
558.3362020481069976
 20
62.7000781008154817
 30
0.0
 40
0.5986756196475501
 50
49.6449248921166273
 51
91.6363611141569265
  0
ARC
  5
3974
  8
0
 10
550.6249353296467461
 20
63.8572476744041779
 30
0.0
 40
0.6255003986998618
 50
242.258441917896107
 51
269.2580107346022942
  0
ARC
  5
3975
  8
0
 10
551.0053354347627419
 20
61.6587395240081406
 30
0.0
 40
1.6203242906610269
 50
93.0520669293856741
 51
103.8727857240155004
  0
ARC
  5
3976
  8
0
 10
552.6155863535832395
 20
28.1143543318463109
 30
0.0
 40
35.2033144308301971
 50
89.1823779811989539
 51
92.7622753106204385
  0
ARC
  5
3977
  8
0
 10
557.6180216095591504
 20
697.6398560671435689
 30
0.0
 40
634.3417339152566683
 50
269.5935336613521258
 51
270.0633242269228163
  0
LINE
  5
3978
  8
0
 10
550.5568759777466994
 20
61.6118624278701716
 30
0.0
 11
558.3292923636123533
 21
61.6118624278701716
 31
0.0
  0
ARC
  5
3979
  8
0
 10
558.3115151714297326
 20
62.2319312792998716
 30
0.0
 40
0.6203236325300193
 50
271.6422033621153105
 51
310.9152272732051756
  0
ARC
  5
397A
  8
0
 10
558.9376559372924476
 20
49.1494301289583291
 30
0.0
 40
12.4772723398482395
 50
92.7947206663264552
 51
103.3790783203811969
  0
ARC
  5
397B
  8
0
 10
562.6325245828461448
 20
33.6018045832816981
 30
0.0
 40
28.4579078225331017
 50
103.3730077239757037
 51
108.3580830492936968
  0
ARC
  5
397C
  8
0
 10
559.599223889913219
 20
40.0850848363790035
 30
0.0
 40
21.3656312072214405
 50
106.1129803382872012
 51
108.1203287845884944
  0
ARC
  5
397D
  8
0
 10
551.2608625979352155
 20
65.3903272314608301
 30
0.0
 40
5.2782349988166892
 50
275.7076564277958823
 51
288.7124631397647931
  0
ARC
  5
397E
  8
0
 10
551.6416679620355126
 20
61.8073131086846814
 30
0.0
 40
1.6752644338011951
 50
244.7403564422062061
 51
274.9354780377839234
  0
ARC
  5
397F
  8
0
 10
551.2994279090662531
 20
60.9986930555393627
 30
0.0
 40
0.7987119764135771
 50
178.9124637540041931
 51
242.1901216348325931
  0
ARC
  5
3980
  8
0
 10
550.5859526384666651
 20
60.9420865032307901
 30
0.0
 40
0.6704067731050949
 50
92.4857933435042412
 51
112.2548995944438985
  0
ARC
  5
3981
  8
0
 10
555.6305755706101763
 20
60.8349755476283605
 30
0.0
 40
5.1328336017558449
 50
171.2944636869110866
 51
178.0028625965522906
  0
ARC
  5
3982
  8
0
 10
558.1058030162043906
 20
62.4624094512828805
 30
0.0
 40
0.929231619849472
 50
311.1928611743289821
 51
48.3080975948533577
  0
LINE
  5
3983
  8
0
 10
550.5652562930464455
 20
48.6189684357689273
 30
0.0
 11
556.5723737271499658
 21
48.6189684357689273
 31
0.0
  0
ARC
  5
3984
  8
0
 10
550.5729707875806298
 20
49.2428917756675517
 30
0.0
 40
0.623971030975159
 50
247.2874963661118954
 51
269.2916029472760897
  0
ARC
  5
3985
  8
0
 10
558.9380882937850856
 20
-170.6669901789543076
 30
0.0
 40
219.2987192187607945
 50
90.5009528127381202
 51
90.6180979523948764
  0
ARC
  5
3986
  8
0
 10
557.0143745559164472
 20
56.8151606324249627
 30
0.0
 40
8.1918161311201931
 50
270.0444062291044816
 51
274.8521622636117172
  0
ARC
  5
3987
  8
0
 10
557.3476819536889479
 20
51.9926917704660525
 30
0.0
 40
3.3592921017445239
 50
276.1450366392900264
 51
280.8173873964374252
  0
ARC
  5
3988
  8
0
 10
559.9418686489776746
 20
37.8737158172797521
 30
0.0
 40
10.9961406539630602
 50
98.4864568112247554
 51
100.2871973109773052
  0
ARC
  5
3989
  8
0
 10
558.3362020481069976
 20
48.1510257650374527
 30
0.0
 40
0.5986756196475501
 50
49.6449248921166273
 51
91.6363611141569265
  0
ARC
  5
398A
  8
0
 10
550.6249353296467461
 20
49.3081953386261489
 30
0.0
 40
0.6255003986998618
 50
242.258441917896107
 51
269.2580107346022942
  0
ARC
  5
398B
  8
0
 10
551.0053354347627419
 20
47.1096871882301187
 30
0.0
 40
1.6203242906610269
 50
93.0520669293856741
 51
103.8727857240155004
  0
ARC
  5
398C
  8
0
 10
552.6155863535832395
 20
13.5653019960682908
 30
0.0
 40
35.2033144308301971
 50
89.1823779811989539
 51
92.7622753106204385
  0
ARC
  5
398D
  8
0
 10
557.6180216095591504
 20
683.0908037313655541
 30
0.0
 40
634.3417339152566683
 50
269.5935336613521258
 51
270.0633242269228163
  0
LINE
  5
398E
  8
0
 10
550.5568759777466994
 20
47.0628100920921568
 30
0.0
 11
558.3292923636123533
 21
47.0628100920921568
 31
0.0
  0
ARC
  5
398F
  8
0
 10
558.3115151714297326
 20
47.6828789435218496
 30
0.0
 40
0.6203236325300193
 50
271.6422033621153105
 51
310.9152272732051756
  0
ARC
  5
3990
  8
0
 10
558.9376559372924476
 20
34.6003777931803214
 30
0.0
 40
12.4772723398482395
 50
92.7947206663264552
 51
103.3790783203811969
  0
ARC
  5
3991
  8
0
 10
562.6325245828461448
 20
19.0527522475036797
 30
0.0
 40
28.4579078225331017
 50
103.3730077239757037
 51
108.3580830492936968
  0
ARC
  5
3992
  8
0
 10
559.599223889913219
 20
25.5360325006009887
 30
0.0
 40
21.3656312072214405
 50
106.1129803382872012
 51
108.1203287845884944
  0
ARC
  5
3993
  8
0
 10
551.2608625979352155
 20
50.8412748956828366
 30
0.0
 40
5.2782349988166892
 50
275.7076564277958823
 51
288.7124631397647931
  0
ARC
  5
3994
  8
0
 10
551.6416679620355126
 20
47.2582607729066524
 30
0.0
 40
1.6752644338011951
 50
244.7403564422062061
 51
274.9354780377839234
  0
ARC
  5
3995
  8
0
 10
551.2994279090662531
 20
46.4496407197613408
 30
0.0
 40
0.7987119764135771
 50
178.9124637540041931
 51
242.1901216348325931
  0
ARC
  5
3996
  8
0
 10
550.5859526384666651
 20
46.3930341674527611
 30
0.0
 40
0.6704067731050949
 50
92.4857933435042412
 51
112.2548995944438985
  0
ARC
  5
3997
  8
0
 10
555.6305755706101763
 20
46.2859232118503385
 30
0.0
 40
5.1328336017558449
 50
171.2944636869110866
 51
178.0028625965522906
  0
ARC
  5
3998
  8
0
 10
558.1058030162043906
 20
47.9133571155048585
 30
0.0
 40
0.929231619849472
 50
311.1928611743289821
 51
48.3080975948533577
  0
LINE
  5
3999
  8
0
 10
550.5652562930464455
 20
25.6665684312935483
 30
0.0
 11
556.5723737271499658
 21
25.6665684312935483
 31
0.0
  0
ARC
  5
399A
  8
0
 10
550.5729707875806298
 20
26.2904917711921904
 30
0.0
 40
0.623971030975159
 50
247.2874963661118954
 51
269.2916029472760897
  0
ARC
  5
399B
  8
0
 10
558.9380882937850856
 20
-193.6193901834296867
 30
0.0
 40
219.2987192187607945
 50
90.5009528127381202
 51
90.6180979523948764
  0
ARC
  5
399C
  8
0
 10
557.0143745559164472
 20
33.8627606279495907
 30
0.0
 40
8.1918161311201931
 50
270.0444062291044816
 51
274.8521622636117172
  0
ARC
  5
399D
  8
0
 10
557.3476819536889479
 20
29.0402917659906805
 30
0.0
 40
3.3592921017445239
 50
276.1450366392900264
 51
280.8173873964374252
  0
ARC
  5
399E
  8
0
 10
559.9418686489776746
 20
14.9213158128043695
 30
0.0
 40
10.9961406539630602
 50
98.4864568112247554
 51
100.2871973109773052
  0
ARC
  5
399F
  8
0
 10
558.3362020481069976
 20
25.1986257605620914
 30
0.0
 40
0.5986756196475501
 50
49.6449248921166273
 51
91.6363611141569265
  0
ARC
  5
39A0
  8
0
 10
550.6249353296467461
 20
26.3557953341507805
 30
0.0
 40
0.6255003986998618
 50
242.258441917896107
 51
269.2580107346022942
  0
ARC
  5
39A1
  8
0
 10
551.0053354347627419
 20
24.1572871837547396
 30
0.0
 40
1.6203242906610269
 50
93.0520669293856741
 51
103.8727857240155004
  0
ARC
  5
39A2
  8
0
 10
552.6155863535832395
 20
-9.3870980084070794
 30
0.0
 40
35.2033144308301971
 50
89.1823779811989539
 51
92.7622753106204385
  0
ARC
  5
39A3
  8
0
 10
557.6180216095591504
 20
660.1384037268901466
 30
0.0
 40
634.3417339152566683
 50
269.5935336613521258
 51
270.0633242269228163
  0
LINE
  5
39A4
  8
0
 10
550.5568759777466994
 20
24.1104100876167884
 30
0.0
 11
558.3292923636123533
 21
24.1104100876167884
 31
0.0
  0
ARC
  5
39A5
  8
0
 10
558.3115151714297326
 20
24.7304789390464883
 30
0.0
 40
0.6203236325300193
 50
271.6422033621153105
 51
310.9152272732051756
  0
ARC
  5
39A6
  8
0
 10
558.9376559372924476
 20
11.6479777887049405
 30
0.0
 40
12.4772723398482395
 50
92.7947206663264552
 51
103.3790783203811969
  0
ARC
  5
39A7
  8
0
 10
562.6325245828461448
 20
-3.8996477569717021
 30
0.0
 40
28.4579078225331017
 50
103.3730077239757037
 51
108.3580830492936968
  0
ARC
  5
39A8
  8
0
 10
559.599223889913219
 20
2.5836324961256159
 30
0.0
 40
21.3656312072214405
 50
106.1129803382872012
 51
108.1203287845884944
  0
ARC
  5
39A9
  8
0
 10
551.2608625979352155
 20
27.8888748912074611
 30
0.0
 40
5.2782349988166892
 50
275.7076564277958823
 51
288.7124631397647931
  0
ARC
  5
39AA
  8
0
 10
551.6416679620355126
 20
24.3058607684312804
 30
0.0
 40
1.6752644338011951
 50
244.7403564422062061
 51
274.9354780377839234
  0
ARC
  5
39AB
  8
0
 10
551.2994279090662531
 20
23.4972407152859795
 30
0.0
 40
0.7987119764135771
 50
178.9124637540041931
 51
242.1901216348325931
  0
ARC
  5
39AC
  8
0
 10
550.5859526384666651
 20
23.4406341629773998
 30
0.0
 40
0.6704067731050949
 50
92.4857933435042412
 51
112.2548995944438985
  0
ARC
  5
39AD
  8
0
 10
555.6305755706101763
 20
23.3335232073749594
 30
0.0
 40
5.1328336017558449
 50
171.2944636869110866
 51
178.0028625965522906
  0
ARC
  5
39AE
  8
0
 10
558.1058030162043906
 20
24.9609571110294794
 30
0.0
 40
0.929231619849472
 50
311.1928611743289821
 51
48.3080975948533577
  0
ARC
  5
39AF
  8
0
 10
549.3464423371616476
 20
83.7447641189152279
 30
0.0
 40
0.1252010230790288
 50
0.21301772607782
 51
86.4755090635248109
  0
LINE
  5
39B0
  8
0
 10
549.4716424949467637
 20
83.7452295978043111
 30
0.0
 11
549.4716424949467637
 21
13.1629600182043092
 31
0.0
  0
LINE
  5
39B1
  8
0
 10
549.4716424949467637
 20
13.1629600182043092
 30
0.0
 11
595.1525013577468144
 21
13.1629600182043092
 31
0.0
  0
ARC
  5
39B2
  8
0
 10
548.6746168414895237
 20
14.9575582286883293
 30
0.0
 40
1.66419276595359
 50
345.5506398113845989
 51
354.8345029244979969
  0
ARC
  5
39B3
  8
0
 10
545.0238070906849543
 20
15.8899570928484
 30
0.0
 40
5.432184217326248
 50
343.4724168870546919
 51
345.6356496729965784
  0
ARC
  5
39B4
  8
0
 10
555.2846091337473808
 20
12.7990196167629993
 30
0.0
 40
5.284156931043495
 50
162.9924194312492887
 51
166.3469342404889062
  0
ARC
  5
39B5
  8
0
 10
551.1766211343084478
 20
13.7895079222868802
 30
0.0
 40
1.0584763176102829
 50
165.9594273768452126
 51
177.8885249567694018
  0
ARC
  5
39B6
  8
0
 10
560.8100612012450483
 20
13.4587194312231109
 30
0.0
 40
10.6975908926056693
 50
178.0190449559237891
 51
179.7384988473621945
  0
LINE
  5
39B7
  8
0
 10
550.1125817271082497
 20
13.5075436668056899
 30
0.0
 11
550.1125817271082497
 21
13.1629600182043092
 31
0.0
  0
ARC
  5
39B8
  8
0
 10
548.1371227607666015
 20
13.3965825233182496
 30
0.0
 40
0.2745196898517375
 50
353.1259289853239807
 51
359.9505187780854953
  0
ARC
  5
39B9
  8
0
 10
548.2168254062273718
 20
13.3838889353106705
 30
0.0
 40
0.193894907506733
 50
336.2710681610145116
 51
354.0310588006503281
  0
ARC
  5
39BA
  8
0
 10
548.303809532452874
 20
13.3465015839135805
 30
0.0
 40
0.0992224541327864
 50
320.5901040563912261
 51
335.8225691539224727
  0
ARC
  5
39BB
  8
0
 10
548.3427977260291755
 20
13.3159858421853894
 30
0.0
 40
0.049739778362298
 50
283.1731580965080752
 51
319.23647523396221
  0
LINE
  5
39BC
  8
0
 10
548.3541331600466719
 20
13.2675549276042997
 30
0.0
 11
548.3142627472467439
 21
13.2640141603042991
 31
0.0
  0
ARC
  5
39BD
  8
0
 10
548.4693186337634643
 20
13.2926412143709207
 30
0.0
 40
0.1576763652647247
 50
180.057625470775406
 51
190.4603921792514996
  0
ARC
  5
39BE
  8
0
 10
548.0531438267687463
 20
13.2136091759355896
 30
0.0
 40
0.2659393785982162
 50
5.4061570114554032
 51
10.9256846289216298
  0
ARC
  5
39BF
  8
0
 10
548.3972714411105471
 20
13.2458463817497805
 30
0.0
 40
0.0796954171004735
 50
185.1701479382743116
 51
198.6477043617942115
  0
ARC
  5
39C0
  8
0
 10
548.3823109519703394
 20
13.2430533031192006
 30
0.0
 40
0.064662560479076
 50
200.5417141849580958
 51
270.0731255161064723
  0
LINE
  5
39C1
  8
0
 10
548.3823934795467494
 20
13.1783907953042991
 30
0.0
 11
548.4701800251467603
 21
13.1753252215043002
 31
0.0
  0
ARC
  5
39C2
  8
0
 10
548.4679813567942119
 20
13.1123635992481002
 30
0.0
 40
0.0630000001560123
 50
2.000000144243014
 51
87.9999999500475951
  0
LINE
  5
39C3
  8
0
 10
548.530942979046813
 20
13.1145622677043203
 30
0.0
 11
548.5335878799467082
 21
13.0388222170043093
 31
0.0
  0
LINE
  5
39C4
  8
0
 10
548.5335878799467082
 20
13.0388222170043093
 30
0.0
 11
549.3490511724191947
 21
13.0494383234160498
 31
0.0
  0
ARC
  5
39C5
  8
0
 10
549.3463228795645819
 20
13.1753382126775396
 30
0.0
 40
0.1259294473026637
 50
271.2414244701303119
 51
354.359021101523922
  0
ARC
  5
39C6
  8
0
 10
548.7797442109133499
 20
13.0597884530938799
 30
0.0
 40
0.3063887637489926
 50
183.2213707192458116
 51
192.3029038174182972
  0
ARC
  5
39C7
  8
0
 10
547.5790127421785201
 20
12.7979234104704904
 30
0.0
 40
0.9225658165992062
 50
6.9202717286385989
 51
12.3028732329974808
  0
LINE
  5
39C8
  8
0
 10
548.4948574586446739
 20
12.9090815918070501
 30
0.0
 11
548.5151007029021457
 21
12.7204595222070491
 31
0.0
  0
LINE
  5
39C9
  8
0
 10
548.5151007029021457
 20
12.7204595222070491
 30
0.0
 11
596.109043095787456
 21
12.7204595222070491
 31
0.0
  0
LINE
  5
39CA
  8
0
 10
548.3436485765901125
 20
13.1912221594151706
 30
0.0
 11
548.4577578845468224
 21
9.9235591138043091
 31
0.0
  0
ARC
  5
39CB
  8
0
 10
548.3690509017620798
 20
14.5086477810185706
 30
0.0
 40
0.0427555569045545
 50
301.9380776499559147
 51
354.978326911626084
  0
ARC
  5
39CC
  8
0
 10
548.3502671991276429
 20
14.5382152352089697
 30
0.0
 40
0.0777842979412044
 50
272.8488335983984143
 51
302.1583037710905728
  0
LINE
  5
39CD
  8
0
 10
548.3541331597468798
 20
14.4605270678042999
 30
0.0
 11
548.3116423482466644
 21
14.4589871921188209
 31
0.0
  0
LINE
  5
39CE
  8
0
 10
561.636845730646769
 20
75.375958494304129
 30
0.0
 11
561.636845730646769
 21
15.0938512883744593
 31
0.0
  0
ARC
  5
39CF
  8
0
 10
542.6926920587883387
 20
75.310497682377715
 30
0.0
 40
18.9442667702101808
 50
0.1979826274732034
 51
10.8699505737776896
  0
ARC
  5
39D0
  8
0
 10
562.0394653906165559
 20
79.0239421208509754
 30
0.0
 40
0.7556665440704001
 50
152.3071435825796129
 51
190.748203911029492
  0
LINE
  5
39D1
  8
0
 10
549.4716424949467637
 20
78.8830154199043108
 30
0.0
 11
593.3895456955164036
 21
78.8830154199043108
 31
0.0
  0
ARC
  5
39D2
  8
0
 10
560.9879914469411233
 20
79.9503281099620864
 30
0.0
 40
0.6906986224734382
 50
303.6140469216413749
 51
357.6068765437015031
  0
LINE
  5
39D3
  8
0
 10
561.6780876757468377
 20
79.921487477604316
 30
0.0
 11
561.6780876757468377
 21
83.7326745791043123
 31
0.0
  0
ARC
  5
39D4
  8
0
 10
562.2146412261680553
 20
83.7327028140318532
 30
0.0
 40
0.5365535511641055
 50
135.7433552667538095
 51
180.0030150619282949
  0
ARC
  5
39D5
  8
0
 10
548.4746423482646378
 20
83.9789072674165737
 30
0.0
 40
0.0630000000213625
 50
180.000607362651408
 51
267.0000000242196734
  0
LINE
  5
39D6
  8
0
 10
550.0822776284468318
 20
83.981740428904331
 30
0.0
 11
549.9848434849609475
 21
83.8366745217346505
 31
0.0
  0
ARC
  5
39D7
  8
0
 10
550.1392955404130589
 20
83.9113636815157662
 30
0.0
 40
0.0905755422727149
 50
101.9805349022879994
 51
129.0137381445809126
  0
ARC
  5
39D8
  8
0
 10
550.8852973400806832
 20
79.4127101421387209
 30
0.0
 40
4.6505745381636618
 50
93.4181699057699859
 51
99.4654905774028748
  0
ARC
  5
39D9
  8
0
 10
553.7014307561722717
 20
38.3872171734205665
 30
0.0
 40
45.772443901283772
 50
93.2076566321901083
 51
93.8751433971720388
  0
ARC
  5
39DA
  8
0
 10
553.096452095630184
 20
42.4872353168855028
 30
0.0
 40
41.6466826111950823
 50
90.0356834187971486
 51
92.6922704288851236
  0
LINE
  5
39DB
  8
0
 10
553.0705148288079727
 20
84.133909851304324
 30
0.0
 11
559.5024059120938773
 21
84.133909851304324
 31
0.0
  0
ARC
  5
39DC
  8
0
 10
559.4633724711796958
 20
-20.5310384384847211
 30
0.0
 40
104.6649555682976001
 50
88.704156501966736
 51
89.9786322798755123
  0
ARC
  5
39DD
  8
0
 10
562.1649237738344027
 20
99.0972456429402939
 30
0.0
 40
14.9938296240419309
 50
268.7213914136539188
 51
270.3617389370529054
  0
ARC
  5
39DE
  8
0
 10
548.3751053445862453
 20
83.9139604504762104
 30
0.0
 40
0.0365495380111107
 50
1.50058297963099
 51
47.1499357092296165
  0
ARC
  5
39DF
  8
0
 10
548.3526765395969278
 20
83.889781957275332
 30
0.0
 40
0.0695290896563226
 50
47.1499357091673801
 51
88.7995771174739161
  0
LINE
  5
39E0
  8
0
 10
548.3541331600466719
 20
83.9592957873043275
 30
0.0
 11
548.3116423482466644
 21
83.9608356117042973
 31
0.0
  0
ARC
  5
39E1
  8
0
 10
562.3128238248955313
 20
15.0946547472393906
 30
0.0
 40
0.6759785717389143
 50
180.0681009945029132
 51
273.2755293441795743
  0
ARC
  5
39E2
  8
0
 10
564.8194861170793502
 20
-159.8786335944342909
 30
0.0
 40
174.3158867538095933
 50
90.7405501515961959
 51
90.8112451239303908
  0
ARC
  5
39E3
  8
0
 10
572.312071926656472
 20
-1589.096807322793893
 30
0.0
 40
1673.2307192522600872
 50
89.6557746607085022
 51
90.3442253393599088
  0
ARC
  5
39E4
  8
0
 10
572.312071926346789
 20
-260.4420454685288746
 30
0.0
 40
275.0374528531331748
 50
87.9693801280182583
 51
92.0306198719817274
  0
LINE
  5
39E6
  8
0
 10
596.3125015044466863
 20
85.1743632776043142
 30
0.0
 11
596.3125015044466863
 21
13.2924826307375206
 31
0.0
  0
LINE
  5
39E7
  8
0
 10
596.3125015044466863
 20
85.1743632776043142
 30
0.0
 11
596.2722043391468105
 21
85.1722513927043252
 31
0.0
  0
ARC
  5
39E8
  8
0
 10
596.0027251830780415
 20
82.4023502565689938
 30
0.0
 40
3.0800349459445679
 50
87.8167033059436903
 51
89.1797444978261638
  0
ARC
  5
39E9
  8
0
 10
596.0864348662912562
 20
84.6408291455140755
 30
0.0
 40
0.8399935816574272
 50
84.7790633085687091
 51
87.7055701561894381
  0
ARC
  5
39EA
  8
0
 10
596.1531775674822029
 20
85.3712507699962231
 30
0.0
 40
0.1065289692367449
 50
76.7325040035495789
 51
84.7790633085752461
  0
ARC
  5
39EB
  8
0
 10
596.1766498966449035
 20
85.4707979246743008
 30
0.0
 40
0.0042519618459557
 50
43.0771959781305895
 51
76.7325040035160839
  0
LINE
  5
39EC
  8
0
 10
596.1797556748468878
 20
85.473701942804297
 30
0.0
 11
596.2800211005476285
 21
85.1726610518018532
 31
0.0
  0
ARC
  5
39ED
  8
0
 10
596.1423108030531921
 20
85.4109526219207851
 30
0.0
 40
0.0625400312658989
 50
90.0452545477458557
 51
179.881587918350192
  0
LINE
  5
39EE
  8
0
 10
596.1422614063861829
 20
85.47349263367893
 30
0.0
 11
596.1797556748468878
 21
85.473701942804297
 31
0.0
  0
LINE
  5
39EF
  8
0
 10
596.079770905346777
 20
85.411081872104333
 30
0.0
 11
596.079770905346777
 21
84.3648068113043053
 31
0.0
  0
ARC
  5
39F0
  8
0
 10
596.0173604684083557
 20
84.3648068113043053
 30
0.0
 40
0.062410436938535
 50
272.9307262049391056
 51
359.9999999999869829
  0
LINE
  5
39F1
  8
0
 10
596.0205514216467009
 20
84.3024780021042943
 30
0.0
 11
595.3563330210466802
 21
84.2676200191043137
 31
0.0
  0
ARC
  5
39F2
  8
0
 10
593.6815882293520872
 20
116.179859661479199
 30
0.0
 40
31.9561544793749306
 50
269.9999999999445777
 51
273.004109502933602
  0
CIRCLE
  5
39F3
  8
0
 10
595.562071926346789
 20
84.9868287997043268
 30
0.0
 40
0.0939999999999941
  0
CIRCLE
  5
39F4
  8
0
 10
594.8120719263469027
 20
84.9868287997043268
 30
0.0
 40
0.0939999999999941
  0
CIRCLE
  5
39F5
  8
0
 10
594.0620719263469027
 20
84.9868287997043268
 30
0.0
 40
0.0939999999999941
  0
CIRCLE
  5
39F6
  8
0
 10
593.312071926346789
 20
84.9868287997043268
 30
0.0
 40
0.0939999999999941
  0
CIRCLE
  5
39F7
  8
0
 10
592.5620719263469027
 20
84.9868287997043268
 30
0.0
 40
0.0939999999999941
  0
CIRCLE
  5
39F8
  8
0
 10
591.8120719263469027
 20
84.9868287997043268
 30
0.0
 40
0.0939999999999941
  0
CIRCLE
  5
39F9
  8
0
 10
591.062071926346789
 20
84.9868287997043268
 30
0.0
 40
0.0939999999999941
  0
CIRCLE
  5
39FA
  8
0
 10
590.312071926346789
 20
84.9868287997043268
 30
0.0
 40
0.0939999999999941
  0
CIRCLE
  5
39FB
  8
0
 10
589.5620719263469027
 20
84.9868287997043268
 30
0.0
 40
0.0939999999999941
  0
CIRCLE
  5
39FC
  8
0
 10
588.8120719263469027
 20
84.9868287997043268
 30
0.0
 40
0.0939999999999941
  0
CIRCLE
  5
39FD
  8
0
 10
588.062071926346789
 20
84.9868287997043268
 30
0.0
 40
0.0939999999999941
  0
CIRCLE
  5
39FE
  8
0
 10
587.3120719263469027
 20
84.9868287997043268
 30
0.0
 40
0.0939999999999941
  0
CIRCLE
  5
39FF
  8
0
 10
586.5620719263469027
 20
84.9868287997043268
 30
0.0
 40
0.0939999999999941
  0
CIRCLE
  5
3A00
  8
0
 10
585.812071926346789
 20
84.9868287997043268
 30
0.0
 40
0.0939999999999941
  0
CIRCLE
  5
3A01
  8
0
 10
585.0620719263469027
 20
84.9868287997043268
 30
0.0
 40
0.0939999999999941
  0
CIRCLE
  5
3A02
  8
0
 10
584.3120719263469027
 20
84.9868287997043268
 30
0.0
 40
0.0939999999999941
  0
CIRCLE
  5
3A03
  8
0
 10
583.562071926346789
 20
84.9868287997043268
 30
0.0
 40
0.0939999999999941
  0
CIRCLE
  5
3A04
  8
0
 10
582.8120719263469027
 20
84.9868287997043268
 30
0.0
 40
0.0939999999999941
  0
CIRCLE
  5
3A05
  8
0
 10
582.0620719263469027
 20
84.9868287997043268
 30
0.0
 40
0.0939999999999941
  0
CIRCLE
  5
3A06
  8
0
 10
581.312071926346789
 20
84.9868287997043268
 30
0.0
 40
0.0939999999999941
  0
CIRCLE
  5
3A07
  8
0
 10
580.5620719263469027
 20
84.9868287997043268
 30
0.0
 40
0.0939999999999941
  0
CIRCLE
  5
3A08
  8
0
 10
579.8120719263469027
 20
84.9868287997043268
 30
0.0
 40
0.0939999999999941
  0
CIRCLE
  5
3A09
  8
0
 10
579.062071926346789
 20
84.9868287997043268
 30
0.0
 40
0.0939999999999941
  0
CIRCLE
  5
3A0A
  8
0
 10
578.3120719263469027
 20
84.9868287997043268
 30
0.0
 40
0.0939999999999941
  0
CIRCLE
  5
3A0B
  8
0
 10
577.5620719263469027
 20
84.9868287997043268
 30
0.0
 40
0.0939999999999941
  0
CIRCLE
  5
3A0C
  8
0
 10
576.812071926346789
 20
84.9868287997043268
 30
0.0
 40
0.0939999999999941
  0
CIRCLE
  5
3A0D
  8
0
 10
576.0620719263469027
 20
84.9868287997043268
 30
0.0
 40
0.0939999999999941
  0
CIRCLE
  5
3A0E
  8
0
 10
575.3120719263469027
 20
84.9868287997043268
 30
0.0
 40
0.0939999999999941
  0
CIRCLE
  5
3A0F
  8
0
 10
574.562071926346789
 20
84.9868287997043268
 30
0.0
 40
0.0939999999999941
  0
CIRCLE
  5
3A10
  8
0
 10
573.8120719263469027
 20
84.9868287997043268
 30
0.0
 40
0.0939999999999941
  0
ARC
  5
3A11
  8
0
 10
596.2755015044713218
 20
85.1093377319945574
 30
0.0
 40
0.0630000000244517
 50
93.0000000727241058
 51
179.9999999911152031
  0
LINE
  5
3A12
  8
0
 10
596.212501504446891
 20
85.1093377319945574
 30
0.0
 11
596.212501504446891
 21
13.3963454453323898
 31
0.0
  0
LINE
  5
3A13
  8
0
 10
596.1527986696466996
 20
83.9159936067043049
 30
0.0
 11
594.1762254968468824
 21
83.812405796104315
 31
0.0
  0
ARC
  5
3A14
  8
0
 10
594.2002668736245141
 20
83.4535635743239936
 30
0.0
 40
0.3596466709557958
 50
93.8329212655024065
 51
182.2506626692924954
  0
LINE
  5
3A15
  8
0
 10
593.8408976405468138
 20
83.4394397559043028
 30
0.0
 11
593.8432703439468696
 21
79.825924004804321
 31
0.0
  0
ARC
  5
3A16
  8
0
 10
593.2248943285615042
 20
79.8242834253212976
 30
0.0
 40
0.6183781916472917
 50
307.0324416697092147
 51
0.1520079328019008
  0
ARC
  5
3A17
  8
0
 10
593.7608293934275707
 20
78.9827053054524555
 30
0.0
 40
0.3844342045331886
 50
115.1706982634097045
 51
205.9832348911276085
  0
ARC
  5
3A18
  8
0
 10
586.2448944878685779
 20
75.171353027000464
 30
0.0
 40
8.0426965830705033
 50
0.084225097830223
 51
26.9330239758617296
  0
ARC
  5
3A19
  8
0
 10
-534.000053407142218
 20
71.5993805721035557
 30
0.0
 40
1128.2933274025729133
 50
0.0829037915810797
 51
0.1819887463206717
  0
LINE
  5
3A1A
  8
0
 10
594.2920928714968341
 20
73.2319574043325048
 30
0.0
 11
594.2920928714968341
 21
14.8077262067942304
 31
0.0
  0
LINE
  5
3A1B
  8
0
 10
594.0588875596471325
 20
63.1680207715469493
 30
0.0
 11
588.0517701255436123
 21
63.1680207715469493
 31
0.0
  0
ARC
  5
3A1C
  8
0
 10
594.0511730651129483
 20
63.7919441114455665
 30
0.0
 40
0.623971030975159
 50
270.7083970527239103
 51
292.7125036338879909
  0
ARC
  5
3A1D
  8
0
 10
585.6860555589086061
 20
-156.1179378431762075
 30
0.0
 40
219.2987192187607945
 50
89.3819020476051236
 51
89.4990471872618656
  0
ARC
  5
3A1E
  8
0
 10
587.6097692967772446
 20
71.3642129682029775
 30
0.0
 40
8.1918161311201931
 50
265.1478377363882828
 51
269.9555937708955184
  0
ARC
  5
3A1F
  8
0
 10
587.2764618990047438
 20
66.5417441062440815
 30
0.0
 40
3.3592921017445239
 50
259.1826126035625748
 51
263.8549633607099167
  0
ARC
  5
3A20
  8
0
 10
584.6822752037159034
 20
52.4227681530577527
 30
0.0
 40
10.9961406539630602
 50
79.712802689022638
 51
81.5135431887752588
  0
ARC
  5
3A21
  8
0
 10
586.2879418045865805
 20
62.7000781008154817
 30
0.0
 40
0.5986756196475501
 50
88.3636388858431019
 51
130.3550751078836072
  0
ARC
  5
3A22
  8
0
 10
593.9992085230469456
 20
63.8572476744041779
 30
0.0
 40
0.6255003986998618
 50
270.7419892653977058
 51
297.7415580821037793
  0
ARC
  5
3A23
  8
0
 10
593.6188084179309499
 20
61.6587395240081406
 30
0.0
 40
1.6203242906610269
 50
76.127214275984457
 51
86.9479330706143259
  0
ARC
  5
3A24
  8
0
 10
592.0085574991103385
 20
28.1143543318463109
 30
0.0
 40
35.2033144308301971
 50
87.2377246893795757
 51
90.8176220188010603
  0
ARC
  5
3A25
  8
0
 10
587.0061222431344277
 20
697.6398560671435689
 30
0.0
 40
634.3417339152566683
 50
269.9366757730771837
 51
270.4064663386478742
  0
LINE
  5
3A26
  8
0
 10
594.0672678749468787
 20
61.6118624278701716
 30
0.0
 11
586.2948514890813385
 21
61.6118624278701716
 31
0.0
  0
ARC
  5
3A27
  8
0
 10
586.3126286812638455
 20
62.2319312792998716
 30
0.0
 40
0.6203236325300193
 50
229.0847727267947107
 51
268.3577966378845758
  0
ARC
  5
3A28
  8
0
 10
585.6864879154011305
 20
49.1494301289583291
 30
0.0
 40
12.4772723398482395
 50
76.6209216796187462
 51
87.2052793336735448
  0
ARC
  5
3A29
  8
0
 10
581.991619269847547
 20
33.6018045832816981
 30
0.0
 40
28.4579078225331017
 50
71.641916950706289
 51
76.6269922760243105
  0
ARC
  5
3A2A
  8
0
 10
585.0249199627803591
 20
40.0850848363790035
 30
0.0
 40
21.3656312072214405
 50
71.8796712154114772
 51
73.887019661712813
  0
ARC
  5
3A2B
  8
0
 10
593.3632812547583626
 20
65.3903272314608301
 30
0.0
 40
5.2782349988166892
 50
251.2875368602352069
 51
264.2923435722041177
  0
ARC
  5
3A2C
  8
0
 10
592.9824758906580655
 20
61.8073131086846814
 30
0.0
 40
1.6752644338011951
 50
265.0645219622160766
 51
295.2596435577938223
  0
ARC
  5
3A2D
  8
0
 10
593.324715943627325
 20
60.9986930555393627
 30
0.0
 40
0.7987119764135771
 50
297.8098783651673216
 51
1.08753624599582
  0
ARC
  5
3A2E
  8
0
 10
594.038191214226913
 20
60.9420865032307901
 30
0.0
 40
0.6704067731050949
 50
67.7451004055560588
 51
87.5142066564957446
  0
ARC
  5
3A2F
  8
0
 10
588.9935682820834018
 20
60.8349755476283605
 30
0.0
 40
5.1328336017558449
 50
1.9971374034477201
 51
8.7055363130888264
  0
ARC
  5
3A30
  8
0
 10
586.5183408364893012
 20
62.4624094512828805
 30
0.0
 40
0.929231619849472
 50
131.6919024051466067
 51
228.8071388256709895
  0
LINE
  5
3A31
  8
0
 10
594.0588875596471325
 20
48.6189684357689273
 30
0.0
 11
588.0517701255436123
 21
48.6189684357689273
 31
0.0
  0
ARC
  5
3A32
  8
0
 10
594.0511730651129483
 20
49.2428917756675517
 30
0.0
 40
0.623971030975159
 50
270.7083970527239103
 51
292.7125036338879909
  0
ARC
  5
3A33
  8
0
 10
585.6860555589086061
 20
-170.6669901789543076
 30
0.0
 40
219.2987192187607945
 50
89.3819020476051236
 51
89.4990471872618656
  0
ARC
  5
3A34
  8
0
 10
587.6097692967772446
 20
56.8151606324249627
 30
0.0
 40
8.1918161311201931
 50
265.1478377363882828
 51
269.9555937708955184
  0
ARC
  5
3A35
  8
0
 10
587.2764618990047438
 20
51.9926917704660525
 30
0.0
 40
3.3592921017445239
 50
259.1826126035625748
 51
263.8549633607099167
  0
ARC
  5
3A36
  8
0
 10
584.6822752037159034
 20
37.8737158172797521
 30
0.0
 40
10.9961406539630602
 50
79.712802689022638
 51
81.5135431887752588
  0
ARC
  5
3A37
  8
0
 10
586.2879418045865805
 20
48.1510257650374527
 30
0.0
 40
0.5986756196475501
 50
88.3636388858431019
 51
130.3550751078836072
  0
ARC
  5
3A38
  8
0
 10
593.9992085230469456
 20
49.3081953386261489
 30
0.0
 40
0.6255003986998618
 50
270.7419892653977058
 51
297.7415580821037793
  0
ARC
  5
3A39
  8
0
 10
593.6188084179309499
 20
47.1096871882301187
 30
0.0
 40
1.6203242906610269
 50
76.127214275984457
 51
86.9479330706143259
  0
ARC
  5
3A3A
  8
0
 10
592.0085574991103385
 20
13.5653019960682908
 30
0.0
 40
35.2033144308301971
 50
87.2377246893795757
 51
90.8176220188010603
  0
ARC
  5
3A3B
  8
0
 10
587.0061222431344277
 20
683.0908037313655541
 30
0.0
 40
634.3417339152566683
 50
269.9366757730771837
 51
270.4064663386478742
  0
LINE
  5
3A3C
  8
0
 10
594.0672678749468787
 20
47.0628100920921568
 30
0.0
 11
586.2948514890813385
 21
47.0628100920921568
 31
0.0
  0
ARC
  5
3A3D
  8
0
 10
586.3126286812638455
 20
47.6828789435218496
 30
0.0
 40
0.6203236325300193
 50
229.0847727267947107
 51
268.3577966378845758
  0
ARC
  5
3A3E
  8
0
 10
585.6864879154011305
 20
34.6003777931803214
 30
0.0
 40
12.4772723398482395
 50
76.6209216796187462
 51
87.2052793336735448
  0
ARC
  5
3A3F
  8
0
 10
581.991619269847547
 20
19.0527522475036797
 30
0.0
 40
28.4579078225331017
 50
71.641916950706289
 51
76.6269922760243105
  0
ARC
  5
3A40
  8
0
 10
585.0249199627803591
 20
25.5360325006009887
 30
0.0
 40
21.3656312072214405
 50
71.8796712154114772
 51
73.887019661712813
  0
ARC
  5
3A41
  8
0
 10
593.3632812547583626
 20
50.8412748956828366
 30
0.0
 40
5.2782349988166892
 50
251.2875368602352069
 51
264.2923435722041177
  0
ARC
  5
3A42
  8
0
 10
592.9824758906580655
 20
47.2582607729066524
 30
0.0
 40
1.6752644338011951
 50
265.0645219622160766
 51
295.2596435577938223
  0
ARC
  5
3A43
  8
0
 10
593.324715943627325
 20
46.4496407197613408
 30
0.0
 40
0.7987119764135771
 50
297.8098783651673216
 51
1.08753624599582
  0
ARC
  5
3A44
  8
0
 10
594.038191214226913
 20
46.3930341674527611
 30
0.0
 40
0.6704067731050949
 50
67.7451004055560588
 51
87.5142066564957446
  0
ARC
  5
3A45
  8
0
 10
588.9935682820834018
 20
46.2859232118503385
 30
0.0
 40
5.1328336017558449
 50
1.9971374034477201
 51
8.7055363130888264
  0
ARC
  5
3A46
  8
0
 10
586.5183408364893012
 20
47.9133571155048585
 30
0.0
 40
0.929231619849472
 50
131.6919024051466067
 51
228.8071388256709895
  0
LINE
  5
3A47
  8
0
 10
594.0588875596471325
 20
25.6665684312935483
 30
0.0
 11
588.0517701255436123
 21
25.6665684312935483
 31
0.0
  0
ARC
  5
3A48
  8
0
 10
594.0511730651129483
 20
26.2904917711921904
 30
0.0
 40
0.623971030975159
 50
270.7083970527239103
 51
292.7125036338879909
  0
ARC
  5
3A49
  8
0
 10
585.6860555589086061
 20
-193.6193901834296867
 30
0.0
 40
219.2987192187607945
 50
89.3819020476051236
 51
89.4990471872618656
  0
ARC
  5
3A4A
  8
0
 10
587.6097692967772446
 20
33.8627606279495907
 30
0.0
 40
8.1918161311201931
 50
265.1478377363882828
 51
269.9555937708955184
  0
ARC
  5
3A4B
  8
0
 10
587.2764618990047438
 20
29.0402917659906805
 30
0.0
 40
3.3592921017445239
 50
259.1826126035625748
 51
263.8549633607099167
  0
ARC
  5
3A4C
  8
0
 10
584.6822752037159034
 20
14.9213158128043695
 30
0.0
 40
10.9961406539630602
 50
79.712802689022638
 51
81.5135431887752588
  0
ARC
  5
3A4D
  8
0
 10
586.2879418045865805
 20
25.1986257605620914
 30
0.0
 40
0.5986756196475501
 50
88.3636388858431019
 51
130.3550751078836072
  0
ARC
  5
3A4E
  8
0
 10
593.9992085230469456
 20
26.3557953341507805
 30
0.0
 40
0.6255003986998618
 50
270.7419892653977058
 51
297.7415580821037793
  0
ARC
  5
3A4F
  8
0
 10
593.6188084179309499
 20
24.1572871837547396
 30
0.0
 40
1.6203242906610269
 50
76.127214275984457
 51
86.9479330706143259
  0
ARC
  5
3A50
  8
0
 10
592.0085574991103385
 20
-9.3870980084070794
 30
0.0
 40
35.2033144308301971
 50
87.2377246893795757
 51
90.8176220188010603
  0
ARC
  5
3A51
  8
0
 10
587.0061222431344277
 20
660.1384037268901466
 30
0.0
 40
634.3417339152566683
 50
269.9366757730771837
 51
270.4064663386478742
  0
LINE
  5
3A52
  8
0
 10
594.0672678749468787
 20
24.1104100876167884
 30
0.0
 11
586.2948514890813385
 21
24.1104100876167884
 31
0.0
  0
ARC
  5
3A53
  8
0
 10
586.3126286812638455
 20
24.7304789390464883
 30
0.0
 40
0.6203236325300193
 50
229.0847727267947107
 51
268.3577966378845758
  0
ARC
  5
3A54
  8
0
 10
585.6864879154011305
 20
11.6479777887049405
 30
0.0
 40
12.4772723398482395
 50
76.6209216796187462
 51
87.2052793336735448
  0
ARC
  5
3A55
  8
0
 10
581.991619269847547
 20
-3.8996477569717021
 30
0.0
 40
28.4579078225331017
 50
71.641916950706289
 51
76.6269922760243105
  0
ARC
  5
3A56
  8
0
 10
585.0249199627803591
 20
2.5836324961256159
 30
0.0
 40
21.3656312072214405
 50
71.8796712154114772
 51
73.887019661712813
  0
ARC
  5
3A57
  8
0
 10
593.3632812547583626
 20
27.8888748912074611
 30
0.0
 40
5.2782349988166892
 50
251.2875368602352069
 51
264.2923435722041177
  0
ARC
  5
3A58
  8
0
 10
592.9824758906580655
 20
24.3058607684312804
 30
0.0
 40
1.6752644338011951
 50
265.0645219622160766
 51
295.2596435577938223
  0
ARC
  5
3A59
  8
0
 10
593.324715943627325
 20
23.4972407152859795
 30
0.0
 40
0.7987119764135771
 50
297.8098783651673216
 51
1.08753624599582
  0
ARC
  5
3A5A
  8
0
 10
594.038191214226913
 20
23.4406341629773998
 30
0.0
 40
0.6704067731050949
 50
67.7451004055560588
 51
87.5142066564957446
  0
ARC
  5
3A5B
  8
0
 10
588.9935682820834018
 20
23.3335232073749594
 30
0.0
 40
5.1328336017558449
 50
1.9971374034477201
 51
8.7055363130888264
  0
ARC
  5
3A5C
  8
0
 10
586.5183408364893012
 20
24.9609571110294794
 30
0.0
 40
0.929231619849472
 50
131.6919024051466067
 51
228.8071388256709895
  0
ARC
  5
3A5D
  8
0
 10
595.2777015155320441
 20
83.7447641189152279
 30
0.0
 40
0.1252010230790288
 50
93.5244909364751891
 51
179.7869822739222059
  0
LINE
  5
3A5E
  8
0
 10
595.1525013577468144
 20
83.7452295978043111
 30
0.0
 11
595.1525013577468144
 21
13.1629600182043092
 31
0.0
  0
ARC
  5
3A5F
  8
0
 10
595.9495270112040544
 20
14.9575582286883293
 30
0.0
 40
1.66419276595359
 50
185.1654970755020031
 51
194.4493601886154011
  0
ARC
  5
3A60
  8
0
 10
599.6003367620087374
 20
15.8899570928484
 30
0.0
 40
5.432184217326248
 50
194.3643503270033079
 51
196.5275831129451944
  0
ARC
  5
3A61
  8
0
 10
589.3395347189461972
 20
12.7990196167629993
 30
0.0
 40
5.284156931043495
 50
13.6530657595110405
 51
17.0075805687507113
  0
ARC
  5
3A62
  8
0
 10
593.4475227183851302
 20
13.7895079222868802
 30
0.0
 40
1.0584763176102829
 50
2.1114750432305902
 51
14.04057262315483
  0
ARC
  5
3A63
  8
0
 10
583.8140826514485298
 20
13.4587194312231109
 30
0.0
 40
10.6975908926056693
 50
0.2615011526377502
 51
1.9809550440761921
  0
LINE
  5
3A64
  8
0
 10
594.5115621255854421
 20
13.5075436668056899
 30
0.0
 11
594.5115621255854421
 21
13.1629600182043092
 31
0.0
  0
ARC
  5
3A65
  8
0
 10
596.4870210919269766
 20
13.3965825233182496
 30
0.0
 40
0.2745196898517375
 50
180.049481221914391
 51
186.8740710146759056
  0
ARC
  5
3A66
  8
0
 10
596.4073184464662063
 20
13.3838889353106705
 30
0.0
 40
0.193894907506733
 50
185.9689411993495867
 51
203.7289318389848916
  0
ARC
  5
3A67
  8
0
 10
596.3203343202407041
 20
13.3465015839135805
 30
0.0
 40
0.0992224541327864
 50
204.1774308460774989
 51
219.4098959436088023
  0
ARC
  5
3A68
  8
0
 10
596.2813461266645163
 20
13.3159858421853894
 30
0.0
 40
0.049739778362298
 50
220.7635247660373921
 51
256.8268419034918111
  0
LINE
  5
3A69
  8
0
 10
596.2700106926467924
 20
13.2675549276042997
 30
0.0
 11
596.3098811054468342
 21
13.2640141603042991
 31
0.0
  0
ARC
  5
3A6A
  8
0
 10
596.1548252189301138
 20
13.2926412143709207
 30
0.0
 40
0.1576763652647247
 50
349.5396078207484152
 51
359.9423745292244803
  0
ARC
  5
3A6B
  8
0
 10
596.5710000259248318
 20
13.2136091759355896
 30
0.0
 40
0.2659393785982162
 50
169.0743153710783133
 51
174.5938429885445942
  0
ARC
  5
3A6C
  8
0
 10
596.2268724115831446
 20
13.2458463817497805
 30
0.0
 40
0.0796954171004735
 50
341.3522956382057032
 51
354.8298520617256031
  0
ARC
  5
3A6D
  8
0
 10
596.2418329007233524
 20
13.2430533031192006
 30
0.0
 40
0.064662560479076
 50
269.9268744838935277
 51
339.4582858150419042
  0
LINE
  5
3A6E
  8
0
 10
596.2417503731468287
 20
13.1783907953042991
 30
0.0
 11
596.1539638275468178
 21
13.1753252215043002
 31
0.0
  0
ARC
  5
3A6F
  8
0
 10
596.1561624958994798
 20
13.1123635992481002
 30
0.0
 40
0.0630000001560123
 50
92.0000000499524191
 51
177.9999998557570109
  0
LINE
  5
3A70
  8
0
 10
596.0932008736468788
 20
13.1145622677043203
 30
0.0
 11
596.0905559727468699
 21
13.0388222170043093
 31
0.0
  0
LINE
  5
3A71
  8
0
 10
596.0905559727468699
 20
13.0388222170043093
 30
0.0
 11
595.2751893681956972
 21
13.0493691929549094
 31
0.0
  0
ARC
  5
3A72
  8
0
 10
595.2779014400806545
 20
13.1753507624761603
 30
0.0
 40
0.126010758242887
 50
185.6430611727614917
 51
268.7667539338801816
  0
ARC
  5
3A73
  8
0
 10
595.8443913106541459
 20
13.0597899174188203
 30
0.0
 40
0.3063971628034285
 50
347.6971584515458176
 51
356.7784540576515155
  0
ARC
  5
3A74
  8
0
 10
597.0451310565111953
 20
12.7979234104704904
 30
0.0
 40
0.9225658165992062
 50
167.6971267670024872
 51
173.0797282713614038
  0
LINE
  5
3A75
  8
0
 10
596.1292863400448141
 20
12.9090815918070501
 30
0.0
 11
596.109043095787456
 21
12.7204595222070491
 31
0.0
  0
LINE
  5
3A76
  8
0
 10
596.2804952761034656
 20
13.1912221594151706
 30
0.0
 11
596.1663859681467557
 21
9.9235591138043091
 31
0.0
  0
ARC
  5
3A77
  8
0
 10
596.2550929509314983
 20
14.5086477810185706
 30
0.0
 40
0.0427555569045545
 50
185.0216730883738876
 51
238.0619223500441137
  0
ARC
  5
3A78
  8
0
 10
596.2738766535660488
 20
14.5382152352089697
 30
0.0
 40
0.0777842979412044
 50
237.8416962289093988
 51
267.1511664016016994
  0
LINE
  5
3A79
  8
0
 10
596.2700106929466983
 20
14.4605270678042999
 30
0.0
 11
596.3125015044466863
 21
14.4589871921188209
 31
0.0
  0
LINE
  5
3A7A
  8
0
 10
582.9872981220468091
 20
75.375958494304129
 30
0.0
 11
582.9872981220468091
 21
15.0938512883744593
 31
0.0
  0
ARC
  5
3A7B
  8
0
 10
601.931451793905353
 20
75.310497682377715
 30
0.0
 40
18.9442667702101808
 50
169.130049426222314
 51
179.802017372526791
  0
ARC
  5
3A7C
  8
0
 10
582.5846784620771359
 20
79.0239421208509754
 30
0.0
 40
0.7556665440704001
 50
349.2517960889704796
 51
27.6928564174204084
  0
ARC
  5
3A7D
  8
0
 10
583.6361524057524548
 20
79.9503281099620864
 30
0.0
 40
0.6906986224734382
 50
182.3931234562984969
 51
236.3859530783585114
  0
LINE
  5
3A7E
  8
0
 10
582.9460561769468541
 20
79.921487477604316
 30
0.0
 11
582.9460561769468541
 21
83.7326745791043123
 31
0.0
  0
ARC
  5
3A7F
  8
0
 10
582.4095026265256365
 20
83.7327028140318532
 30
0.0
 40
0.5365535511641055
 50
359.9969849380715914
 51
44.2566447332461408
  0
ARC
  5
3A80
  8
0
 10
596.149501504429054
 20
83.9789072674165737
 30
0.0
 40
0.0630000000213625
 50
272.9999999757802129
 51
359.999392637348592
  0
LINE
  5
3A81
  8
0
 10
594.5418662242467462
 20
83.981740428904331
 30
0.0
 11
594.6393003677327442
 21
83.8366745217346505
 31
0.0
  0
ARC
  5
3A82
  8
0
 10
594.4848483122805192
 20
83.9113636815157662
 30
0.0
 40
0.0905755422727149
 50
50.9862618554190732
 51
78.0194650977120006
  0
ARC
  5
3A83
  8
0
 10
593.7388465126128949
 20
79.4127101421387209
 30
0.0
 40
4.6505745381636618
 50
80.5345094225971252
 51
86.5818300942299999
  0
ARC
  5
3A84
  8
0
 10
590.9227130965213064
 20
38.3872171734205665
 30
0.0
 40
45.772443901283772
 50
86.1248566028279612
 51
86.7923433678098917
  0
ARC
  5
3A85
  8
0
 10
591.5276917570635078
 20
42.4872353168855028
 30
0.0
 40
41.6466826111950823
 50
87.3077295711149048
 51
89.9643165812028656
  0
LINE
  5
3A86
  8
0
 10
591.5536290238856054
 20
84.133909851304324
 30
0.0
 11
585.1217379405998145
 21
84.133909851304324
 31
0.0
  0
ARC
  5
3A87
  8
0
 10
585.1607713815138823
 20
-20.5310384384847211
 30
0.0
 40
104.6649555682976001
 50
90.0213677201244735
 51
91.295843498033264
  0
ARC
  5
3A88
  8
0
 10
582.4592200788591754
 20
99.0972456429402939
 30
0.0
 40
14.9938296240419309
 50
269.6382610629472083
 51
271.2786085863460812
  0
ARC
  5
3A89
  8
0
 10
596.2490385081073327
 20
83.9139604504762104
 30
0.0
 40
0.0365495380111107
 50
132.8500642907706037
 51
178.4994170203690089
  0
ARC
  5
3A8A
  8
0
 10
596.2714673130966503
 20
83.889781957275332
 30
0.0
 40
0.0695290896563226
 50
91.2004228825260839
 51
132.8500642908327904
  0
LINE
  5
3A8B
  8
0
 10
596.2700106926467924
 20
83.9592957873043275
 30
0.0
 11
596.3125015044466863
 21
83.9608356117042973
 31
0.0
  0
ARC
  5
3A8C
  8
0
 10
582.3113200277980468
 20
15.0946547472393906
 30
0.0
 40
0.6759785717389143
 50
266.7244706558204257
 51
359.9318990054969731
  0
ARC
  5
3A8D
  8
0
 10
579.8046577356142279
 20
-159.8786335944342909
 30
0.0
 40
174.3158867538095933
 50
89.188754876069595
 51
89.2594498484037899
  0
LINE
  5
3A8E
  8
0
 10
548.4738395800468425
 20
13.0425712708043093
 30
0.0
 11
548.4692025179149368
 21
13.1753593568098797
 31
0.0
  0
LINE
  5
3A8F
  8
0
 10
596.1503042746468282
 20
13.0425713276043105
 30
0.0
 11
596.1549413348790267
 21
13.1753593568133809
 31
0.0
  0
CIRCLE
  5
3A90
  8
0
 10
573.0620719263469027
 20
84.9868287997043268
 30
0.0
 40
0.0939999999999941
  0
ENDSEC
  0
EOF
