  0
SECTION
  2
HEADER
  9
$ACADVER
  1
AC1009
  9
$INSBASE
 10
665.780160355058797
 20
23.6602939682636588
 30
0.0
  9
$EXTMIN
 10
630.4666952126542583
 20
23.6601327647173889
 30
-0.0000000349181948
  9
$EXTMAX
 10
665.8211063416720208
 20
99.0949493749031944
 30
0.0000000814935746
  9
$LIMMIN
 10
0.0
 20
0.0
  9
$LIMMAX
 10
11.6929133858000007
 20
8.2677165353999982
  9
$ORTHOMODE
 70
     1
  9
$REGENMODE
 70
     1
  9
$FILLMODE
 70
     1
  9
$QTEXTMODE
 70
     0
  9
$MIRRTEXT
 70
     0
  9
$DRAGMODE
 70
     2
  9
$LTSCALE
 40
0.6431102362
  9
$OSMODE
 70
     7
  9
$ATTMODE
 70
     1
  9
$TEXTSIZE
 40
0.2
  9
$TRACEWID
 40
0.05
  9
$TEXTSTYLE
  7
STANDARD
  9
$CLAYER
  8
0
  9
$CELTYPE
  6
BYLAYER
  9
$CECOLOR
 62
   256
  9
$DIMSCALE
 40
1.0
  9
$DIMASZ
 40
0.1875
  9
$DIMEXO
 40
0.0625
  9
$DIMDLI
 40
0.4443307087
  9
$DIMRND
 40
0.0
  9
$DIMDLE
 40
0.0
  9
$DIMEXE
 40
0.125
  9
$DIMTP
 40
0.01
  9
$DIMTM
 40
0.01
  9
$DIMTXT
 40
2.0
  9
$DIMCEN
 40
0.1052362205
  9
$DIMTSZ
 40
0.0
  9
$DIMTOL
 70
     1
  9
$DIMLIM
 70
     0
  9
$DIMTIH
 70
     1
  9
$DIMTOH
 70
     1
  9
$DIMSE1
 70
     0
  9
$DIMSE2
 70
     0
  9
$DIMTAD
 70
     0
  9
$DIMZIN
 70
     0
  9
$DIMBLK
  1

  9
$DIMASO
 70
     1
  9
$DIMSHO
 70
     1
  9
$DIMPOST
  1
\X
  9
$DIMAPOST
  1

  9
$DIMALT
 70
     1
  9
$DIMALTD
 70
     2
  9
$DIMALTF
 40
25.3999999999999986
  9
$DIMLFAC
 40
1.0
  9
$DIMTOFL
 70
     0
  9
$DIMTVP
 40
0.0
  9
$DIMTIX
 70
     0
  9
$DIMSOXD
 70
     0
  9
$DIMSAH
 70
     0
  9
$DIMBLK1
  1

  9
$DIMBLK2
  1

  9
$DIMSTYLE
  2
STANDARD
  9
$DIMCLRD
 70
     0
  9
$DIMCLRE
 70
     0
  9
$DIMCLRT
 70
     0
  9
$DIMTFAC
 40
1.0
  9
$DIMGAP
 40
0.09
  9
$LUNITS
 70
     2
  9
$LUPREC
 70
     4
  9
$SKETCHINC
 40
0.1
  9
$FILLETRAD
 40
0.0
  9
$AUNITS
 70
     0
  9
$AUPREC
 70
     0
  9
$MENU
  1
.
  9
$ELEVATION
 40
0.0
  9
$PELEVATION
 40
0.0
  9
$THICKNESS
 40
0.0
  9
$LIMCHECK
 70
     0
  9
$BLIPMODE
 70
     0
  9
$CHAMFERA
 40
0.0
  9
$CHAMFERB
 40
0.0
  9
$SKPOLY
 70
     0
  9
$TDCREATE
 40
2458106.4931018520146608
  9
$TDUPDATE
 40
2459685.6722222222015262
  9
$TDINDWG
 40
0.2748365278
  9
$TDUSRTIMER
 40
0.2748365278
  9
$USRTIMER
 70
     1
  9
$ANGBASE
 50
0.0
  9
$ANGDIR
 70
     0
  9
$PDMODE
 70
     0
  9
$PDSIZE
 40
0.3125
  9
$PLINEWID
 40
0.0
  9
$COORDS
 70
     1
  9
$SPLFRAME
 70
     0
  9
$SPLINETYPE
 70
     6
  9
$SPLINESEGS
 70
     8
  9
$ATTDIA
 70
     1
  9
$ATTREQ
 70
     1
  9
$HANDLING
 70
     1
  9
$HANDSEED
  5
4926
  9
$SURFTAB1
 70
     6
  9
$SURFTAB2
 70
     6
  9
$SURFTYPE
 70
     6
  9
$SURFU
 70
     6
  9
$SURFV
 70
     6
  9
$UCSNAME
  2

  9
$UCSORG
 10
0.0
 20
0.0
 30
0.0
  9
$UCSXDIR
 10
1.0
 20
0.0
 30
0.0
  9
$UCSYDIR
 10
0.0
 20
1.0
 30
0.0
  9
$PUCSNAME
  2

  9
$PUCSORG
 10
0.0
 20
0.0
 30
0.0
  9
$PUCSXDIR
 10
1.0
 20
0.0
 30
0.0
  9
$PUCSYDIR
 10
0.0
 20
1.0
 30
0.0
  9
$USERI1
 70
     0
  9
$USERI2
 70
     0
  9
$USERI3
 70
     0
  9
$USERI4
 70
     0
  9
$USERI5
 70
     0
  9
$USERR1
 40
0.0
  9
$USERR2
 40
0.0
  9
$USERR3
 40
0.0
  9
$USERR4
 40
0.0
  9
$USERR5
 40
0.0
  9
$WORLDVIEW
 70
     1
  9
$SHADEDGE
 70
     3
  9
$SHADEDIF
 70
    70
  9
$TILEMODE
 70
     1
  9
$MAXACTVP
 70
    64
  9
$PLIMCHECK
 70
     0
  9
$PEXTMIN
 10
1.0000000000000000E+20
 20
1.0000000000000000E+20
 30
1.0000000000000000E+20
  9
$PEXTMAX
 10
-1.0000000000000000E+20
 20
-1.0000000000000000E+20
 30
-1.0000000000000000E+20
  9
$PLIMMIN
 10
0.0
 20
0.0
  9
$PLIMMAX
 10
12.0
 20
9.0
  9
$UNITMODE
 70
     0
  9
$VISRETAIN
 70
     1
  9
$PLINEGEN
 70
     0
  9
$PSLTSCALE
 70
     1
  0
ENDSEC
  0
SECTION
  2
TABLES
  0
TABLE
  2
VPORT
 70
     1
  0
VPORT
  2
*ACTIVE
 70
     0
 10
0.0
 20
0.0
 11
1.0
 21
1.0
 12
374.5696992206500227
 22
78.9835018038317713
 13
0.0
 23
0.0
 14
1.0
 24
1.0
 15
0.0
 25
0.0
 16
-0.0000000000000568
 26
0.0
 36
193.9250709296327955
 17
273.5742015565131169
 27
-17.6059607340214797
 37
0.0
 40
75.9749226957002435
 41
2.2831541218637992
 42
50.0
 43
0.0
 44
0.0
 50
0.0
 51
0.0
 71
     0
 72
   100
 73
     1
 74
     1
 75
     0
 76
     0
 77
     0
 78
     0
  0
ENDTAB
  0
TABLE
  2
LTYPE
 70
     2
  0
LTYPE
  2
CONTINUOUS
 70
     0
  3
Solid line
 72
    65
 73
     0
 40
0.0
  0
LTYPE
  2
PHANTOM2
 70
     0
  3
___ _ _ ___ _ _ ___ _ _ ___ _ _
 72
    65
 73
     6
 40
1.25
 49
0.625
 49
-0.125
 49
0.125
 49
-0.125
 49
0.125
 49
-0.125
  0
ENDTAB
  0
TABLE
  2
LAYER
 70
     2
  0
LAYER
  2
0
 70
     0
 62
   255
  6
CONTINUOUS
  0
LAYER
  2
DEFPOINTS
 70
     0
 62
     7
  6
CONTINUOUS
  0
ENDTAB
  0
TABLE
  2
STYLE
 70
     1
  0
STYLE
  2
STANDARD
 70
     0
 40
0.0
 41
0.8
 50
0.0
 71
     0
 42
0.2
  3
txt
  4

  0
ENDTAB
  0
TABLE
  2
VIEW
 70
     0
  0
ENDTAB
  0
TABLE
  2
UCS
 70
     0
  0
ENDTAB
  0
TABLE
  2
APPID
 70
     9
  0
APPID
  2
ACAD
 70
     0
  0
APPID
  2
ACAD_MLEADERVER
 70
     0
  0
APPID
  2
ACAD_EXEMPT_FROM_CAD_STANDARDS
 70
     0
  0
APPID
  2
ACAD_NAV_VCDISPLAY
 70
     0
  0
APPID
  2
ACAD_DSTYLE_DIMJAG
 70
     0
  0
APPID
  2
ACAD_DSTYLE_DIMTALN
 70
     0
  0
APPID
  2
ACAECLAYERSTANDARD
 70
     0
  0
APPID
  2
ACCMTRANSPARENCY
 70
     0
  0
APPID
  2
ACDBATTR
 70
     0
  0
ENDTAB
  0
TABLE
  2
DIMSTYLE
 70
     1
  0
DIMSTYLE
  2
STANDARD
 70
     0
  3

  4

  5

  6

  7

 40
1.0
 41
0.1875
 42
0.0625
 43
0.38
 44
0.125
 45
0.0
 46
0.0
 47
0.01
 48
0.01
140
0.15625
141
0.09
142
0.0
143
25.3999999999999986
144
1.0
145
0.0
146
1.0
147
0.09
 71
     1
 72
     0
 73
     1
 74
     1
 75
     0
 76
     0
 77
     0
 78
     4
170
     0
171
     2
172
     0
173
     0
174
     0
175
     0
176
     0
177
     0
178
     0
  0
ENDTAB
  0
ENDSEC
  0
SECTION
  2
BLOCKS
  0
BLOCK
  8
0
  2
$MODEL_SPACE
 70
     0
 10
0.0
 20
0.0
 30
0.0
  3
$MODEL_SPACE
  1

  0
ENDBLK
  5
21
  8
0
  0
BLOCK
 67
     1
  8
0
  2
$PAPER_SPACE
 70
     0
 10
0.0
 20
0.0
 30
0.0
  3
$PAPER_SPACE
  1

  0
ENDBLK
  5
1D
 67
     1
  8
0
  0
ENDSEC
  0
SECTION
  2
ENTITIES
  0
ATTDEF
  5
FAA
  8
DEFPOINTS
 10
665.7802467521463541
 20
23.6637209446553314
 30
0.0
 40
0.001
  1
72410100
  3

  2
MODELNUMBER
 70
     0
1001
ACDBATTR
1070
     0
1070
     1
  0
ATTDEF
  5
FAB
  8
DEFPOINTS
 10
665.7802467521463541
 20
23.6620542779886698
 30
0.0
 40
0.001
  1
ENSEMBLE
  3

  2
TRADENAME
 70
     0
1001
ACDBATTR
1070
     0
1070
     1
  0
ATTDEF
  5
FAC
  8
DEFPOINTS
 10
665.7802467521463541
 20
23.6603876113220011
 30
0.0
 40
0.001
  1
BATH AND SHOWER STALL
  3

  2
PRODUCT
 70
     0
1001
ACDBATTR
1070
     0
1070
     1
  0
LINE
  5
4414
  8
0
 10
631.780160355058797
 20
23.6602939682636588
 30
0.0
 11
631.9351603533541493
 21
23.6602939682636695
 31
0.0
  0
LINE
  5
4415
  8
0
 10
638.884631589810283
 20
23.6602939682636588
 30
0.0
 11
639.8846873608949863
 21
23.6602939682636588
 31
0.0
  0
LINE
  5
4416
  8
0
 10
641.8846880754563244
 20
23.6602939682636588
 30
0.0
 11
642.8846494385111328
 21
23.6602939682636588
 31
0.0
  0
LINE
  5
4417
  8
0
 10
642.9682130813737331
 20
23.6602939682636588
 30
0.0
 11
656.7999883435843458
 21
23.6602939682636588
 31
0.0
  0
LINE
  5
4418
  8
0
 10
659.8846568938688506
 20
23.6602939682636588
 30
0.0
 11
660.8846912798063613
 21
23.6602939682636588
 31
0.0
  0
LINE
  5
4419
  8
0
 10
665.780160355058797
 20
99.0888039682636759
 30
0.0
 11
665.780160355058797
 21
97.8751624166196308
 31
0.0
  0
LINE
  5
441A
  8
0
 10
665.780160355058797
 20
27.8321939682636703
 30
0.0
 11
665.780160355058797
 21
26.1571939682636589
 31
0.0
  0
LINE
  5
441B
  8
0
 10
630.516327815958789
 20
97.4795502495677937
 30
0.0
 11
630.516327815958789
 21
28.1537413869639686
 31
0.0
  0
LINE
  5
441C
  8
0
 10
630.55280014985874
 20
97.5675700022636505
 30
0.0
 11
631.7297792308576163
 21
98.7445490831624824
 31
0.0
  0
LINE
  5
441D
  8
0
 10
630.7426904739796782
 20
97.6975471973845373
 30
0.0
 11
631.9196923597598925
 21
98.8745490831649221
 31
0.0
  0
LINE
  5
441E
  8
0
 10
630.7062409448587914
 20
97.6095502497373531
 30
0.0
 11
630.7062409448587914
 21
28.2837413865866303
 31
0.0
  0
ARC
  5
441F
  8
0
 10
630.8307263518830723
 20
97.609534124356685
 30
0.0
 40
0.1244854080687655
 50
135.0074219307144858
 51
179.9925781159874987
  0
ARC
  5
4420
  8
0
 10
630.6408132234472532
 20
97.4795341242643616
 30
0.0
 40
0.1244854085328574
 50
134.9925782205725966
 51
179.9925781515918004
  0
LINE
  5
4421
  8
0
 10
632.3323873643779507
 20
97.4966635396636576
 30
0.0
 11
635.1192022404544559
 21
97.4966635396636576
 31
0.0
  0
ARC
  5
4422
  8
0
 10
632.345641593668347
 20
98.4158456344329551
 30
0.0
 40
0.9192776500810598
 50
263.2863466276774034
 51
269.1738755829892966
  0
ARC
  5
4423
  8
0
 10
632.2384286219880778
 20
97.362688520525225
 30
0.0
 40
0.1401833532362681
 50
90.1052008703058931
 51
179.2742199925056923
  0
LINE
  5
4424
  8
0
 10
632.0982565154588428
 20
97.3644642107267231
 30
0.0
 11
632.0982565154588428
 21
27.0979574408735004
 31
0.0
  0
LINE
  5
4425
  8
0
 10
632.6016536118172553
 20
27.8321939682636703
 30
0.0
 11
665.780160355058797
 21
27.8321939682636703
 31
0.0
  0
LINE
  5
4426
  8
0
 10
631.8308621446434472
 20
26.6433870105078405
 30
0.0
 11
632.493911835058384
 21
27.7705714841633089
 31
0.0
  0
LINE
  5
4427
  8
0
 10
631.780160355058797
 20
26.4571944081866306
 30
0.0
 11
631.780160355058797
 21
23.6602939682636588
 31
0.0
  0
ARC
  5
4428
  8
0
 10
632.1473895685754769
 20
26.4571944081866306
 30
0.0
 40
0.3672292135168285
 50
149.5344551055277975
 51
179.9999998943677042
  0
ARC
  5
4429
  8
0
 10
632.0976364705963988
 20
26.4467356131658917
 30
0.0
 40
0.1478369540472654
 50
27.3272462804748493
 51
176.0113671252150027
  0
LINE
  5
442A
  8
0
 10
631.9461702162006986
 20
24.6049437721066404
 30
0.0
 11
631.9501575968887437
 21
26.457018939083369
 31
0.0
  0
LINE
  5
442B
  8
0
 10
632.228974676758753
 20
26.5146034301636604
 30
0.0
 11
632.2566580042587248
 21
26.4552221312636604
 31
0.0
  0
ARC
  5
442C
  8
0
 10
632.5285285871923406
 20
26.5819671254686511
 30
0.0
 40
0.2999631767744946
 50
204.9947476314212906
 51
269.9971561122818002
  0
LINE
  5
442D
  8
0
 10
632.5285136984587098
 20
26.2820039490636503
 30
0.0
 11
635.0052667597586833
 21
26.2818603486636597
 31
0.0
  0
ARC
  5
442E
  8
0
 10
635.005258811600811
 20
26.1447742086150292
 30
0.0
 40
0.1370861402790377
 50
21.2230449453348413
 51
89.9966780310185186
  0
ARC
  5
442F
  8
0
 10
636.7138122324590768
 20
26.8110745333587204
 30
0.0
 40
1.6967926635718169
 50
201.3113510832723989
 51
204.4222793629128887
  0
ARC
  5
4430
  8
0
 10
635.5630660948587547
 20
26.2886643809637093
 30
0.0
 40
0.4330169775000523
 50
204.438071997703787
 51
224.2150753801014105
  0
ARC
  5
4431
  8
0
 10
635.1108493394815468
 20
25.8496229065478502
 30
0.0
 40
0.1972674276289447
 50
27.9329461126008596
 51
44.0169645338568927
  0
ARC
  5
4432
  8
0
 10
636.6615569846397875
 20
26.6761687631270803
 30
0.0
 40
1.559967365588631
 50
208.0739864723155108
 51
227.4880246272830959
  0
ARC
  5
4433
  8
0
 10
636.7109762531462138
 20
26.8714276489194717
 30
0.0
 40
1.7399182911257809
 50
230.6349748594323046
 51
270.2299934423135142
  0
ARC
  5
4434
  8
0
 10
633.2431367052254245
 20
24.278975258568309
 30
0.0
 40
1.3039064277637451
 50
89.7854153501909735
 51
158.0726543286064896
  0
ARC
  5
4435
  8
0
 10
633.2655084116884154
 20
24.2725608899218415
 30
0.0
 40
1.3270572218687471
 50
158.1764445549968059
 51
179.4500926517941082
  0
ARC
  5
4436
  8
0
 10
644.4767078141611591
 20
24.1448293902278799
 30
0.0
 40
12.5389823246672005
 50
177.8970755920516069
 51
179.3581304052156895
  0
LINE
  5
4437
  8
0
 10
631.9351603533541493
 20
23.660293968264611
 30
0.0
 11
631.9385123107704203
 21
24.2852973832608114
 31
0.0
  0
LINE
  5
4438
  8
0
 10
633.2480200954587417
 20
25.5828725416636615
 30
0.0
 11
634.6903914394588355
 21
25.5828730139636598
 31
0.0
  0
ARC
  5
4439
  8
0
 10
634.6922104847210448
 20
24.5195789817105805
 30
0.0
 40
1.063295588230613
 50
76.289727035992513
 51
90.0980194672752646
  0
ARC
  5
443A
  8
0
 10
634.3424758589899284
 20
23.4402285062574691
 30
0.0
 40
2.1963881166294801
 50
58.6735816632984779
 51
74.0992397953198463
  0
LINE
  5
443B
  8
0
 10
636.4559369269587705
 20
24.7597659483636683
 30
0.0
 11
637.7728561960586831
 21
24.0238826501636602
 31
0.0
  0
ARC
  5
443C
  8
0
 10
638.7480832589551483
 20
25.7691258348066192
 30
0.0
 40
1.999235253227668
 50
240.8039122658123858
 51
267.6805454979985939
  0
ARC
  5
443D
  8
0
 10
638.4395101171851366
 20
23.0582777453814884
 30
0.0
 40
0.7487033177469272
 50
53.5213523054742097
 51
83.9464777119024319
  0
ARC
  5
443E
  8
0
 10
653.381533649326002
 20
54.7255432223678966
 30
0.0
 40
34.4267826733914291
 50
238.6771005085406046
 51
239.5311167522150981
  0
ARC
  5
443F
  8
0
 10
636.7468966559588353
 20
26.4846004413636393
 30
0.0
 40
1.6647383160999809
 50
231.908453371105594
 51
247.6162624396918943
  0
ARC
  5
4440
  8
0
 10
634.6457677318818469
 20
21.9371142478526195
 30
0.0
 40
3.3469042129880311
 50
60.9542737402670483
 51
65.1072318726583319
  0
ARC
  5
4441
  8
0
 10
690.8539940084023101
 20
122.4963206300583067
 30
0.0
 40
111.8551864478527023
 50
240.7919921249228992
 51
240.9006317034402116
  0
ARC
  5
4442
  8
0
 10
636.7467241133588232
 20
26.4876536461637393
 30
0.0
 40
1.6652423931000691
 50
245.4391746067020108
 51
251.3958229686354002
  0
ARC
  5
4443
  8
0
 10
634.7631033386073796
 20
22.7720557515555484
 30
0.0
 40
2.8111530198372261
 50
73.4649451505847964
 51
91.0718054750823853
  0
ARC
  5
4444
  8
0
 10
634.9200025795904594
 20
23.3710092026141893
 30
0.0
 40
2.192406696901712
 50
63.5169547089918183
 51
72.9408909562438481
  0
ARC
  5
4445
  8
0
 10
634.7171540975707558
 20
23.8792223789541715
 30
0.0
 40
1.7035440751661719
 50
61.4033684166564697
 51
90.2823262832979623
  0
ARC
  5
4446
  8
0
 10
685.1129591364151565
 20
120.6265637923685006
 30
0.0
 40
107.3829010239804944
 50
242.5020965228167995
 51
242.7176679268648911
  0
ARC
  5
4447
  8
0
 10
636.7344592804272452
 20
26.7028520246305803
 30
0.0
 40
1.732762369889429
 50
224.693261998434906
 51
247.3908821868375014
  0
ARC
  5
4448
  8
0
 10
637.102121463556955
 20
27.018788775587069
 30
0.0
 40
2.2914648700946301
 50
224.7868027794202135
 51
239.0817367357279011
  0
ARC
  5
4449
  8
0
 10
633.2440391163599998
 20
19.1998125739232783
 30
0.0
 40
6.5939486451704719
 50
60.8570565248497317
 51
64.8297661512802108
  0
ARC
  5
444A
  8
0
 10
636.731510829140916
 20
26.7975491281160814
 30
0.0
 40
1.7672169170237639
 50
247.2639636787482118
 51
268.7462933891206944
  0
LINE
  5
444B
  8
0
 10
636.7179605149165127
 20
25.1315233757246617
 30
0.0
 11
639.2579211724337256
 21
25.0990314926572111
 31
0.0
  0
LINE
  5
444C
  8
0
 10
636.6928448967587428
 20
25.0307552585636586
 30
0.0
 11
639.1738900806586798
 21
24.9935102012636605
 31
0.0
  0
ARC
  5
444D
  8
0
 10
1101.9468940186939108
 20
874.6281444876379965
 30
0.0
 40
968.8240904399660849
 50
241.2838460751515015
 51
241.3724213307191064
  0
ARC
  5
444E
  8
0
 10
638.7226352430700445
 20
25.9796549631449416
 30
0.0
 40
1.983376179677216
 50
241.2716916591556924
 51
269.2727684717331726
  0
LINE
  5
444F
  8
0
 10
638.6974617490586752
 20
23.9964385439636594
 30
0.0
 11
639.2909267479587925
 21
23.9878715736636714
 31
0.0
  0
ARC
  5
4450
  8
0
 10
639.4250876402892345
 20
28.8444190541380507
 30
0.0
 40
4.858400207386472
 50
268.4176210600991226
 51
270.5671486156372225
  0
LINE
  5
4451
  8
0
 10
639.4731782671742621
 20
23.9862568638917395
 30
0.0
 11
642.291135162760952
 21
23.9510263370307115
 31
0.0
  0
ARC
  5
4452
  8
0
 10
633.6513995489179933
 20
19.9584343047585691
 30
0.0
 40
5.6842446803478142
 50
60.5161912217543474
 51
65.0308911720729128
  0
ARC
  5
4453
  8
0
 10
680.0460864711210434
 20
102.3385818978158994
 30
0.0
 40
88.8618145495057092
 50
240.6189216848615047
 51
241.5917031889493103
  0
ARC
  5
4454
  8
0
 10
638.72326080017001
 20
25.9167746033449511
 30
0.0
 40
1.983376179677216
 50
241.2716916591556924
 51
269.2727684717331726
  0
LINE
  5
4455
  8
0
 10
638.6980873061587545
 20
23.9335581841636618
 30
0.0
 11
639.2911775554587166
 21
23.9246737762636599
 31
0.0
  0
LINE
  5
4456
  8
0
 10
639.4733310280587375
 20
23.9217581725636599
 30
0.0
 11
641.350928375658782
 21
23.8926480879636713
 31
0.0
  0
ARC
  5
4457
  8
0
 10
633.9672171725960652
 20
20.56149151125733
 30
0.0
 40
4.9591770838849287
 50
59.8393297589807815
 51
65.1352936896149544
  0
ARC
  5
4458
  8
0
 10
2750.0108275270717968
 20
3848.2590242370588385
 30
0.0
 40
4368.7027784675519797
 50
241.0665143072046988
 51
241.0859185299894989
  0
ARC
  5
4459
  8
0
 10
638.7151081080347694
 20
25.7989363103609293
 30
0.0
 40
1.922758835780672
 50
240.0033327010131927
 51
269.4946186021429071
  0
LINE
  5
445A
  8
0
 10
638.6981485002587533
 20
23.8762522717636614
 30
0.0
 11
639.2910838614587874
 21
23.8658473349636608
 31
0.0
  0
LINE
  5
445B
  8
0
 10
639.473224267658793
 20
23.8617016762636496
 30
0.0
 11
641.6558251642586583
 21
23.8237923792636614
 31
0.0
  0
ARC
  5
445C
  8
0
 10
633.2394961560753472
 20
19.1640928350986712
 30
0.0
 40
6.4960519645546304
 50
60.2886413046146004
 51
64.3294761858236654
  0
ARC
  5
445D
  8
0
 10
-1191562.5779283361043781
 20
-2147738.981911146081984
 30
0.0
 40
2456466.5341111421585083
 50
60.9658126987761406
 51
60.9658476983345494
  0
ARC
  5
445E
  8
0
 10
638.7088544818366245
 20
25.7067881753156406
 30
0.0
 40
1.8795580146270079
 50
240.0718491800002994
 51
269.6615316851356283
  0
LINE
  5
445F
  8
0
 10
638.6977512707587721
 20
23.8272629562636489
 30
0.0
 11
639.2909709223588379
 21
23.8150885498636598
 31
0.0
  0
LINE
  5
4460
  8
0
 10
639.4731699493587485
 20
23.8105711221636689
 30
0.0
 11
641.7620307155586943
 21
23.7640178846636587
 31
0.0
  0
ARC
  5
4461
  8
0
 10
639.5481876318541481
 20
34.289965789746212
 30
0.0
 40
10.3684778393038002
 50
268.579627474532117
 51
269.5863419112650945
  0
ARC
  5
4462
  8
0
 10
639.6162944356915432
 20
34.1507820457952178
 30
0.0
 40
10.2900750203125693
 50
268.1889056573169796
 51
269.2033507124771177
  0
ARC
  5
4463
  8
0
 10
639.6786050734672244
 20
35.7728048554327671
 30
0.0
 40
11.9639976378959005
 50
268.1432887900754736
 51
269.016119492198186
  0
ARC
  5
4464
  8
0
 10
638.7516986734326565
 20
25.8085425852281602
 30
0.0
 40
2.019251319172723
 50
240.9808544820430996
 51
263.3672865505575942
  0
LINE
  5
4465
  8
0
 10
637.7721561241320387
 20
24.0427928056471494
 30
0.0
 11
636.2711910492587322
 21
24.8792795421636583
 31
0.0
  0
ARC
  5
4466
  8
0
 10
634.8028543243957529
 20
22.2317966159598512
 30
0.0
 40
3.0274045950487158
 50
60.9865429836173121
 51
65.5622143111881428
  0
ARC
  5
4467
  8
0
 10
636.8770047739352549
 20
26.9019368914658905
 30
0.0
 40
2.082887973847003
 50
246.7652370682114054
 51
253.1158778857723917
  0
ARC
  5
4468
  8
0
 10
636.875518102577189
 20
26.9746643322923596
 30
0.0
 40
2.1213921743658211
 50
247.2032467428817881
 51
254.7901547237644024
  0
ARC
  5
4469
  8
0
 10
636.864426063919268
 20
27.1201128531193802
 30
0.0
 40
2.167200218666252
 50
247.951765933446211
 51
256.4169329095707894
  0
ARC
  5
446A
  8
0
 10
636.8711493985138077
 20
27.0477692097725111
 30
0.0
 40
2.1488755172308021
 50
247.604628357532107
 51
255.7927675343158
  0
LINE
  5
446B
  8
0
 10
638.8734735238474514
 20
23.8236566797068114
 30
0.0
 11
638.8871729761483493
 21
23.6602939682636588
 31
0.0
  0
LINE
  5
446C
  8
0
 10
639.8741767887257765
 20
23.8024150268223202
 30
0.0
 11
639.8804333067587322
 21
23.6910590982636613
 31
0.0
  0
ARC
  5
446D
  8
0
 10
640.1180321833411426
 20
23.7044085595378391
 30
0.0
 40
0.2379735999423044
 50
183.2157748063885094
 51
190.6830541170363915
  0
ARC
  5
446E
  8
0
 10
641.3417388239524826
 20
23.1422893699009187
 30
0.0
 40
0.7504149876124097
 50
43.6531364400517816
 51
89.2983406544054787
  0
ARC
  5
446F
  8
0
 10
644.3230177064966711
 20
142.4325039249193878
 30
0.0
 40
118.4988990585183046
 50
269.0175098614607805
 51
269.1056947349733832
  0
LINE
  5
4470
  8
0
 10
642.4734942818587342
 20
23.9480393686636717
 30
0.0
 11
645.3047889589588522
 21
23.9227304313636608
 31
0.0
  0
LINE
  5
4471
  8
0
 10
641.8623871454509526
 20
23.9563866101293108
 30
0.0
 11
641.887172896139532
 21
23.6602939682636588
 31
0.0
  0
LINE
  5
4472
  8
0
 10
642.866203331397287
 20
23.9445289432769108
 30
0.0
 11
642.8821608223754538
 21
23.6602939682636588
 31
0.0
  0
ARC
  5
4473
  8
0
 10
643.4012925972381254
 20
23.1162128319964495
 30
0.0
 40
0.7502962323651032
 50
89.6096289830534971
 51
133.5182484961765965
  0
ARC
  5
4474
  8
0
 10
650.8081821653777297
 20
674.9446459740770479
 30
0.0
 40
651.1202264947128242
 50
269.3486613729257897
 51
269.5145141940615758
  0
ARC
  5
4475
  8
0
 10
649.8735833537079998
 20
464.7340469408803756
 30
0.0
 40
440.9833564631857143
 50
269.1197086857322915
 51
269.404127982062505
  0
ARC
  5
4476
  8
0
 10
653.074873404916957
 20
585.0453416936090889
 30
0.0
 40
561.3946094378840144
 50
268.9703217580109822
 51
269.2069438642290038
  0
ARC
  5
4477
  8
0
 10
657.3591913798883297
 20
667.8769748354460489
 30
0.0
 40
644.3469653974125322
 50
268.7159509194905809
 51
268.8477904244221008
  0
ARC
  5
4478
  8
0
 10
642.9910269167661454
 20
25.8197519025845317
 30
0.0
 40
2.159578440619065
 50
267.2433972910520765
 51
269.3947148334307258
  0
ARC
  5
4479
  8
0
 10
644.9886157659012724
 20
24.1561443904154594
 30
0.0
 40
0.4961745724550549
 50
243.4722267763015111
 51
267.9288228755610248
  0
LINE
  5
447A
  8
0
 10
645.0815287097100281
 20
23.7076412436054902
 30
0.0
 11
645.0824436049588257
 21
23.6907281308636612
 31
0.0
  0
ARC
  5
447B
  8
0
 10
645.0472603963919482
 20
23.6888249359375216
 30
0.0
 40
0.0352346465285124
 50
328.9898035457014771
 51
3.0963310953629062
  0
ARC
  5
447C
  8
0
 10
645.0584837988842537
 20
23.6820785166367394
 30
0.0
 40
0.0221396498928468
 50
280.2756833445210987
 51
328.9898035457046035
  0
LINE
  5
447D
  8
0
 10
645.3300408946179232
 20
23.704245199158489
 30
0.0
 11
645.3318368264588116
 21
23.6871580489636493
 31
0.0
  0
LINE
  5
447E
  8
0
 10
645.3318368264588116
 20
23.6871580489636493
 30
0.0
 11
645.3319213562507457
 21
23.7042244735566214
 31
0.0
  0
ARC
  5
447F
  8
0
 10
645.3619063841973684
 20
23.6921357376256587
 30
0.0
 40
0.030478774368567
 50
189.3994541102615869
 51
268.7116396354750805
  0
ARC
  5
4480
  8
0
 10
645.0996698236860993
 20
2.7170504400728102
 30
0.0
 40
20.9884590831751083
 50
89.0147062743351398
 51
89.4405273403375531
  0
LINE
  5
4481
  8
0
 10
645.3612210922588019
 20
23.6616646683636596
 30
0.0
 11
645.4030846510588617
 21
23.6616646683636596
 31
0.0
  0
ARC
  5
4482
  8
0
 10
645.4035670297128036
 20
23.6916717723928691
 30
0.0
 40
0.0300109810133689
 50
269.0790220684610858
 51
0.2690043197883446
  0
LINE
  5
4483
  8
0
 10
645.4335776799587165
 20
23.6918126737636712
 30
0.0
 11
645.4335772237706124
 21
23.7028532728043793
 31
0.0
  0
LINE
  5
4484
  8
0
 10
645.3273040662987796
 20
23.7742160608181585
 30
0.0
 11
645.3318388133586723
 21
23.7310708242636501
 31
0.0
  0
LINE
  5
4485
  8
0
 10
645.3318388133586723
 20
23.7310708242636501
 30
0.0
 11
645.332052303481646
 21
23.7741741254403998
 31
0.0
  0
ARC
  5
4486
  8
0
 10
645.3619083710973428
 20
23.7360485129256489
 30
0.0
 40
0.030478774368567
 50
189.3994541102615869
 51
268.7116396354750805
  0
LINE
  5
4487
  8
0
 10
645.3612230791587763
 20
23.705577443663671
 30
0.0
 11
645.4030866379587223
 21
23.705577443663671
 31
0.0
  0
ARC
  5
4488
  8
0
 10
645.4035690166126642
 20
23.7355845476928486
 30
0.0
 40
0.0300109810133689
 50
269.0790220684610858
 51
0.2690043197883446
  0
LINE
  5
4489
  8
0
 10
645.4335796668588046
 20
23.7357254490636507
 30
0.0
 11
645.4335781226585596
 21
23.773097950828241
 31
0.0
  0
LINE
  5
448A
  8
0
 10
645.3269662576949486
 20
23.8476585021670218
 30
0.0
 11
645.3318426856276346
 21
23.8012623892393087
 31
0.0
  0
LINE
  5
448B
  8
0
 10
645.3318426856276346
 20
23.8012623892393087
 30
0.0
 11
645.3320723529269571
 21
23.8476318354538499
 31
0.0
  0
ARC
  5
448C
  8
0
 10
645.3619122433661914
 20
23.806240077901311
 30
0.0
 40
0.030478774368567
 50
189.3994541102615869
 51
268.7116396354750805
  0
LINE
  5
448D
  8
0
 10
645.361226951427625
 20
23.775769008639319
 30
0.0
 11
645.4030905102276847
 21
23.775769008639319
 31
0.0
  0
ARC
  5
448E
  8
0
 10
645.4035728888816266
 20
23.8057761126685108
 30
0.0
 40
0.0300109810133689
 50
269.0790220684610858
 51
0.2690043197883446
  0
LINE
  5
448F
  8
0
 10
645.4335835391275396
 20
23.8059170140393093
 30
0.0
 11
645.4335818532872509
 21
23.8467174746619293
 31
0.0
  0
LINE
  5
4490
  8
0
 10
645.3268355449208684
 20
23.9225769122777905
 30
0.0
 11
645.3318448378771564
 21
23.874916673081561
 31
0.0
  0
LINE
  5
4491
  8
0
 10
645.3318448378771564
 20
23.874916673081561
 30
0.0
 11
645.3320807180866723
 21
23.9225404955343386
 31
0.0
  0
ARC
  5
4492
  8
0
 10
645.3619143956158268
 20
23.8798943617435491
 30
0.0
 40
0.030478774368567
 50
189.3994541102615869
 51
268.7116396354750805
  0
LINE
  5
4493
  8
0
 10
645.3612291036772604
 20
23.8494232924815606
 30
0.0
 11
645.4030926624770927
 21
23.8494232924815606
 31
0.0
  0
ARC
  5
4494
  8
0
 10
645.4035750411311483
 20
23.8794303965107595
 30
0.0
 40
0.0300109810133689
 50
269.0790220684610858
 51
0.2690043197883446
  0
LINE
  5
4495
  8
0
 10
645.433585691377175
 20
23.8795712978815509
 30
0.0
 11
645.4335839447089711
 21
23.9218439027213101
 31
0.0
  0
LINE
  5
4496
  8
0
 10
645.2354068222587102
 20
24.8705144872636588
 30
0.0
 11
645.3318463468865502
 21
23.9502260878548014
 31
0.0
  0
LINE
  5
4497
  8
0
 10
645.3318463468865502
 20
23.9502260878548014
 30
0.0
 11
645.3314913626586531
 21
25.0157481457636486
 31
0.0
  0
ARC
  5
4498
  8
0
 10
645.3619159046252207
 20
23.9552037765168109
 30
0.0
 40
0.030478774368567
 50
189.3994541102615869
 51
268.7116396354750805
  0
LINE
  5
4499
  8
0
 10
645.3612306126865406
 20
23.9247327072548188
 30
0.0
 11
645.4030941714866003
 21
23.9247327072548188
 31
0.0
  0
ARC
  5
449A
  8
0
 10
645.4035765501405422
 20
23.9547398112840213
 30
0.0
 40
0.0300109810133689
 50
269.0790220684610858
 51
0.2690043197883446
  0
LINE
  5
449B
  8
0
 10
645.4335872003865688
 20
23.9548807126548091
 30
0.0
 11
645.4334285303586967
 21
24.9975425250636505
 31
0.0
  0
LINE
  5
449C
  8
0
 10
645.4605825817586719
 20
23.7024062070636603
 30
0.0
 11
648.2936524939588026
 21
23.6751171358636583
 31
0.0
  0
ARC
  5
449D
  8
0
 10
645.0642452148431403
 20
-6.2801114392777464
 30
0.0
 40
30.0554787258887401
 50
89.2336110059882515
 51
89.5744539758921121
  0
LINE
  5
449E
  8
0
 10
645.4335796668588046
 20
23.7357254490636507
 30
0.0
 11
645.4323110832730208
 21
23.7731134951423115
 31
0.0
  0
LINE
  5
449F
  8
0
 10
645.4662556497587502
 20
23.7726785984636599
 30
0.0
 11
648.3048539034585929
 21
23.7523600570636617
 31
0.0
  0
ARC
  5
44A0
  8
0
 10
645.255961779010704
 20
9.7629796898606713
 30
0.0
 40
14.0848577870642409
 50
89.1659974233577373
 51
89.8570839775826471
  0
LINE
  5
44A1
  8
0
 10
645.460975009858771
 20
23.8463453549636597
 30
0.0
 11
648.3022111409587751
 21
23.8302533955636484
 31
0.0
  0
ARC
  5
44A2
  8
0
 10
649.9536982819535069
 20
689.9607066961593773
 30
0.0
 40
666.0542006359528386
 50
269.6000850289893833
 51
269.6135350360949019
  0
LINE
  5
44A3
  8
0
 10
645.4611394414587267
 20
23.9216574656636602
 30
0.0
 11
648.3021891109586932
 21
23.9083723136636586
 31
0.0
  0
ARC
  5
44A4
  8
0
 10
645.7123882313452441
 20
24.9848822129399792
 30
0.0
 40
0.2792468411237063
 50
158.8672395550048861
 51
177.4014703973458893
  0
ARC
  5
44A5
  8
0
 10
646.6388912135706732
 20
24.6192348915096595
 30
0.0
 40
1.2752864665776771
 50
153.215854689847589
 51
158.5516498440522923
  0
LINE
  5
44A6
  8
0
 10
645.5004295311587157
 20
25.1939179080636713
 30
0.0
 11
645.2807901559586981
 21
25.1950404295636616
 31
0.0
  0
ARC
  5
44A7
  8
0
 10
644.5802217998816559
 20
24.8657233936895494
 30
0.0
 40
0.7741096380058535
 50
16.5656526887470399
 51
25.1768676662239095
  0
ARC
  5
44A8
  8
0
 10
645.0849569292056458
 20
25.0192979183878883
 30
0.0
 40
0.2465599881645391
 50
359.1750728977273184
 51
15.8003434661432607
  0
ARC
  5
44A9
  8
0
 10
644.4782842350474539
 20
25.1989233582567209
 30
0.0
 40
0.8025153146407935
 50
352.0202854555483896
 51
359.7227762632559802
  0
ARC
  5
44AA
  8
0
 10
645.1744432296070499
 20
25.1013364873847884
 30
0.0
 40
0.0995497798736794
 50
326.4756488078718917
 51
352.0199629454264141
  0
LINE
  5
44AB
  8
0
 10
645.257433019958853
 20
25.0463560056636503
 30
0.0
 11
645.1980210668587006
 21
25.0197738468636608
 31
0.0
  0
ARC
  5
44AC
  8
0
 10
645.2337235615755162
 20
24.9399776588406503
 30
0.0
 40
0.0874191040448262
 50
114.1047472994341945
 51
125.8092768824043048
  0
ARC
  5
44AD
  8
0
 10
645.1957995924640272
 20
24.9926057465703515
 30
0.0
 40
0.0225504848272616
 50
125.9031526842963018
 51
170.9380309032603122
  0
LINE
  5
44AE
  8
0
 10
645.1735305699586434
 20
24.9961575070636606
 30
0.0
 11
645.1735713764587672
 21
24.928139978063669
 31
0.0
  0
ARC
  5
44AF
  8
0
 10
645.1724483948127045
 20
24.8649457250730705
 30
0.0
 40
0.0632042300705915
 50
5.0547381674044001
 51
88.9819432259744474
  0
ARC
  5
44B0
  8
0
 10
644.4335031324420697
 20
25.1746587571318692
 30
0.0
 40
1.0671002085901471
 50
353.0253284664051989
 51
1.034137161235247
  0
LINE
  5
44B1
  8
0
 10
645.4927067235587401
 20
25.0450801796636604
 30
0.0
 11
645.4728508174587205
 21
25.0180721716636612
 31
0.0
  0
ARC
  5
44B2
  8
0
 10
645.5060340477033378
 20
24.9936763293701105
 30
0.0
 40
0.0411859671572331
 50
143.677199563921306
 51
179.0366539871446889
  0
LINE
  5
44B3
  8
0
 10
645.4648539019586906
 20
24.9943687794636595
 30
0.0
 11
645.4648767422587525
 21
24.9261579567636602
 31
0.0
  0
ARC
  5
44B4
  8
0
 10
645.5254942281070498
 20
24.8560677164645689
 30
0.0
 40
0.0926667220513844
 50
130.8548616674441121
 51
173.3635211077314864
  0
LINE
  5
44B5
  8
0
 10
645.880022603643738
 20
23.6983660213372005
 30
0.0
 11
645.8821580906092095
 21
23.6602939682636588
 31
0.0
  0
LINE
  5
44B6
  8
0
 10
642.2354215697587279
 20
24.8918775185636605
 30
0.0
 11
642.331842013409414
 21
23.97673043491152
 31
0.0
  0
LINE
  5
44B7
  8
0
 10
642.331842013409414
 20
23.97673043491152
 30
0.0
 11
642.3315061101587844
 21
25.037111177063661
 31
0.0
  0
ARC
  5
44B8
  8
0
 10
642.3619115711479708
 20
23.9817081235735117
 30
0.0
 40
0.030478774368567
 50
189.3994541102615869
 51
268.7116396354750805
  0
LINE
  5
44B9
  8
0
 10
642.3612262792094043
 20
23.9512370543115196
 30
0.0
 11
642.4030898380093504
 21
23.9512370543115196
 31
0.0
  0
ARC
  5
44BA
  8
0
 10
642.4035722166632922
 20
23.9812441583407185
 30
0.0
 40
0.0300109810133689
 50
269.0790220684610858
 51
0.2690043197883446
  0
LINE
  5
44BB
  8
0
 10
642.4335828669094326
 20
23.9813850597115099
 30
0.0
 11
642.4334432778587143
 21
25.01890555636367
 31
0.0
  0
ARC
  5
44BC
  8
0
 10
642.7124029788452617
 20
25.006245244239981
 30
0.0
 40
0.2792468411237063
 50
158.8672395550048861
 51
177.4014703973458893
  0
ARC
  5
44BD
  8
0
 10
643.6389059610708046
 20
24.6405979228096612
 30
0.0
 40
1.2752864665776771
 50
153.215854689847589
 51
158.5516498440522923
  0
LINE
  5
44BE
  8
0
 10
642.5004442786587333
 20
25.2152809393636694
 30
0.0
 11
642.2808049034588294
 21
25.2164034608636598
 31
0.0
  0
ARC
  5
44BF
  8
0
 10
641.5802365473815598
 20
24.8870864249895298
 30
0.0
 40
0.7741096380058535
 50
16.5656526887470399
 51
25.1768676662239095
  0
ARC
  5
44C0
  8
0
 10
642.0849716767055497
 20
25.04066094968789
 30
0.0
 40
0.2465599881645391
 50
359.1750728977273184
 51
15.8003434661432607
  0
ARC
  5
44C1
  8
0
 10
641.4782989825472441
 20
25.2202863895567297
 30
0.0
 40
0.802515314640868
 50
352.0202854555483896
 51
359.7227762632559802
  0
ARC
  5
44C2
  8
0
 10
642.1744579771069539
 20
25.1226995186847688
 30
0.0
 40
0.0995497798736794
 50
326.4756488078718917
 51
352.0199629454264141
  0
LINE
  5
44C3
  8
0
 10
642.2574477674586433
 20
25.0677190369636484
 30
0.0
 11
642.1980358143587182
 21
25.041136878163659
 31
0.0
  0
ARC
  5
44C4
  8
0
 10
642.2337383090755338
 20
24.9613406901406485
 30
0.0
 40
0.0874191040448262
 50
114.1047472994341945
 51
125.8092768824043048
  0
ARC
  5
44C5
  8
0
 10
642.1958143399640448
 20
25.0139687778703497
 30
0.0
 40
0.0225504848272616
 50
125.9031526842963018
 51
170.9380309032603122
  0
LINE
  5
44C6
  8
0
 10
642.173545317458661
 20
25.0175205383636587
 30
0.0
 11
642.1735861239587848
 21
24.9495030093636494
 31
0.0
  0
ARC
  5
44C7
  8
0
 10
642.1724631423127221
 20
24.88630875637309
 30
0.0
 40
0.0632042300705915
 50
5.0547381674044001
 51
88.9819432259744474
  0
ARC
  5
44C8
  8
0
 10
641.4335178799419737
 20
25.1960217884318602
 30
0.0
 40
1.0671002085901471
 50
353.0253284664051989
 51
1.034137161235247
  0
LINE
  5
44C9
  8
0
 10
642.4927214710586441
 20
25.0664432109636586
 30
0.0
 11
642.4728655649587381
 21
25.0394352029636593
 31
0.0
  0
ARC
  5
44CA
  8
0
 10
642.5060487952033554
 20
25.0150393606701016
 30
0.0
 40
0.0411859671572331
 50
143.677199563921306
 51
179.0366539871446889
  0
LINE
  5
44CB
  8
0
 10
642.4648686494588219
 20
25.0157318107636506
 30
0.0
 11
642.4648914897587701
 21
24.9475209880636584
 31
0.0
  0
ARC
  5
44CC
  8
0
 10
642.5255089756069538
 20
24.8774307477645706
 30
0.0
 40
0.0926667220513844
 50
130.8548616674441121
 51
173.3635211077314864
  0
LINE
  5
44CD
  8
0
 10
642.4336298938486607
 20
23.9486683532502909
 30
0.0
 11
642.4331840113587759
 21
23.70200401046365
 31
0.0
  0
ARC
  5
44CE
  8
0
 10
642.3763841213251453
 20
23.7021066847136517
 30
0.0
 40
0.0567999828329843
 50
331.5950000636266282
 51
359.8964294688116183
  0
ARC
  5
44CF
  8
0
 10
642.4000869114786383
 20
23.6892879606133988
 30
0.0
 40
0.02985296168749
 50
283.7777921373307777
 51
331.595000063629584
  0
LINE
  5
44D0
  8
0
 10
642.3319453434141906
 20
23.9503334986232908
 30
0.0
 11
642.3309906072588547
 21
23.6957562842636484
 31
0.0
  0
LINE
  5
44D1
  8
0
 10
642.3309906072588547
 20
23.6957562842636484
 30
0.0
 11
642.3045864875830375
 21
23.9507964190962817
 31
0.0
  0
ARC
  5
44D2
  8
0
 10
642.3808170401298412
 20
23.6998364537361006
 30
0.0
 40
0.0499931359272518
 50
184.681368549033408
 51
213.1224105305412877
  0
ARC
  5
44D3
  8
0
 10
642.3629028081088563
 20
23.6881483256403413
 30
0.0
 40
0.0286031371595599
 50
213.1224105305375076
 51
256.861074421003309
  0
LINE
  5
44D4
  8
0
 10
639.2354195679588429
 20
24.9222504148636617
 30
0.0
 11
639.3318384756272508
 21
24.0141252554364115
 31
0.0
  0
LINE
  5
44D5
  8
0
 10
639.3318384756272508
 20
24.0141252554364115
 30
0.0
 11
639.3315041083587857
 21
25.0674840733636586
 31
0.0
  0
ARC
  5
44D6
  8
0
 10
639.3619080333658076
 20
24.0191029440984103
 30
0.0
 40
0.030478774368567
 50
189.3994541102615869
 51
268.7116396354750805
  0
LINE
  5
44D7
  8
0
 10
639.3612227414273548
 20
23.9886318748364111
 30
0.0
 11
639.4030863002273009
 21
23.9886318748364111
 31
0.0
  0
ARC
  5
44D8
  8
0
 10
639.4035686788813564
 20
24.0186389788656101
 30
0.0
 40
0.0300109810133689
 50
269.0790220684610858
 51
0.2690043197883446
  0
LINE
  5
44D9
  8
0
 10
639.4335793291271557
 20
24.0187798802364085
 30
0.0
 11
639.4334412760588293
 21
25.0492784526636605
 31
0.0
  0
ARC
  5
44DA
  8
0
 10
639.7124009770451494
 20
25.0366181405399715
 30
0.0
 40
0.2792468411237063
 50
158.8672395550048861
 51
177.4014703973458893
  0
ARC
  5
44DB
  8
0
 10
640.6389039592709196
 20
24.6709708191096588
 30
0.0
 40
1.2752864665776771
 50
153.215854689847589
 51
158.5516498440522923
  0
LINE
  5
44DC
  8
0
 10
639.5004422768588483
 20
25.2456538356636706
 30
0.0
 11
639.2808029016586033
 21
25.2467763571636503
 31
0.0
  0
ARC
  5
44DD
  8
0
 10
638.5802345455814475
 20
24.9174593212895417
 30
0.0
 40
0.7741096380058535
 50
16.5656526887470399
 51
25.1768676662239095
  0
ARC
  5
44DE
  8
0
 10
639.0849696749056648
 20
25.0710338459878912
 30
0.0
 40
0.2465599881645391
 50
359.1750728977273184
 51
15.8003434661432607
  0
ARC
  5
44DF
  8
0
 10
638.4782969807472455
 20
25.2506592858567203
 30
0.0
 40
0.8025153146408333
 50
352.0202854555483896
 51
359.7227762632575718
  0
ARC
  5
44E0
  8
0
 10
639.1744559753070689
 20
25.1530724149847806
 30
0.0
 40
0.0995497798736794
 50
326.4756488078718917
 51
352.0199629454264141
  0
LINE
  5
44E1
  8
0
 10
639.2574457656586446
 20
25.0980919332636603
 30
0.0
 11
639.1980338125588332
 21
25.0715097744636495
 31
0.0
  0
ARC
  5
44E2
  8
0
 10
639.2337363072754215
 20
24.991713586440639
 30
0.0
 40
0.0874191040448262
 50
114.1047472994341945
 51
125.8092768824043048
  0
ARC
  5
44E3
  8
0
 10
639.1958123381640462
 20
25.0443416741703615
 30
0.0
 40
0.0225504848272616
 50
125.9031526842963018
 51
170.9380309032603122
  0
LINE
  5
44E4
  8
0
 10
639.1735433156586623
 20
25.0478934346636706
 30
0.0
 11
639.1735841221587862
 21
24.9798759056636612
 31
0.0
  0
ARC
  5
44E5
  8
0
 10
639.1724611405127234
 20
24.9166816526730805
 30
0.0
 40
0.0632042300705915
 50
5.0547381674044001
 51
88.9819432259744474
  0
ARC
  5
44E6
  8
0
 10
638.433515878141975
 20
25.2263946847318614
 30
0.0
 40
1.0671002085901471
 50
353.0253284664051989
 51
1.034137161235247
  0
LINE
  5
44E7
  8
0
 10
639.4927194692586454
 20
25.0968161072636491
 30
0.0
 11
639.4728635631588531
 21
25.0698080992636498
 31
0.0
  0
ARC
  5
44E8
  8
0
 10
639.5060467934033568
 20
25.0454122569700992
 30
0.0
 40
0.0411859671572331
 50
143.677199563921306
 51
179.0366539871446889
  0
LINE
  5
44E9
  8
0
 10
639.4648666476585959
 20
25.0461047070636589
 30
0.0
 11
639.4648894879586578
 21
24.9778938843636702
 31
0.0
  0
ARC
  5
44EA
  8
0
 10
639.5255069738070688
 20
24.9078036440645683
 30
0.0
 40
0.0926667220513844
 50
130.8548616674441121
 51
173.3635211077314864
  0
LINE
  5
44EB
  8
0
 10
641.8243956674248238
 20
23.7168892524998505
 30
0.0
 11
640.2636444046588622
 21
23.7527851255636513
 31
0.0
  0
ARC
  5
44EC
  8
0
 10
640.2462856850091839
 20
22.9980286229201205
 30
0.0
 40
0.7549560937104725
 50
88.6824809568247616
 51
103.9094705820870956
  0
ARC
  5
44ED
  8
0
 10
640.2433748082221427
 20
23.0097825984522792
 30
0.0
 40
0.7428470415394756
 50
103.9094705820870956
 51
118.8720366222254938
  0
LINE
  5
44EE
  8
0
 10
641.85590386029412
 20
23.688876022717551
 30
0.0
 11
640.0810695385955569
 21
23.7346848035056297
 31
0.0
  0
LINE
  5
44EF
  8
0
 10
639.4335775013124703
 20
23.98602626460438
 30
0.0
 11
639.4335771079441884
 21
23.9543268602044783
 31
0.0
  0
LINE
  5
44F0
  8
0
 10
639.4335771079441884
 20
23.9543268602044783
 30
0.0
 11
639.4325061629152742
 21
23.9860245106026113
 31
0.0
  0
LINE
  5
44F1
  8
0
 10
639.3281913361220177
 20
23.9869851964955387
 30
0.0
 11
639.3318814372530596
 21
23.9518494912279287
 31
0.0
  0
LINE
  5
44F2
  8
0
 10
639.3318814372530596
 20
23.9518494912279287
 30
0.0
 11
639.3318782993175091
 21
23.9869130485948183
 31
0.0
  0
ARC
  5
44F3
  8
0
 10
639.3617047261327571
 20
23.9549844025327516
 30
0.0
 40
0.029987601246064
 50
186.0006789997206909
 51
269.1523976073809763
  0
ARC
  5
44F4
  8
0
 10
639.4035799048587023
 20
23.9543318463636901
 30
0.0
 40
0.0299972035000054
 50
269.0772982510105749
 51
359.9904762495561954
  0
LINE
  5
44F5
  8
0
 10
639.4030968452684647
 20
23.9243385325878997
 30
0.0
 11
639.361261122158794
 21
23.9250000825636704
 31
0.0
  0
LINE
  5
44F6
  8
0
 10
639.328620852179597
 20
23.9238130254176298
 30
0.0
 11
639.331889214995158
 21
23.8926959788135207
 31
0.0
  0
LINE
  5
44F7
  8
0
 10
639.331889214995158
 20
23.8926959788135207
 30
0.0
 11
639.3318833943392292
 21
23.92374443474095
 31
0.0
  0
LINE
  5
44F8
  8
0
 10
639.4326658224850917
 20
23.9221315214096393
 30
0.0
 11
639.4335746574778341
 21
23.8950781730325801
 31
0.0
  0
LINE
  5
44F9
  8
0
 10
639.4335746574778341
 20
23.8950781730325801
 30
0.0
 11
639.4335748047349171
 21
23.9221214330829817
 31
0.0
  0
ARC
  5
44FA
  8
0
 10
639.36171866205882
 20
23.8958414610636716
 30
0.0
 40
0.0299948324000087
 50
186.0195311177234032
 51
269.0193304477868992
  0
ARC
  5
44FB
  8
0
 10
639.4035738532586493
 20
23.8950845650636694
 30
0.0
 40
0.0300008048999975
 50
268.9851742628960096
 51
359.987792447304912
  0
LINE
  5
44FC
  8
0
 10
639.3612052981964098
 20
23.8658510221164093
 30
0.0
 11
639.4030425052719693
 21
23.8650884659178502
 31
0.0
  0
LINE
  5
44FD
  8
0
 10
639.3294606006236336
 20
23.8647055209622003
 30
0.0
 11
639.3318991295209344
 21
23.8414927186422716
 31
0.0
  0
LINE
  5
44FE
  8
0
 10
639.3318991295209344
 20
23.8414927186422716
 30
0.0
 11
639.331889957411704
 21
23.8646380638943683
 31
0.0
  0
LINE
  5
44FF
  8
0
 10
639.4329583198931459
 20
23.8623403857426908
 30
0.0
 11
639.4335712904342017
 21
23.8437582354677211
 31
0.0
  0
LINE
  5
4500
  8
0
 10
639.4335712904342017
 20
23.8437582354677211
 30
0.0
 11
639.4335720417690254
 21
23.8623294677629012
 31
0.0
  0
ARC
  5
4501
  8
0
 10
639.4035721135586527
 20
23.8437791988636612
 30
0.0
 40
0.0299991842000011
 50
268.8117373455035022
 51
359.9599617709009181
  0
ARC
  5
4502
  8
0
 10
639.3617277865587312
 20
23.8446561692636685
 30
0.0
 40
0.0299959363999988
 50
186.0538218366033902
 51
268.8332964787006745
  0
LINE
  5
4503
  8
0
 10
639.3611170269798549
 20
23.8146664514715702
 30
0.0
 11
639.4029500022049888
 21
23.8137864659083291
 31
0.0
  0
LINE
  5
4504
  8
0
 10
639.4335804181085905
 20
23.8113165534761286
 30
0.0
 11
639.4334419964587823
 21
23.6947997083636608
 31
0.0
  0
ARC
  5
4505
  8
0
 10
639.3938257902219675
 20
23.6948467722935909
 30
0.0
 40
0.0396162341926241
 50
323.6022741988198277
 51
359.9319328239614038
  0
ARC
  5
4506
  8
0
 10
639.4026966696169438
 20
23.6890458032428803
 30
0.0
 40
0.0290397774000307
 50
278.0752006068964874
 51
322.4291126773986207
  0
LINE
  5
4507
  8
0
 10
639.3186076198599039
 20
23.8142246172533483
 30
0.0
 11
639.3315059286586575
 21
23.6905895271636489
 31
0.0
  0
LINE
  5
4508
  8
0
 10
639.3315059286586575
 20
23.6905895271636489
 30
0.0
 11
639.3319538813243526
 21
23.8138302994532687
 31
0.0
  0
ARC
  5
4509
  8
0
 10
639.3686466748531529
 20
23.6939395720672614
 30
0.0
 40
0.0372915248915001
 50
185.1540543096020883
 51
220.437875500783008
  0
ARC
  5
450A
  8
0
 10
639.360892131985338
 20
23.6873310947049589
 30
0.0
 40
0.027103055519773
 50
220.437875500783008
 51
266.0028073557513153
  0
LINE
  5
450B
  8
0
 10
648.2353959275586703
 20
24.8592371703636701
 30
0.0
 11
648.331835452186624
 21
23.9389487709548092
 31
0.0
  0
LINE
  5
450C
  8
0
 10
648.331835452186624
 20
23.9389487709548092
 30
0.0
 11
648.3314804679586132
 21
25.0044708288636599
 31
0.0
  0
ARC
  5
450D
  8
0
 10
648.3619050099251808
 20
23.9439264596168009
 30
0.0
 40
0.030478774368567
 50
189.3994541102615869
 51
268.7116396354750805
  0
LINE
  5
450E
  8
0
 10
648.3612197179866143
 20
23.9134553903548301
 30
0.0
 11
648.4030832767865604
 21
23.9134553903548301
 31
0.0
  0
ARC
  5
450F
  8
0
 10
648.4035656554405023
 20
23.9434624943840113
 30
0.0
 40
0.0300109810133689
 50
269.0790220684610858
 51
0.2690043197883446
  0
LINE
  5
4510
  8
0
 10
648.4335763056866426
 20
23.9436033957548098
 30
0.0
 11
648.4334176356586568
 21
24.9862652081636583
 31
0.0
  0
ARC
  5
4511
  8
0
 10
648.7123773366453179
 20
24.9736048960399906
 30
0.0
 40
0.2792468411237063
 50
158.8672395550048861
 51
177.4014703973458893
  0
ARC
  5
4512
  8
0
 10
649.638880318870747
 20
24.6079575746096708
 30
0.0
 40
1.2752864665776771
 50
153.215854689847589
 51
158.5516498440522923
  0
LINE
  5
4513
  8
0
 10
648.5004186364586758
 20
25.1826405911636613
 30
0.0
 11
648.2807792612587718
 21
25.1837631126636694
 31
0.0
  0
ARC
  5
4514
  8
0
 10
647.580210905181616
 20
24.8544460767895394
 30
0.0
 40
0.7741096380058535
 50
16.5656526887470399
 51
25.1768676662239095
  0
ARC
  5
4515
  8
0
 10
648.0849460345057196
 20
25.0080206014878996
 30
0.0
 40
0.2465599881645391
 50
359.1750728977273184
 51
15.8003434661432607
  0
ARC
  5
4516
  8
0
 10
647.4782733403471866
 20
25.1876460413567287
 30
0.0
 40
0.8025153146410158
 50
352.0202854555499812
 51
359.7227762632559802
  0
ARC
  5
4517
  8
0
 10
648.1744323349071237
 20
25.0900591704847784
 30
0.0
 40
0.0995497798736794
 50
326.4756488078718917
 51
352.0199629454264141
  0
LINE
  5
4518
  8
0
 10
648.2574221252586995
 20
25.0350786887636509
 30
0.0
 11
648.1980101721586607
 21
25.0084965299636686
 31
0.0
  0
ARC
  5
4519
  8
0
 10
648.2337126668753626
 20
24.9287003419406616
 30
0.0
 40
0.0874191040448262
 50
114.1047472994341945
 51
125.8092768824043048
  0
ARC
  5
451A
  8
0
 10
648.195788697764101
 20
24.9813284296703415
 30
0.0
 40
0.0225504848272616
 50
125.9031526842963018
 51
170.9380309032603122
  0
LINE
  5
451B
  8
0
 10
648.1735196752588308
 20
24.9848801901636506
 30
0.0
 11
648.173560481758841
 21
24.916862661163659
 31
0.0
  0
ARC
  5
451C
  8
0
 10
648.1724375001125509
 20
24.8536684081730783
 30
0.0
 40
0.0632042300705915
 50
5.0547381674044001
 51
88.9819432259744474
  0
ARC
  5
451D
  8
0
 10
647.4334922377420298
 20
25.1633814402318698
 30
0.0
 40
1.0671002085901471
 50
353.0253284664051989
 51
1.034137161235247
  0
LINE
  5
451E
  8
0
 10
648.4926958288588139
 20
25.0338028627636611
 30
0.0
 11
648.4728399227587943
 21
25.0067948547636689
 31
0.0
  0
ARC
  5
451F
  8
0
 10
648.5060231530032979
 20
24.9823990124701112
 30
0.0
 40
0.0411859671572331
 50
143.677199563921306
 51
179.0366539871446889
  0
LINE
  5
4520
  8
0
 10
648.4648430072587644
 20
24.9830914625636495
 30
0.0
 11
648.4648658475585989
 21
24.9148806398636502
 31
0.0
  0
ARC
  5
4521
  8
0
 10
648.5254833334070099
 20
24.8447903995645589
 30
0.0
 40
0.0926667220513844
 50
130.8548616674441121
 51
173.3635211077314864
  0
LINE
  5
4522
  8
0
 10
651.2353861310587035
 20
24.8586742933636593
 30
0.0
 11
651.3318256556865435
 21
23.9383858939548197
 31
0.0
  0
LINE
  5
4523
  8
0
 10
651.3318256556865435
 20
23.9383858939548197
 30
0.0
 11
651.3314706714586464
 21
25.0039079518636704
 31
0.0
  0
ARC
  5
4524
  8
0
 10
651.361895213425214
 20
23.9433635826168114
 30
0.0
 40
0.030478774368567
 50
189.3994541102615869
 51
268.7116396354750805
  0
LINE
  5
4525
  8
0
 10
651.3612099214866475
 20
23.9128925133548194
 30
0.0
 11
651.4030734802864799
 21
23.9128925133548194
 31
0.0
  0
ARC
  5
4526
  8
0
 10
651.4035558589406492
 20
23.9428996173840112
 30
0.0
 40
0.0300109810133689
 50
269.0790220684610858
 51
0.2690043197883446
  0
LINE
  5
4527
  8
0
 10
651.4335665091865621
 20
23.9430405187548097
 30
0.0
 11
651.4334078391588037
 21
24.9857023311636688
 31
0.0
  0
ARC
  5
4528
  8
0
 10
651.7123675401453511
 20
24.9730420190399798
 30
0.0
 40
0.2792468411237063
 50
158.8672395550048861
 51
177.4014703973458893
  0
ARC
  5
4529
  8
0
 10
652.6388705223708939
 20
24.60739469760966
 30
0.0
 40
1.2752864665776771
 50
153.215854689847589
 51
158.5516498440522923
  0
LINE
  5
452A
  8
0
 10
651.500408839958709
 20
25.1820777141636682
 30
0.0
 11
651.2807694647586914
 21
25.1832002356636586
 31
0.0
  0
ARC
  5
452B
  8
0
 10
650.5802011086816492
 20
24.8538831997895393
 30
0.0
 40
0.7741096380058535
 50
16.5656526887470399
 51
25.1768676662239095
  0
ARC
  5
452C
  8
0
 10
651.0849362380057528
 20
25.0074577244878995
 30
0.0
 40
0.2465599881645391
 50
359.1750728977273184
 51
15.8003434661432607
  0
ARC
  5
452D
  8
0
 10
650.4782635438469924
 20
25.1870831643567392
 30
0.0
 40
0.8025153146412014
 50
352.0202854555515728
 51
359.7227762632559802
  0
ARC
  5
452E
  8
0
 10
651.1744225384070432
 20
25.0894962934847712
 30
0.0
 40
0.0995497798736794
 50
326.4756488078718917
 51
352.0199629454264141
  0
LINE
  5
452F
  8
0
 10
651.2574123287588463
 20
25.0345158117636615
 30
0.0
 11
651.1980003756586939
 21
25.0079336529636613
 31
0.0
  0
ARC
  5
4530
  8
0
 10
651.2337028703755095
 20
24.9281374649406509
 30
0.0
 40
0.0874191040448262
 50
114.1047472994341945
 51
125.8092768824043048
  0
ARC
  5
4531
  8
0
 10
651.1957789012640205
 20
24.9807655526703485
 30
0.0
 40
0.0225504848272616
 50
125.9031526842963018
 51
170.9380309032603122
  0
LINE
  5
4532
  8
0
 10
651.1735098787587503
 20
24.9843173131636611
 30
0.0
 11
651.1735506852587605
 21
24.9162997841636589
 31
0.0
  0
ARC
  5
4533
  8
0
 10
651.1724277036126978
 20
24.8531055311730817
 30
0.0
 40
0.0632042300705915
 50
5.0547381674044001
 51
88.9819432259744474
  0
ARC
  5
4534
  8
0
 10
650.433482441242063
 20
25.1628185632318697
 30
0.0
 40
1.0671002085901471
 50
353.0253284664051989
 51
1.034137161235247
  0
LINE
  5
4535
  8
0
 10
651.4926860323587334
 20
25.0332399857636609
 30
0.0
 11
651.4728301262587138
 21
25.0062319777636617
 31
0.0
  0
ARC
  5
4536
  8
0
 10
651.5060133565033311
 20
24.9818361354701111
 30
0.0
 40
0.0411859671572331
 50
143.677199563921306
 51
179.0366539871446889
  0
LINE
  5
4537
  8
0
 10
651.4648332107586839
 20
24.9825285855636601
 30
0.0
 11
651.4648560510587458
 21
24.9143177628636607
 31
0.0
  0
ARC
  5
4538
  8
0
 10
651.5254735369070431
 20
24.8442275225645695
 30
0.0
 40
0.0926667220513844
 50
130.8548616674441121
 51
173.3635211077314864
  0
LINE
  5
4539
  8
0
 10
654.2353781755585942
 20
24.8688608824636717
 30
0.0
 11
654.3318177001865479
 21
23.9485724830548108
 31
0.0
  0
LINE
  5
453A
  8
0
 10
654.3318177001865479
 20
23.9485724830548108
 30
0.0
 11
654.3314627159586507
 21
25.0140945409636615
 31
0.0
  0
ARC
  5
453B
  8
0
 10
654.3618872579251047
 20
23.9535501717168096
 30
0.0
 40
0.030478774368567
 50
189.3994541102615869
 51
268.7116396354750805
  0
LINE
  5
453C
  8
0
 10
654.3612019659866519
 20
23.9230791024548211
 30
0.0
 11
654.4030655247864843
 21
23.9230791024548211
 31
0.0
  0
ARC
  5
453D
  8
0
 10
654.4035479034405398
 20
23.9530862064840093
 30
0.0
 40
0.0300109810133689
 50
269.0790220684610858
 51
0.2690043197883446
  0
LINE
  5
453E
  8
0
 10
654.4335585536866802
 20
23.9532271078548185
 30
0.0
 11
654.4333998836585806
 21
24.9958889202636492
 31
0.0
  0
ARC
  5
453F
  8
0
 10
654.7123595846453554
 20
24.9832286081399815
 30
0.0
 40
0.2792468411237063
 50
158.8672395550048861
 51
177.4014703973458893
  0
ARC
  5
4540
  8
0
 10
655.6388625668707846
 20
24.6175812867096688
 30
0.0
 40
1.2752864665776771
 50
153.215854689847589
 51
158.5516498440522923
  0
LINE
  5
4541
  8
0
 10
654.5004008844585996
 20
25.1922643032636699
 30
0.0
 11
654.2807615092588094
 21
25.1933868247636603
 31
0.0
  0
ARC
  5
4542
  8
0
 10
653.5801931531816535
 20
24.8640697888895517
 30
0.0
 40
0.7741096380058535
 50
16.5656526887470399
 51
25.1768676662239095
  0
ARC
  5
4543
  8
0
 10
654.0849282825056434
 20
25.0176443135879012
 30
0.0
 40
0.2465599881645391
 50
359.1750728977273184
 51
15.8003434661432607
  0
ARC
  5
4544
  8
0
 10
653.4782555883471105
 20
25.1972697534567409
 30
0.0
 40
0.8025153146411362
 50
352.0202854555499812
 51
359.7227762632559802
  0
ARC
  5
4545
  8
0
 10
654.1744145829070476
 20
25.0996828825847906
 30
0.0
 40
0.0995497798736794
 50
326.4756488078718917
 51
352.0199629454264141
  0
LINE
  5
4546
  8
0
 10
654.2574043732588507
 20
25.0447024008636596
 30
0.0
 11
654.1979924201585845
 21
25.0181202420636595
 31
0.0
  0
ARC
  5
4547
  8
0
 10
654.2336949148754002
 20
24.938324054040649
 30
0.0
 40
0.0874191040448262
 50
114.1047472994341945
 51
125.8092768824043048
  0
ARC
  5
4548
  8
0
 10
654.1957709457640249
 20
24.9909521417703502
 30
0.0
 40
0.0225504848272616
 50
125.9031526842963018
 51
170.9380309032603122
  0
LINE
  5
4549
  8
0
 10
654.1735019232587547
 20
24.9945039022636593
 30
0.0
 11
654.1735427297586511
 21
24.9264863732636712
 31
0.0
  0
ARC
  5
454A
  8
0
 10
654.1724197481125884
 20
24.8632921202730692
 30
0.0
 40
0.0632042300705915
 50
5.0547381674044001
 51
88.9819432259711789
  0
ARC
  5
454B
  8
0
 10
653.4334744857421811
 20
25.1730051523318714
 30
0.0
 40
1.0671002085901471
 50
353.0253284664051989
 51
1.034137161235247
  0
LINE
  5
454C
  8
0
 10
654.4926780768587378
 20
25.0434265748636591
 30
0.0
 11
654.4728221707587181
 21
25.0164185668636598
 31
0.0
  0
ARC
  5
454D
  8
0
 10
654.5060054010033355
 20
24.9920227245701092
 30
0.0
 40
0.0411859671572331
 50
143.677199563921306
 51
179.0366539871446889
  0
LINE
  5
454E
  8
0
 10
654.4648252552588019
 20
24.9927151746636618
 30
0.0
 11
654.4648480955587502
 21
24.9245043519636589
 31
0.0
  0
ARC
  5
454F
  8
0
 10
654.5254655814070475
 20
24.8544141116645712
 30
0.0
 40
0.0926667220513844
 50
130.8548616674441121
 51
173.3635211077314864
  0
LINE
  5
4550
  8
0
 10
657.2353754773587298
 20
24.8892341922636611
 30
0.0
 11
657.3318653191582825
 21
23.9771385140157101
 31
0.0
  0
LINE
  5
4551
  8
0
 10
657.3318653191582825
 20
23.9771385140157101
 30
0.0
 11
657.3314600177587863
 21
25.0344678507636615
 31
0.0
  0
ARC
  5
4552
  8
0
 10
657.361934876896953
 20
23.9821162026777195
 30
0.0
 40
0.030478774368567
 50
189.3994541102615869
 51
268.7116396354750805
  0
LINE
  5
4553
  8
0
 10
657.3612495849583865
 20
23.9516451334157097
 30
0.0
 11
657.4031131437583326
 21
23.9516451334157097
 31
0.0
  0
ARC
  5
4554
  8
0
 10
657.4035955224123882
 20
23.9816522374449193
 30
0.0
 40
0.0300109810133689
 50
269.0790220684610858
 51
0.2690043197883446
  0
LINE
  5
4555
  8
0
 10
657.4336061726583011
 20
23.9817931388157213
 30
0.0
 11
657.4333971854587162
 21
25.0162622300636599
 31
0.0
  0
ARC
  5
4556
  8
0
 10
657.7123568864452636
 20
25.0036019179399815
 30
0.0
 40
0.2792468411237063
 50
158.8672395550048861
 51
177.4014703973458893
  0
ARC
  5
4557
  8
0
 10
658.6388598686708065
 20
24.6379545965096582
 30
0.0
 40
1.2752864665776771
 50
153.215854689847589
 51
158.5516498440522923
  0
LINE
  5
4558
  8
0
 10
657.5003981862587352
 20
25.2126376130636807
 30
0.0
 11
657.2807588110588313
 21
25.2137601345636604
 31
0.0
  0
ARC
  5
4559
  8
0
 10
656.5801904549815617
 20
24.8844430986895517
 30
0.0
 40
0.7741096380058535
 50
16.5656526887470399
 51
25.1768676662239095
  0
ARC
  5
455A
  8
0
 10
657.0849255843055516
 20
25.0380176233878906
 30
0.0
 40
0.2465599881645391
 50
359.1750728977273184
 51
15.8003434661432607
  0
ARC
  5
455B
  8
0
 10
656.4782528901464502
 20
25.2176430632568191
 30
0.0
 40
0.8025153146418454
 50
352.0202854555515728
 51
359.7227762632510917
  0
ARC
  5
455C
  8
0
 10
657.1744118847069558
 20
25.12005619238478
 30
0.0
 40
0.0995497798736794
 50
326.4756488078718917
 51
352.0199629454264141
  0
LINE
  5
455D
  8
0
 10
657.2574016750586452
 20
25.0650757106636703
 30
0.0
 11
657.1979897219587201
 21
25.0384935518636489
 31
0.0
  0
ARC
  5
455E
  8
0
 10
657.2336922166755357
 20
24.9586973638406384
 30
0.0
 40
0.0874191040448262
 50
114.1047472994341945
 51
125.8092768824043048
  0
ARC
  5
455F
  8
0
 10
657.1957682475640468
 20
25.0113254515703609
 30
0.0
 40
0.0225504848272616
 50
125.9031526842963018
 51
170.9380309032603122
  0
LINE
  5
4560
  8
0
 10
657.1734992250586629
 20
25.01487721206367
 30
0.0
 11
657.1735400315587867
 21
24.9468596830636713
 31
0.0
  0
ARC
  5
4561
  8
0
 10
657.172417049912724
 20
24.88366543007308
 30
0.0
 40
0.0632042300705915
 50
5.0547381674044001
 51
88.9819432259711789
  0
ARC
  5
4562
  8
0
 10
656.4334717875419756
 20
25.1933784621318608
 30
0.0
 40
1.0671002085901471
 50
353.0253284664051989
 51
1.034137161235247
  0
LINE
  5
4563
  8
0
 10
657.492675378658646
 20
25.0637998846636592
 30
0.0
 11
657.47281947255874
 21
25.0367918766636599
 31
0.0
  0
ARC
  5
4564
  8
0
 10
657.5060027028032437
 20
25.0123960343700986
 30
0.0
 40
0.0411859671572331
 50
143.677199563921306
 51
179.0366539871446889
  0
LINE
  5
4565
  8
0
 10
657.4648225570588238
 20
25.0130884844636689
 30
0.0
 11
657.4648453973586584
 21
24.9448776617636696
 31
0.0
  0
ARC
  5
4566
  8
0
 10
657.5254628832069557
 20
24.8747874214645712
 30
0.0
 40
0.0926667220513844
 50
130.8548616674441121
 51
173.3635211077314864
  0
LINE
  5
4567
  8
0
 10
660.2353586838587489
 20
24.918756604863681
 30
0.0
 11
660.3311694358862951
 21
24.0442389052474894
 31
0.0
  0
LINE
  5
4568
  8
0
 10
660.3310790250587843
 20
23.7074950054636595
 30
0.0
 11
660.3314432242588055
 21
25.0639902633636602
 31
0.0
  0
ARC
  5
4569
  8
0
 10
660.3611485827973411
 20
23.7124726941256512
 30
0.0
 40
0.030478774368567
 50
189.3994541102615869
 51
268.7116396354750805
  0
LINE
  5
456A
  8
0
 10
660.3604632908586609
 20
23.6820016248636591
 30
0.0
 11
660.4023268496587207
 21
23.6820016248636591
 31
0.0
  0
ARC
  5
456B
  8
0
 10
660.4028092283127762
 20
23.7120087288928616
 30
0.0
 40
0.0300109810133689
 50
269.0790220684610858
 51
0.2690043197883446
  0
LINE
  5
456C
  8
0
 10
660.4328198785586892
 20
23.7121496302636494
 30
0.0
 11
660.4333803919587353
 21
25.0457846426636586
 31
0.0
  0
ARC
  5
456D
  8
0
 10
660.7123400929452828
 20
25.0331243305399909
 30
0.0
 40
0.2792468411237063
 50
158.8672395550048861
 51
177.4014703973458893
  0
ARC
  5
456E
  8
0
 10
661.6388430751708256
 20
24.6674770091096818
 30
0.0
 40
1.2752864665776771
 50
153.215854689847589
 51
158.5516498440522923
  0
LINE
  5
456F
  8
0
 10
660.5003813927587544
 20
25.2421600256636687
 30
0.0
 11
660.2807420175588504
 21
25.2432825471636804
 31
0.0
  0
ARC
  5
4570
  8
0
 10
659.5801736614815809
 20
24.9139655112895504
 30
0.0
 40
0.7741096380058535
 50
16.5656526887470399
 51
25.1768676662239095
  0
ARC
  5
4571
  8
0
 10
660.0849087908056845
 20
25.0675400359878999
 30
0.0
 40
0.2465599881645391
 50
359.1750728977273184
 51
15.8003434661432607
  0
ARC
  5
4572
  8
0
 10
659.4782360966472652
 20
25.247165475856729
 30
0.0
 40
0.8025153146409024
 50
352.0202854555483896
 51
359.7227762632559802
  0
ARC
  5
4573
  8
0
 10
660.1743950912069749
 20
25.1495786049847894
 30
0.0
 40
0.0995497798736794
 50
326.4756488078718917
 51
352.0199629454264141
  0
LINE
  5
4574
  8
0
 10
660.257384881558778
 20
25.0945981232636512
 30
0.0
 11
660.1979729284587393
 21
25.0680159644636689
 31
0.0
  0
ARC
  5
4575
  8
0
 10
660.2336754231755549
 20
24.9882197764406584
 30
0.0
 40
0.0874191040448262
 50
114.1047472994341945
 51
125.8092768824043048
  0
ARC
  5
4576
  8
0
 10
660.1957514540639522
 20
25.0408478641703489
 30
0.0
 40
0.0225504848272616
 50
125.9031526842963018
 51
170.9380309032603122
  0
LINE
  5
4577
  8
0
 10
660.173482431558682
 20
25.0443996246636615
 30
0.0
 11
660.1735232380588059
 21
24.97638209566367
 31
0.0
  0
ARC
  5
4578
  8
0
 10
660.1724002564126295
 20
24.9131878426730893
 30
0.0
 40
0.0632042300705915
 50
5.0547381674044001
 51
88.9819432259711789
  0
ARC
  5
4579
  8
0
 10
659.7107420355084741
 20
25.2182154086865289
 30
0.0
 40
0.7900023159464542
 50
351.305318808737411
 51
1.736875464294104
  0
LINE
  5
457A
  8
0
 10
660.4916655849588096
 20
25.0987915035636604
 30
0.0
 11
660.4717067037588549
 21
25.07372612136367
 31
0.0
  0
ARC
  5
457B
  8
0
 10
660.4982697276717545
 20
25.0515684307759017
 30
0.0
 40
0.0345912921352646
 50
140.1666419070178904
 51
178.9722542078822869
  0
LINE
  5
457C
  8
0
 10
660.4636840003588532
 20
25.0521888804636497
 30
0.0
 11
660.4635993320587204
 21
25.0132474068636697
 31
0.0
  0
ARC
  5
457D
  8
0
 10
660.456899741838356
 20
24.933736205512119
 30
0.0
 40
0.0670746738110081
 50
91.7710898372270236
 51
110.5198933201319988
  0
LINE
  5
457E
  8
0
 10
648.4663592083586536
 20
23.9079949481636511
 30
0.0
 11
651.3023998186588415
 21
23.9079809836636485
 31
0.0
  0
LINE
  5
457F
  8
0
 10
651.4664867774588402
 20
23.9083831363636712
 30
0.0
 11
654.2869951824586678
 21
23.9215429863636615
 31
0.0
  0
LINE
  5
4580
  8
0
 10
654.4738034450588202
 20
23.9228384819636695
 30
0.0
 11
657.3053700349587416
 21
23.9481097912636614
 31
0.0
  0
LINE
  5
4581
  8
0
 10
657.473924432658805
 20
23.9499712449636704
 30
0.0
 11
659.265816069058701
 21
23.971439297263661
 31
0.0
  0
LINE
  5
4582
  8
0
 10
659.5726403734586256
 20
23.9104609004604391
 30
0.0
 11
657.4740058633587978
 21
23.8799596863636587
 31
0.0
  0
ARC
  5
4583
  8
0
 10
656.6937147645488722
 20
77.5678497057572969
 30
0.0
 40
53.6935600322179027
 50
270.6527812235510737
 51
270.832668954816711
  0
LINE
  5
4584
  8
0
 10
657.3054420128587481
 20
23.8777744710636597
 30
0.0
 11
654.473890500058701
 21
23.8477565102636611
 31
0.0
  0
ARC
  5
4585
  8
0
 10
654.0396462288667863
 20
64.8094004810530606
 30
0.0
 40
40.963945670269247
 50
270.371050147915696
 51
270.6073836300803919
  0
LINE
  5
4586
  8
0
 10
654.304928802658651
 20
23.8463138049636605
 30
0.0
 11
652.3611285322588174
 21
23.8337593621636614
 31
0.0
  0
ARC
  5
4587
  8
0
 10
652.3648461429412464
 20
23.0823993027056389
 30
0.0
 40
0.751369256476427
 50
90.2834881374559046
 51
129.7248846351012048
  0
LINE
  5
4588
  8
0
 10
651.8681324395763568
 20
23.9102571235701085
 30
0.0
 11
651.8802598240588395
 21
23.694145291563661
 31
0.0
  0
ARC
  5
4589
  8
0
 10
652.2548136917682768
 20
23.7140976546265811
 30
0.0
 40
0.3750849191956456
 50
183.0492455335894135
 51
188.2471858489022907
  0
LINE
  5
458A
  8
0
 10
652.0299154798440213
 20
23.7549892301467303
 30
0.0
 11
654.2916863032586434
 21
23.7725718895636504
 31
0.0
  0
ARC
  5
458B
  8
0
 10
654.0188078149310513
 20
58.8746908922960088
 30
0.0
 40
35.1031796444620667
 50
270.4453996284544814
 51
270.7429032083899756
  0
LINE
  5
458C
  8
0
 10
654.4739466453587511
 20
23.7744619785636502
 30
0.0
 11
657.3078567013586735
 21
23.8111250527636606
 31
0.0
  0
ARC
  5
458D
  8
0
 10
656.8859528110131123
 20
56.4226205043830618
 30
0.0
 40
32.6142244807949169
 50
270.7412099145922753
 51
271.0332496797025215
  0
LINE
  5
458E
  8
0
 10
657.4740731016587461
 20
23.8136991329636594
 30
0.0
 11
659.6846665385394317
 21
23.8505839973503697
 31
0.0
  0
ARC
  5
458F
  8
0
 10
659.2761449904256779
 20
23.2209998365863193
 30
0.0
 40
0.7505105400714271
 50
35.8260990153021694
 51
90.7885595913830201
  0
LINE
  5
4590
  8
0
 10
659.7548610557882967
 20
23.7990110817381009
 30
0.0
 11
657.474164360858822
 21
23.75390680286365
 31
0.0
  0
ARC
  5
4591
  8
0
 10
655.8674662430795479
 20
104.9965555805839017
 30
0.0
 40
81.2585346856665751
 50
271.0156756664648015
 51
271.132964320901408
  0
LINE
  5
4592
  8
0
 10
657.3078514619586485
 20
23.7507880004636611
 30
0.0
 11
654.4640181649588158
 21
23.7045133071636513
 31
0.0
  0
ARC
  5
4593
  8
0
 10
653.9834252946318429
 20
53.2395768477502287
 30
0.0
 40
29.5389733716914193
 50
270.6244539080370828
 51
270.9322313864387866
  0
LINE
  5
4594
  8
0
 10
654.3053575965586788
 20
23.7023578275636595
 30
0.0
 11
651.9058246091352657
 21
23.6772564209117213
 31
0.0
  0
LINE
  5
4595
  8
0
 10
653.8871675976413371
 20
23.6602939682636588
 30
0.0
 11
653.8840051620134091
 21
23.6979500786980388
 31
0.0
  0
ARC
  5
4596
  8
0
 10
648.3760464386114108
 20
20.3287738392637216
 30
0.0
 40
3.580360337001617
 50
88.5545897755588243
 51
91.1820076591020552
  0
ARC
  5
4597
  8
0
 10
648.3562224332440564
 20
17.2630411349273487
 30
0.0
 40
6.5674343617539197
 50
89.152730487188208
 51
90.4712120151007753
  0
ARC
  5
4598
  8
0
 10
648.3696434917405895
 20
19.7078030912522983
 30
0.0
 40
4.0450758633730199
 50
88.6686039366854715
 51
90.9177401931149944
  0
ARC
  5
4599
  8
0
 10
648.3411770121341533
 20
15.3296346079543309
 30
0.0
 40
8.3456178443221187
 50
89.0904450484050443
 51
90.3262753078873004
  0
LINE
  5
459A
  8
0
 10
648.4736558662586958
 20
23.6742008972636491
 30
0.0
 11
650.8700117370543694
 21
23.6720446687970707
 31
0.0
  0
LINE
  5
459B
  8
0
 10
648.4533357662586468
 20
23.8297574449636613
 30
0.0
 11
650.4107298973588058
 21
23.8281205571636683
 31
0.0
  0
ARC
  5
459C
  8
0
 10
650.4100783796533278
 20
23.0724050069487916
 30
0.0
 40
0.7557158310581351
 50
51.0708269891382187
 51
89.9506041584815534
  0
LINE
  5
459D
  8
0
 10
650.8664259062551309
 20
23.9079831303739887
 30
0.0
 11
650.8871729964058659
 21
23.6602939682636588
 31
0.0
  0
LINE
  5
459E
  8
0
 10
648.463631451458582
 20
23.7517868948636597
 30
0.0
 11
650.7452517257660247
 21
23.749727120398159
 31
0.0
  0
ARC
  5
459F
  8
0
 10
651.3933002685137126
 20
20.2943474491253788
 30
0.0
 40
3.6147766478336401
 50
88.8398827850162291
 51
91.440963498736906
  0
ARC
  5
45A0
  8
0
 10
654.2925638932650827
 20
36.5879090099979223
 30
0.0
 40
12.6663672477635103
 50
269.9748101700695884
 51
270.8198574676567887
  0
LINE
  5
45A1
  8
0
 10
648.326835819302346
 20
23.9058932977598992
 30
0.0
 11
648.3318451122587476
 21
23.8582330585636591
 31
0.0
  0
LINE
  5
45A2
  8
0
 10
648.3318451122587476
 20
23.8582330585636591
 30
0.0
 11
648.3320809924681498
 21
23.9058568810164509
 31
0.0
  0
ARC
  5
45A3
  8
0
 10
648.3619146699973044
 20
23.8632107472256614
 30
0.0
 40
0.030478774368567
 50
189.3994541102615869
 51
268.7116396354750805
  0
LINE
  5
45A4
  8
0
 10
648.3612293780588516
 20
23.8327396779636587
 30
0.0
 11
648.4030929368587977
 21
23.8327396779636587
 31
0.0
  0
ARC
  5
45A5
  8
0
 10
648.4035753155128532
 20
23.8627467819928683
 30
0.0
 40
0.0300109810133689
 50
269.0790220684610858
 51
0.2690043197883446
  0
LINE
  5
45A6
  8
0
 10
648.4335859657586525
 20
23.8628876833636703
 30
0.0
 11
648.4335842190905623
 21
23.9051602882034189
 31
0.0
  0
LINE
  5
45A7
  8
0
 10
648.3268287010024551
 20
23.8279118132598917
 30
0.0
 11
648.331837993958743
 21
23.7802515740636586
 31
0.0
  0
LINE
  5
45A8
  8
0
 10
648.331837993958743
 20
23.7802515740636586
 30
0.0
 11
648.332073874168259
 21
23.8278753965164292
 31
0.0
  0
ARC
  5
45A9
  8
0
 10
648.3619075516974135
 20
23.7852292627256503
 30
0.0
 40
0.030478774368567
 50
189.3994541102615869
 51
268.7116396354750805
  0
LINE
  5
45AA
  8
0
 10
648.3612222597587333
 20
23.7547581934636689
 30
0.0
 11
648.4030858185587931
 21
23.7547581934636689
 31
0.0
  0
ARC
  5
45AB
  8
0
 10
648.403568197212735
 20
23.7847652974928501
 30
0.0
 40
0.0300109810133689
 50
269.0790220684610858
 51
0.2690043197883446
  0
LINE
  5
45AC
  8
0
 10
648.4335788474586479
 20
23.7849061988636485
 30
0.0
 11
648.4335771007906715
 21
23.8271788037034113
 31
0.0
  0
LINE
  5
45AD
  8
0
 10
648.3268385916023817
 20
23.7503937097599014
 30
0.0
 11
648.3318478845586696
 21
23.7027334705636612
 31
0.0
  0
LINE
  5
45AE
  8
0
 10
648.3318478845586696
 20
23.7027334705636612
 30
0.0
 11
648.3320837647681856
 21
23.7503572930164495
 31
0.0
  0
ARC
  5
45AF
  8
0
 10
648.3619174422973401
 20
23.7077111592256706
 30
0.0
 40
0.030478774368567
 50
189.3994541102615869
 51
268.7116396354750805
  0
LINE
  5
45B0
  8
0
 10
648.3612321503587737
 20
23.6772400899636608
 30
0.0
 11
648.4030957091588334
 21
23.6772400899636608
 31
0.0
  0
ARC
  5
45B1
  8
0
 10
648.4035780878126616
 20
23.7072471939928704
 30
0.0
 40
0.0300109810133689
 50
269.0790220684610858
 51
0.2690043197883446
  0
LINE
  5
45B2
  8
0
 10
648.4335887380588019
 20
23.7073880953636689
 30
0.0
 11
648.4335869913905981
 21
23.749660700203421
 31
0.0
  0
LINE
  5
45B3
  8
0
 10
651.3090678239384488
 20
23.9081425607779892
 30
0.0
 11
651.3315547097588478
 21
23.6857873488636592
 31
0.0
  0
LINE
  5
45B4
  8
0
 10
651.3315547097588478
 20
23.6857873488636592
 30
0.0
 11
651.3326167321800995
 21
23.9086146946595903
 31
0.0
  0
ARC
  5
45B5
  8
0
 10
651.3616242674972909
 20
23.6907650375256509
 30
0.0
 40
0.030478774368567
 50
189.3994541102615869
 51
268.7116396357390045
  0
ARC
  5
45B6
  8
0
 10
651.4032849130128398
 20
23.6903010722928506
 30
0.0
 40
0.0300109810133689
 50
270.9209779315356172
 51
0.2690043197883446
  0
LINE
  5
45B7
  8
0
 10
651.4332955632587527
 20
23.6904419736636491
 30
0.0
 11
651.4332868839987896
 21
23.9089029244647016
 31
0.0
  0
LINE
  5
45B8
  8
0
 10
654.3302285214838321
 20
23.7026393732025298
 30
0.0
 11
654.3318716163688578
 21
23.6870063695161903
 31
0.0
  0
LINE
  5
45B9
  8
0
 10
654.3318716163688578
 20
23.6870063695161903
 30
0.0
 11
654.331949146755619
 21
23.7026596257719717
 31
0.0
  0
ARC
  5
45BA
  8
0
 10
654.3619411741076419
 20
23.6919840581781891
 30
0.0
 40
0.030478774368567
 50
189.3994541102615869
 51
268.7116396354750805
  0
LINE
  5
45BB
  8
0
 10
654.3612558821688481
 20
23.6615129889161899
 30
0.0
 11
654.4031194409690215
 21
23.6615129889161899
 31
0.0
  0
ARC
  5
45BC
  8
0
 10
654.4036018196228497
 20
23.6915200929453889
 30
0.0
 40
0.0300109810133689
 50
269.0790220684610858
 51
0.2690043197883446
  0
LINE
  5
45BD
  8
0
 10
654.4336124698688764
 20
23.6916609943162015
 30
0.0
 11
654.4336119586189398
 21
23.7040341945152484
 31
0.0
  0
LINE
  5
45BE
  8
0
 10
654.3275280367033702
 20
23.7728688174229603
 30
0.0
 11
654.3318678043574437
 21
23.7315786860112716
 31
0.0
  0
LINE
  5
45BF
  8
0
 10
654.3318678043574437
 20
23.7315786860112716
 30
0.0
 11
654.3320725132940652
 21
23.7729090802549585
 31
0.0
  0
ARC
  5
45C0
  8
0
 10
654.3619373620961142
 20
23.7365563746732811
 30
0.0
 40
0.030478774368567
 50
189.3994541102615869
 51
268.7116396354750805
  0
LINE
  5
45C1
  8
0
 10
654.361252070157434
 20
23.706085305411289
 30
0.0
 11
654.4031156289574938
 21
23.706085305411289
 31
0.0
  0
ARC
  5
45C2
  8
0
 10
654.4035980076114356
 20
23.7360924094404915
 30
0.0
 40
0.0300109810133689
 50
269.0790220684610858
 51
0.2690043197883446
  0
LINE
  5
45C3
  8
0
 10
654.4336086578574623
 20
23.7362333108112793
 30
0.0
 11
654.4336070989364771
 21
23.7739620863956311
 31
0.0
  0
LINE
  5
45C4
  8
0
 10
654.3271545588022491
 20
23.8464637719133208
 30
0.0
 11
654.3318647435730782
 21
23.8016493570258696
 31
0.0
  0
LINE
  5
45C5
  8
0
 10
654.3318647435730782
 20
23.8016493570258696
 30
0.0
 11
654.3320868817584142
 21
23.8464986875850187
 31
0.0
  0
ARC
  5
45C6
  8
0
 10
654.3619343013117486
 20
23.806627045687879
 30
0.0
 40
0.030478774368567
 50
189.3994541102615869
 51
268.7116396354750805
  0
LINE
  5
45C7
  8
0
 10
654.3612490093732958
 20
23.7761559764258692
 30
0.0
 11
654.4031125681732419
 21
23.7761559764258692
 31
0.0
  0
ARC
  5
45C8
  8
0
 10
654.4035949468271838
 20
23.8061630804550788
 30
0.0
 40
0.0300109810133689
 50
269.0790220684610858
 51
0.2690043197883446
  0
LINE
  5
45C9
  8
0
 10
654.4336055970732104
 20
23.8063039818258808
 30
0.0
 11
654.4336039011182038
 21
23.8473492356717607
 31
0.0
  0
LINE
  5
45CA
  8
0
 10
654.3269898535753555
 20
23.9215885455349593
 30
0.0
 11
654.3318625953077117
 21
23.8752275044606108
 31
0.0
  0
LINE
  5
45CB
  8
0
 10
654.3318625953077117
 20
23.8752275044606108
 30
0.0
 11
654.3320922947548297
 21
23.9216034412580001
 31
0.0
  0
ARC
  5
45CC
  8
0
 10
654.3619321530462685
 20
23.8802051931226202
 30
0.0
 40
0.030478774368567
 50
189.3994541102615869
 51
268.7116396354750805
  0
LINE
  5
45CD
  8
0
 10
654.361246861107702
 20
23.8497341238606104
 30
0.0
 11
654.4031104199076481
 21
23.8497341238606104
 31
0.0
  0
ARC
  5
45CE
  8
0
 10
654.4035927985617036
 20
23.87974122788982
 30
0.0
 40
0.0300109810133689
 50
269.0790220684610858
 51
0.2690043197883446
  0
LINE
  5
45CF
  8
0
 10
654.4336034488075029
 20
23.8798821292606185
 30
0.0
 11
654.4336016950213661
 21
23.9223270023011487
 31
0.0
  0
LINE
  5
45D0
  8
0
 10
657.3297522260332926
 20
23.7511792261984311
 30
0.0
 11
657.33187741341942
 21
23.7309594187252806
 31
0.0
  0
LINE
  5
45D1
  8
0
 10
657.33187741341942
 20
23.7309594187252806
 30
0.0
 11
657.3319777604262981
 21
23.7512193127264091
 31
0.0
  0
ARC
  5
45D2
  8
0
 10
657.3619469711578631
 20
23.7359371073872687
 30
0.0
 40
0.030478774368567
 50
189.3994541102615869
 51
268.7116396354750805
  0
LINE
  5
45D3
  8
0
 10
657.361261679219524
 20
23.7054660381252909
 30
0.0
 11
657.4031252380193564
 21
23.7054660381252909
 31
0.0
  0
ARC
  5
45D4
  8
0
 10
657.4036076166734119
 20
23.7354731421544791
 30
0.0
 40
0.0300109810133689
 50
269.0790220684610858
 51
0.2690043197883446
  0
LINE
  5
45D5
  8
0
 10
657.4336182669194386
 20
23.7356140435252705
 30
0.0
 11
657.4336175437927068
 21
23.7531150492711305
 31
0.0
  0
LINE
  5
45D6
  8
0
 10
657.3285772737358457
 20
23.8113997043473518
 30
0.0
 11
657.3318734417746327
 21
23.7800387600932588
 31
0.0
  0
LINE
  5
45D7
  8
0
 10
657.3318734417746327
 20
23.7800387600932588
 30
0.0
 11
657.3320290050977519
 21
23.8114467365967499
 31
0.0
  0
ARC
  5
45D8
  8
0
 10
657.3619429995133032
 20
23.7850164487552718
 30
0.0
 40
0.030478774368567
 50
189.3994541102615869
 51
268.7116396354750805
  0
LINE
  5
45D9
  8
0
 10
657.3612577075746231
 20
23.7545453794932797
 30
0.0
 11
657.4031212663745691
 21
23.7545453794932797
 31
0.0
  0
ARC
  5
45DA
  8
0
 10
657.4036036450286247
 20
23.7845524835224715
 30
0.0
 40
0.0300109810133689
 50
269.0790220684610858
 51
0.2690043197883446
  0
LINE
  5
45DB
  8
0
 10
657.4336142952746513
 20
23.7846933848932807
 30
0.0
 11
657.4336131258955902
 21
23.8129945227318096
 31
0.0
  0
LINE
  5
45DC
  8
0
 10
657.3279104829365451
 20
23.8780351714886194
 30
0.0
 11
657.3318699733190442
 21
23.8403631366578601
 31
0.0
  0
LINE
  5
45DD
  8
0
 10
657.3318699733190442
 20
23.8403631366578601
 30
0.0
 11
657.3320568058232993
 21
23.8780843088799308
 31
0.0
  0
ARC
  5
45DE
  8
0
 10
657.3619395310577147
 20
23.8453408253198589
 30
0.0
 40
0.030478774368567
 50
189.3994541102615869
 51
268.7116396354750805
  0
LINE
  5
45DF
  8
0
 10
657.3612542391190345
 20
23.8148697560578597
 30
0.0
 11
657.4031177979190943
 21
23.8148697560578597
 31
0.0
  0
ARC
  5
45E0
  8
0
 10
657.4036001765730362
 20
23.8448768600870693
 30
0.0
 40
0.0300109810133689
 50
269.0790220684610858
 51
0.2690043197883446
  0
LINE
  5
45E1
  8
0
 10
657.4336108268189491
 20
23.8450177614578713
 30
0.0
 11
657.4336094066793521
 21
23.8793877716328105
 31
0.0
  0
LINE
  5
45E2
  8
0
 10
657.3275019638920185
 20
23.9485040393791309
 30
0.0
 11
657.3318673486417083
 21
23.9069701775805612
 31
0.0
  0
LINE
  5
45E3
  8
0
 10
657.3318673486417083
 20
23.9069701775805612
 30
0.0
 11
657.3320734407329837
 21
23.9485798284205806
 31
0.0
  0
ARC
  5
45E4
  8
0
 10
657.3619369063803788
 20
23.9119478662425706
 30
0.0
 40
0.030478774368567
 50
189.3994541102615869
 51
268.7116396354750805
  0
LINE
  5
45E5
  8
0
 10
657.3612516144415849
 20
23.8814767969805786
 30
0.0
 11
657.4031151732416447
 21
23.8814767969805786
 31
0.0
  0
ARC
  5
45E6
  8
0
 10
657.4035975518957002
 20
23.9114839010097811
 30
0.0
 40
0.0300109810133689
 50
269.0790220684610858
 51
0.2690043197883446
  0
LINE
  5
45E7
  8
0
 10
657.4336082021417269
 20
23.9116248023805689
 30
0.0
 11
657.4336066262206941
 21
23.9497650101490791
 31
0.0
  0
ARC
  5
45E8
  8
0
 10
657.5090968232035493
 20
13.1328952677596504
 30
0.0
 40
10.8171331596528209
 50
90.1863001088098031
 51
91.0791561077560345
  0
LINE
  5
45E9
  8
0
 10
654.6811216258406603
 20
23.7080460023034512
 30
0.0
 11
654.6828660103587936
 21
23.687765794263651
 31
0.0
  0
ARC
  5
45EA
  8
0
 10
654.7183222508435847
 20
23.690815532059549
 30
0.0
 40
0.035587159059695
 50
184.9161467203020948
 51
239.0544816740807903
  0
ARC
  5
45EB
  8
0
 10
654.7798961829179234
 20
24.1375368997594109
 30
0.0
 40
0.4776408659869854
 50
272.3389602431195158
 51
297.3326449047376059
  0
LINE
  5
45EC
  8
0
 10
655.3557982881761745
 20
23.6602939682636588
 30
0.0
 11
657.299577975658849
 21
23.7017207435636585
 31
0.0
  0
ARC
  5
45ED
  8
0
 10
655.4083264921680438
 20
112.4408560228353053
 30
0.0
 40
88.7592866256071318
 50
271.2209306020561144
 51
271.3189340152048885
  0
ARC
  5
45EE
  8
0
 10
631.8180720111281516
 20
98.656176153040505
 30
0.0
 40
0.1249215346777934
 50
90.0319764860846163
 51
134.9740060025199
  0
LINE
  5
45EF
  8
0
 10
631.8180022930522455
 20
98.781097668263655
 30
0.0
 11
631.8262409448586823
 21
98.781097668263655
 31
0.0
  0
LINE
  5
45F0
  8
0
 10
665.780160355058797
 20
99.0888039682636759
 30
0.0
 11
659.2938796341586567
 21
98.7488723998636573
 31
0.0
  0
ARC
  5
45F1
  8
0
 10
659.3063167558868827
 20
98.4992063824678752
 30
0.0
 40
0.2499756032878986
 50
92.8518339193787341
 51
136.5033570417701867
  0
LINE
  5
45F2
  8
0
 10
659.1249807782586458
 20
98.6712676083636637
 30
0.0
 11
658.0744267151587792
 21
97.5633916448636427
 31
0.0
  0
LINE
  5
45F3
  8
0
 10
632.0079154991615269
 20
98.9110976682636647
 30
0.0
 11
656.8883095908402083
 21
98.9110976682636647
 31
0.0
  0
ARC
  5
45F4
  8
0
 10
632.0079851400601001
 20
98.7861761528162532
 30
0.0
 40
0.1249215348589993
 50
90.0319410883509192
 51
134.9740059401796941
  0
LINE
  5
45F5
  8
0
 10
656.9765327299586488
 20
98.8745490831636715
 30
0.0
 11
658.1472921698587015
 21
97.7037896433636632
 31
0.0
  0
ARC
  5
45F6
  8
0
 10
656.8882399498495488
 20
98.7861761532805787
 30
0.0
 40
0.1249215343947455
 50
45.0259939716430679
 51
89.968058869309516
  0
ARC
  5
45F7
  8
0
 10
658.0440647822046003
 20
97.6006558785491478
 30
0.0
 40
0.1459193853013136
 50
27.4523953969865318
 51
44.9740057993175526
  0
ARC
  5
45F8
  8
0
 10
658.1651136915500047
 20
97.4773483640684475
 30
0.0
 40
0.125010295003969
 50
136.50513532689979
 51
180.0006595371762899
  0
LINE
  5
45F9
  8
0
 10
658.040103396558834
 20
97.4773469250636566
 30
0.0
 11
658.0396406979634776
 21
97.2318555104848343
 31
0.0
  0
ARC
  5
45FA
  8
0
 10
657.913903899444108
 20
97.2320924973470824
 30
0.0
 40
0.1257370218537775
 50
315.0677095625500215
 51
359.8920098882186949
  0
LINE
  5
45FB
  8
0
 10
658.0029184074587647
 20
97.1432881278636842
 30
0.0
 11
657.5637427962427637
 21
96.7047060730779151
 31
0.0
  0
ARC
  5
45FC
  8
0
 10
657.7400835473229108
 20
96.5281266706769969
 30
0.0
 40
0.2495522908003727
 50
134.9612555099380984
 51
180.0445499313821074
  0
LINE
  5
45FD
  8
0
 10
657.4905313319587776
 20
96.5279326330636565
 30
0.0
 11
657.4905313319587776
 21
27.832193968263649
 31
0.0
  0
ARC
  5
45FE
  8
0
 10
635.1188293091248624
 20
97.4659882012826131
 30
0.0
 40
0.0306776052286878
 50
4.7387984938909868
 51
89.3034685275918463
  0
ARC
  5
45FF
  8
0
 10
628.0934531763825817
 20
97.2472601399987724
 30
0.0
 40
7.059417224577845
 50
0.6687704869782476
 51
1.79610869500448
  0
LINE
  5
4600
  8
0
 10
635.1523895141588127
 20
97.3296575300636846
 30
0.0
 11
635.1560496502587512
 21
97.0341046832636636
 31
0.0
  0
ARC
  5
4601
  8
0
 10
637.7002265348654646
 20
97.0656118528306564
 30
0.0
 40
2.5443719700353249
 50
180.7095165332999045
 51
185.1354085012858945
  0
LINE
  5
4602
  8
0
 10
635.1192022404544559
 20
97.4966635396636576
 30
0.0
 11
635.1258485826588185
 21
97.5183366878636662
 31
0.0
  0
ARC
  5
4603
  8
0
 10
635.204395150125265
 20
97.3227784323582199
 30
0.0
 40
0.2107429584994842
 50
102.6044753017912967
 51
111.8830112890944974
  0
ARC
  5
4604
  8
0
 10
635.2933710516700785
 20
97.4661247827536243
 30
0.0
 40
0.0303859647891173
 50
90.0709225513599137
 51
175.4740042968163038
  0
ARC
  5
4605
  8
0
 10
642.3190287133348875
 20
97.2472601399987724
 30
0.0
 40
7.059417224577845
 50
178.2038913049954942
 51
179.3312295130216967
  0
LINE
  5
4606
  8
0
 10
635.2600923755587701
 20
97.3296575300636846
 30
0.0
 11
635.256432239458718
 21
97.0341046832636636
 31
0.0
  0
ARC
  5
4607
  8
0
 10
632.7122553548520045
 20
97.0656118528306564
 30
0.0
 40
2.5443719700353249
 50
354.8645914987141055
 51
359.2904834666999818
  0
LINE
  5
4608
  8
0
 10
635.2933334389590527
 20
97.4965107242636435
 30
0.0
 11
635.2866333070586506
 21
97.5183366878636662
 31
0.0
  0
ARC
  5
4609
  8
0
 10
635.2080867395920905
 20
97.3227784323582199
 30
0.0
 40
0.2107429584994842
 50
68.1169887109054315
 51
77.3955246982086891
  0
LINE
  5
460A
  8
0
 10
635.2540749542588401
 20
97.5284424271636539
 30
0.0
 11
635.1584069337587835
 21
97.5284424265636716
 31
0.0
  0
LINE
  5
460B
  8
0
 10
635.1660678291588056
 20
96.8378655549636846
 30
0.0
 11
635.2464140605586636
 21
96.8378655549636846
 31
0.0
  0
ARC
  5
460C
  8
0
 10
613.1692329589873225
 20
-1159.6827619915670766
 30
0.0
 40
1257.373929890529098
 50
88.9046134378811814
 51
88.991801109217036
  0
ARC
  5
460D
  8
0
 10
632.6016536118172553
 20
27.7071939684201389
 30
0.0
 40
0.1249999998435153
 50
89.9999999809341773
 51
149.5344550792466123
  0
ARC
  5
460E
  8
0
 10
630.6408132234471395
 20
28.1537575122629384
 30
0.0
 40
0.1244854085328435
 50
180.0074218463660998
 51
225.0074217794320077
  0
LINE
  5
460F
  8
0
 10
630.55280014985874
 20
28.0657216342636495
 30
0.0
 11
631.7189875954586569
 21
26.899534188663651
 31
0.0
  0
ARC
  5
4610
  8
0
 10
634.3171282412363325
 20
29.4976748344412592
 30
0.0
 40
3.674325738211472
 50
225.0
 51
225.6383867515320958
  0
ARC
  5
4611
  8
0
 10
631.7047767575918442
 20
26.8265224606088104
 30
0.0
 40
0.0619070468382871
 50
0.5329522997051451
 51
45.5925230429256132
  0
ARC
  5
4612
  8
0
 10
632.2682960760824926
 20
26.8313627793026583
 30
0.0
 40
0.5016330767515025
 50
180.4870885910976881
 51
185.288695695041099
  0
LINE
  5
4613
  8
0
 10
631.7687984998586899
 20
26.7851251859636506
 30
0.0
 11
631.7718640735588451
 21
26.7820596121636498
 31
0.0
  0
ARC
  5
4614
  8
0
 10
631.6680742672684801
 20
26.7654701001953512
 30
0.0
 40
0.1051072585366636
 50
2.4402631161333672
 51
9.0812032673719258
  0
ARC
  5
4615
  8
0
 10
631.903981142530256
 20
26.7738526140153787
 30
0.0
 40
0.1309532368233747
 50
181.7098016814491928
 51
240.9018269090300919
  0
LINE
  5
4616
  8
0
 10
637.2063717851588081
 20
97.4613886631636461
 30
0.0
 11
638.9509389663586489
 21
97.4613331158636669
 31
0.0
  0
ARC
  5
4617
  8
0
 10
638.9509148960767106
 20
97.4303123499772141
 30
0.0
 40
0.0310207752250099
 50
1.706733300839167
 51
89.9555418682138992
  0
LINE
  5
4618
  8
0
 10
638.9819219094588334
 20
97.4312362637636653
 30
0.0
 11
638.9995955681588384
 21
97.4885721954636608
 31
0.0
  0
ARC
  5
4619
  8
0
 10
638.5657079996527727
 20
97.5363891917520647
 30
0.0
 40
0.4365144754048897
 50
353.7110421783431207
 51
358.9568701935352806
  0
ARC
  5
461A
  8
0
 10
641.5993200377988614
 20
97.3475317233114055
 30
0.0
 40
2.6187362242751151
 50
178.1683019949661002
 51
180.726629722800709
  0
ARC
  5
461B
  8
0
 10
3129.3317049082279482
 20
128.833166987889598
 30
0.0
 40
2490.5503598740469897
 50
180.7251188548667074
 51
180.7588751190700123
  0
ARC
  5
461C
  8
0
 10
642.5911879149896322
 20
95.9288700355047439
 30
0.0
 40
3.5923220995526681
 50
181.304031933195489
 51
184.4779017041132079
  0
ARC
  5
461D
  8
0
 10
639.1490652355280417
 20
97.4303071605138911
 30
0.0
 40
0.031032708322962
 50
91.8552743861478831
 51
178.284337594053909
  0
LINE
  5
461E
  8
0
 10
639.1180464387587108
 20
97.4312362637636653
 30
0.0
 11
639.1003727800587058
 21
97.4885721954636608
 31
0.0
  0
ARC
  5
461F
  8
0
 10
639.5342603485645441
 20
97.5363891917520647
 30
0.0
 40
0.4365144754048897
 50
181.043129806464691
 51
186.2889578216569078
  0
ARC
  5
4620
  8
0
 10
636.5006483104186827
 20
97.3475317233114055
 30
0.0
 40
2.6187362242751151
 50
359.2733702771992057
 51
1.831698005033858
  0
ARC
  5
4621
  8
0
 10
-1851.2317365600099492
 20
128.833166987889598
 30
0.0
 40
2490.5503598740469897
 50
359.2411248809298741
 51
359.2748811451332926
  0
ARC
  5
4622
  8
0
 10
635.508780433227912
 20
95.9288700355047439
 30
0.0
 40
3.5923220995526681
 50
355.5220982958867921
 51
358.6959680668044825
  0
LINE
  5
4623
  8
0
 10
639.0098313056587358
 20
95.6484009574636644
 30
0.0
 11
639.0901370425588084
 21
95.6484009574636644
 31
0.0
  0
LINE
  5
4624
  8
0
 10
639.0021501334588265
 20
97.5284424265636716
 30
0.0
 11
639.0978182147587177
 21
97.5284424265636716
 31
0.0
  0
LINE
  5
4625
  8
0
 10
639.1480605519586788
 20
97.4613236012636719
 30
0.0
 11
641.9518360702586506
 21
97.4610956757636444
 31
0.0
  0
ARC
  5
4626
  8
0
 10
641.9518119999767123
 20
97.4300749098772201
 30
0.0
 40
0.0310207752250099
 50
1.706733300839167
 51
89.9555418682138992
  0
LINE
  5
4627
  8
0
 10
641.9828190133586077
 20
97.4309988236636713
 30
0.0
 11
642.0004926720586127
 21
97.4883347553636526
 31
0.0
  0
ARC
  5
4628
  8
0
 10
641.5666051035528881
 20
97.5361517516520848
 30
0.0
 40
0.4365144754048897
 50
353.7110421783431207
 51
358.9568701935352806
  0
ARC
  5
4629
  8
0
 10
644.6002171416988631
 20
97.347294283211383
 30
0.0
 40
2.6187362242751151
 50
178.1683019949661002
 51
180.726629722800709
  0
ARC
  5
462A
  8
0
 10
3132.3326020121280635
 20
128.8329295477894902
 30
0.0
 40
2490.5503598740469897
 50
180.7251188548667074
 51
180.7588751190700123
  0
ARC
  5
462B
  8
0
 10
645.5920850188895201
 20
95.9286325954047214
 30
0.0
 40
3.5923220995526681
 50
181.304031933195489
 51
184.4779017041132079
  0
ARC
  5
462C
  8
0
 10
642.1500067240913268
 20
97.4300505842984563
 30
0.0
 40
0.0310776511114371
 50
93.4442910398760489
 51
178.2515233548691072
  0
LINE
  5
462D
  8
0
 10
642.1189435426588261
 20
97.4309988236636713
 30
0.0
 11
642.1012698839588211
 21
97.4883347553636526
 31
0.0
  0
ARC
  5
462E
  8
0
 10
642.5351574524645457
 20
97.5361517516520848
 30
0.0
 40
0.4365144754048897
 50
181.043129806464691
 51
186.2889578216569078
  0
ARC
  5
462F
  8
0
 10
639.5015454143185707
 20
97.347294283211383
 30
0.0
 40
2.6187362242751151
 50
359.2733702771992057
 51
1.831698005033858
  0
ARC
  5
4630
  8
0
 10
-1848.2308394561100613
 20
128.8329295477894902
 30
0.0
 40
2490.5503598740469897
 50
359.2411248809298741
 51
359.2748811451332926
  0
ARC
  5
4631
  8
0
 10
638.5096775371280273
 20
95.9286325954047214
 30
0.0
 40
3.5923220995526681
 50
355.5220982958867921
 51
358.6959680668044825
  0
LINE
  5
4632
  8
0
 10
642.0107284095588511
 20
95.6481635173636562
 30
0.0
 11
642.0910341464586963
 21
95.6481635173636562
 31
0.0
  0
LINE
  5
4633
  8
0
 10
642.0030472373587145
 20
97.5282049864636349
 30
0.0
 11
642.098715318658833
 21
97.5282049864636349
 31
0.0
  0
ARC
  5
4634
  8
0
 10
645.3306447490766686
 20
97.429453759977207
 30
0.0
 40
0.0310207752250099
 50
1.706733300839167
 51
89.9555418682138992
  0
LINE
  5
4635
  8
0
 10
645.3616517624586777
 20
97.4303776737636582
 30
0.0
 11
645.3793254211586827
 21
97.4877136054636679
 31
0.0
  0
ARC
  5
4636
  8
0
 10
644.9454378526528444
 20
97.5355306017520718
 30
0.0
 40
0.4365144754048897
 50
353.7110421783431207
 51
358.9568701935352806
  0
ARC
  5
4637
  8
0
 10
647.9790498907989331
 20
97.3466731333113984
 30
0.0
 40
2.6187362242751151
 50
178.1683019949661002
 51
180.726629722800709
  0
ARC
  5
4638
  8
0
 10
3232.5827994131232117
 20
130.0543093372361909
 30
0.0
 40
2587.4294317115900412
 50
180.7250293882574113
 51
180.7581476690704108
  0
ARC
  5
4639
  8
0
 10
648.971273153189486
 20
95.8997473974047381
 30
0.0
 40
3.5923220995526681
 50
181.304031933195489
 51
184.4779017041132079
  0
ARC
  5
463A
  8
0
 10
645.5286920614134942
 20
97.4294929898832578
 30
0.0
 40
0.0309284250959244
 50
90.6431674932258744
 51
178.3608745935102036
  0
LINE
  5
463B
  8
0
 10
645.4977762917587825
 20
97.4303776737636582
 30
0.0
 11
645.4801026330587774
 21
97.4877136054636679
 31
0.0
  0
ARC
  5
463C
  8
0
 10
645.9139902015647294
 20
97.5355306017520718
 30
0.0
 40
0.4365144754048897
 50
181.043129806464691
 51
186.2889578216569078
  0
ARC
  5
463D
  8
0
 10
642.8803781634186407
 20
97.3466731333113984
 30
0.0
 40
2.6187362242751151
 50
359.2733702771992057
 51
1.831698005033858
  0
ARC
  5
463E
  8
0
 10
-1941.7073942161109699
 20
128.8244570376307081
 30
0.0
 40
2587.3981856740801959
 50
359.269079530282113
 51
359.3021980110657978
  0
ARC
  5
463F
  8
0
 10
641.8888656714279932
 20
95.8997473974047381
 30
0.0
 40
3.5923220995526681
 50
355.5220982958867921
 51
358.6959680668044825
  0
LINE
  5
4640
  8
0
 10
645.3899165438587033
 20
95.6192783193636444
 30
0.0
 11
645.4702222807586622
 21
95.6192783193636444
 31
0.0
  0
LINE
  5
4641
  8
0
 10
645.3818799864586708
 20
97.5275838365636645
 30
0.0
 11
645.4775480677587893
 21
97.5275838365636645
 31
0.0
  0
ARC
  5
4642
  8
0
 10
648.0812840649765576
 20
97.4283961350771932
 30
0.0
 40
0.0310207752250099
 50
1.706733300839167
 51
89.9555418682138992
  0
LINE
  5
4643
  8
0
 10
648.112291078358794
 20
97.4293200488636586
 30
0.0
 11
648.1299647370587991
 21
97.4866559805636683
 31
0.0
  0
ARC
  5
4644
  8
0
 10
647.6960771685528471
 20
97.5344729768520438
 30
0.0
 40
0.4365144754048897
 50
353.7110421783431207
 51
358.9568701935352806
  0
ARC
  5
4645
  8
0
 10
650.7296892066988221
 20
97.3456155084113988
 30
0.0
 40
2.6187362242751151
 50
178.1683019949661002
 51
180.726629722800709
  0
ARC
  5
4646
  8
0
 10
3335.0358124971098732
 20
129.6296135721937048
 30
0.0
 40
2687.1189908425658359
 50
180.689096494077603
 51
180.7215946405677869
  0
ARC
  5
4647
  8
0
 10
651.721317818289549
 20
95.8701408523047434
 30
0.0
 40
3.5923220995526681
 50
181.304031933195489
 51
184.4779017041132079
  0
ARC
  5
4648
  8
0
 10
648.2792474148723159
 20
97.4284715647614092
 30
0.0
 40
0.0308434800456836
 50
91.1233685231612185
 51
178.423631455076702
  0
LINE
  5
4649
  8
0
 10
648.2484156076586714
 20
97.4293200488636586
 30
0.0
 11
648.2307419489586664
 21
97.4866559805636683
 31
0.0
  0
ARC
  5
464A
  8
0
 10
648.6646295174645047
 20
97.5344729768520438
 30
0.0
 40
0.4365144754048897
 50
181.043129806464691
 51
186.2889578216569078
  0
ARC
  5
464B
  8
0
 10
645.6310174793186434
 20
97.3456155084113988
 30
0.0
 40
2.6187362242751151
 50
359.2733702771992057
 51
1.831698005033858
  0
ARC
  5
464C
  8
0
 10
-2038.6858625673849019
 20
130.4734196238856896
 30
0.0
 40
2687.1400274585780608
 50
359.2604177312821889
 51
359.2929157505636795
  0
ARC
  5
464D
  8
0
 10
644.6389103365279425
 20
95.8701408523047434
 30
0.0
 40
3.5923220995526681
 50
355.5220982958867921
 51
358.6959680668044825
  0
LINE
  5
464E
  8
0
 10
648.1399612089586526
 20
95.5896717742636639
 30
0.0
 11
648.2202669458588389
 21
95.5896717742636639
 31
0.0
  0
LINE
  5
464F
  8
0
 10
648.1325193023587872
 20
97.5265262116636649
 30
0.0
 11
648.228187383658792
 21
97.5265262116636649
 31
0.0
  0
ARC
  5
4650
  8
0
 10
651.7093111886765655
 20
97.4252191608772051
 30
0.0
 40
0.0310207752250099
 50
1.706733300839167
 51
89.9555418682138992
  0
LINE
  5
4651
  8
0
 10
651.7403182020586883
 20
97.4261430746636847
 30
0.0
 11
651.7579918607586933
 21
97.483479006363666
 31
0.0
  0
ARC
  5
4652
  8
0
 10
651.324104292252855
 20
97.5312960026520699
 30
0.0
 40
0.4365144754048897
 50
353.7110421783431207
 51
358.9568701935352806
  0
ARC
  5
4653
  8
0
 10
654.3577163303989437
 20
97.3424385342113965
 30
0.0
 40
2.6187362242751151
 50
178.1683019949661002
 51
180.726629722800709
  0
ARC
  5
4654
  8
0
 10
3629.2740491152680988
 20
131.773211765042106
 30
0.0
 40
2977.7343063565490411
 50
180.6631501259278139
 51
180.6940217209701132
  0
ARC
  5
4655
  8
0
 10
655.3495842075894871
 20
95.7866579460737881
 30
0.0
 40
3.5923220995526681
 50
181.304031933195489
 51
184.4779017041132079
  0
ARC
  5
4656
  8
0
 10
651.9071767271816498
 20
97.4253367612104739
 30
0.0
 40
0.0307445709130558
 50
85.2103578529788734
 51
178.4971767672238911
  0
LINE
  5
4657
  8
0
 10
651.876442731358793
 20
97.4261430746636847
 30
0.0
 11
651.858769072658788
 21
97.483479006363666
 31
0.0
  0
ARC
  5
4658
  8
0
 10
652.29265664116474
 20
97.5312960026520699
 30
0.0
 40
0.4365144754048897
 50
181.043129806464691
 51
186.2889578216569078
  0
ARC
  5
4659
  8
0
 10
649.2590446030186513
 20
97.3424385342113965
 30
0.0
 40
2.6187362242751151
 50
359.2733702771992057
 51
1.831698005033858
  0
ARC
  5
465A
  8
0
 10
-2325.6572881822407908
 20
131.7732117650695045
 30
0.0
 40
2977.7343063569410333
 50
359.3059782790281815
 51
359.3368498740720725
  0
ARC
  5
465B
  8
0
 10
648.2671767258278805
 20
95.7866579460737881
 30
0.0
 40
3.5923220995526681
 50
355.5220982958867921
 51
358.6959680668044825
  0
LINE
  5
465C
  8
0
 10
651.768227598258818
 20
95.5061888680326945
 30
0.0
 11
651.8485333351587769
 21
95.5061888680326945
 31
0.0
  0
LINE
  5
465D
  8
0
 10
651.7605464260586814
 20
97.5233492374636484
 30
0.0
 11
651.8562145073586862
 21
97.5233492374636484
 31
0.0
  0
ARC
  5
465E
  8
0
 10
654.7086647744766879
 20
97.4200824070772029
 30
0.0
 40
0.0310207752250099
 50
1.706733300839167
 51
89.9555418682138992
  0
LINE
  5
465F
  8
0
 10
654.7396717878585832
 20
97.4210063208636683
 30
0.0
 11
654.7573454465585883
 21
97.4783422525636496
 31
0.0
  0
ARC
  5
4660
  8
0
 10
654.3234578780527499
 20
97.5261592488520677
 30
0.0
 40
0.4365144754048897
 50
353.7110421783431207
 51
358.9568701935352806
  0
ARC
  5
4661
  8
0
 10
657.3570699161989523
 20
97.33730178041138
 30
0.0
 40
2.6187362242751151
 50
178.1683019949661002
 51
180.726629722800709
  0
ARC
  5
4662
  8
0
 10
4105.0339841965969754
 20
134.4031680966020019
 30
0.0
 40
3450.4948868491378562
 50
180.6160453878260057
 51
180.6447242123529975
  0
ARC
  5
4663
  8
0
 10
658.348937793389382
 20
95.6588387216712732
 30
0.0
 40
3.5923220995526681
 50
181.304031933195489
 51
184.4779017041132079
  0
ARC
  5
4664
  8
0
 10
654.910139968734029
 20
97.4159358760688718
 30
0.0
 40
0.0347159302617423
 50
87.8712527837712969
 51
171.6016073130718098
  0
LINE
  5
4665
  8
0
 10
654.875796317158688
 20
97.4210063208636683
 30
0.0
 11
654.858122658458683
 21
97.4783422525636496
 31
0.0
  0
ARC
  5
4666
  8
0
 10
655.2920102269647487
 20
97.5261592488520677
 30
0.0
 40
0.4365144754048897
 50
181.043129806464691
 51
186.2889578216569078
  0
ARC
  5
4667
  8
0
 10
652.2583981888185463
 20
97.33730178041138
 30
0.0
 40
2.6187362242751151
 50
359.2733702771992057
 51
1.831698005033858
  0
ARC
  5
4668
  8
0
 10
-2795.4185160923721014
 20
134.4031680966334079
 30
0.0
 40
3450.4948868499291166
 50
359.3552757876469173
 51
359.3839546121723743
  0
ARC
  5
4669
  8
0
 10
651.2665303116278892
 20
95.6588387216712732
 30
0.0
 40
3.5923220995526681
 50
355.5220982958867921
 51
358.6959680668044825
  0
LINE
  5
466A
  8
0
 10
654.7675811840588267
 20
95.3783696436301938
 30
0.0
 11
654.8478869209587856
 21
95.3783696436301938
 31
0.0
  0
LINE
  5
466B
  8
0
 10
654.75990001185869
 20
97.5182124836636461
 30
0.0
 11
654.8555680931586949
 21
97.5182124836636461
 31
0.0
  0
LINE
  5
466C
  8
0
 10
642.1481396403587496
 20
97.4610720993636477
 30
0.0
 11
645.3306688193588343
 21
97.460474525863674
 31
0.0
  0
LINE
  5
466D
  8
0
 10
645.5283448850588002
 20
97.4604194663636747
 30
0.0
 11
648.0813081352587233
 21
97.4594169009636602
 31
0.0
  0
LINE
  5
466E
  8
0
 10
648.2786427215587537
 20
97.4593091166636754
 30
0.0
 11
651.7093352589588449
 21
97.4562399267636437
 31
0.0
  0
LINE
  5
466F
  8
0
 10
651.9097438280587085
 20
97.4559739711636581
 30
0.0
 11
654.7086888447588535
 21
97.4511031729636557
 31
0.0
  0
LINE
  5
4670
  8
0
 10
654.9114294954588331
 20
97.4506278482636645
 30
0.0
 11
657.8826620837586461
 21
97.440048419663654
 31
0.0
  0
ARC
  5
4671
  8
0
 10
657.8787746626506987
 20
97.3500270046095437
 30
0.0
 40
0.0901053117813632
 50
32.811655735922173
 51
87.5273158417925146
  0
LINE
  5
4672
  8
0
 10
658.0410819632087396
 20
97.4929593929159068
 30
0.0
 11
657.9749168389587339
 21
97.4296918167636505
 31
0.0
  0
ARC
  5
4673
  8
0
 10
658.0326820863667763
 20
97.3692810186182101
 30
0.0
 40
0.0835840196490253
 50
133.7175609315360987
 51
166.643092181138087
  0
ARC
  5
4674
  8
0
 10
658.3394598133113504
 20
97.3127124502875205
 30
0.0
 40
0.3954486932952702
 50
168.9376082253502886
 51
175.3920335609988115
  0
ARC
  5
4675
  8
0
 10
661.6081347412216473
 20
97.0979572009642453
 30
0.0
 40
3.671132107794012
 50
176.1495645029334867
 51
180.3189945295700909
  0
LINE
  5
4676
  8
0
 10
658.1523299790586634
 20
97.3347554554422487
 30
0.0
 11
658.1523299790586634
 21
33.7211558252510599
 31
0.0
  0
LINE
  5
4677
  8
0
 10
658.1523299790586634
 20
32.1812234602302496
 30
0.0
 11
658.1523299790586634
 21
27.8321939682636703
 31
0.0
  0
LINE
  5
4678
  8
0
 10
658.1523299790586634
 20
97.3347554554422487
 30
0.0
 11
658.1850403936446128
 21
97.3674680640699393
 31
0.0
  0
ARC
  5
4679
  8
0
 10
658.0455485481717233
 20
97.4059963571282736
 30
0.0
 40
0.1447149070394309
 50
344.5596011840806909
 51
4.1731221386093544
  0
ARC
  5
467A
  8
0
 10
658.5677821754280785
 20
90.8617505056529779
 30
0.0
 40
6.5468255487898572
 50
89.7432952068164838
 51
93.307862458862914
  0
ARC
  5
467B
  8
0
 10
658.599106280314345
 20
97.3784933391979024
 30
0.0
 40
0.030083042370172
 50
93.797046929094293
 51
179.8112038939331114
  0
LINE
  5
467C
  8
0
 10
658.569023401261461
 20
97.3785924660625568
 30
0.0
 11
658.5747520449587
 21
27.8321939682636703
 31
0.0
  0
LINE
  5
467D
  8
0
 10
658.5971141068587258
 20
97.408510345763645
 30
0.0
 11
659.4282093222587946
 21
97.4513244426636476
 31
0.0
  0
ARC
  5
467E
  8
0
 10
660.0547567500921105
 20
85.2889618752667644
 30
0.0
 40
12.1784902553699794
 50
92.0639349736551225
 51
92.9490008571246165
  0
LINE
  5
467F
  8
0
 10
659.6161524329587564
 20
97.4595514728636658
 30
0.0
 11
659.6121371016588455
 21
97.4543185700636627
 31
0.0
  0
ARC
  5
4680
  8
0
 10
659.6381231317798211
 20
96.9541282654421508
 30
0.0
 40
0.5008648666045661
 50
92.9739730640723252
 51
141.8605903360360116
  0
LINE
  5
4681
  8
0
 10
659.244187694658649
 20
97.2634508898636483
 30
0.0
 11
658.6738032181588096
 21
96.5201103189636598
 31
0.0
  0
ARC
  5
4682
  8
0
 10
659.1224280135827485
 20
96.1866490988575151
 30
0.0
 40
0.5589817460203655
 50
143.376708633399403
 51
171.8332146855204883
  0
LINE
  5
4683
  8
0
 10
658.189879776058774
 20
97.4165273103636764
 30
0.0
 11
665.625733192558755
 21
97.7994151758636718
 31
0.0
  0
ARC
  5
4684
  8
0
 10
665.6170432145294171
 20
97.9625435457241309
 30
0.0
 40
0.1633596669055417
 50
273.0493095115722895
 51
356.8775287801859122
  0
LINE
  5
4685
  8
0
 10
659.425167578975902
 20
97.4074664914156045
 30
0.0
 11
665.6256911159587162
 21
97.7205380633636622
 31
0.0
  0
ARC
  5
4686
  8
0
 10
665.6169766912719297
 20
97.8837130629239454
 30
0.0
 40
0.1634075325042381
 50
273.0569994008009189
 51
357.0005067135489867
  0
ARC
  5
4687
  8
0
 10
665.0406180778389853
 20
96.9373363733577804
 30
0.0
 40
0.7534588945878899
 50
95.4591476824205216
 51
179.8989500615612087
  0
LINE
  5
4688
  8
0
 10
664.2871603550587452
 20
96.9386652135636524
 30
0.0
 11
664.2871603550587452
 21
93.5282218682636568
 31
0.0
  0
ARC
  5
4689
  8
0
 10
662.9021611427042444
 20
93.5282218682636568
 30
0.0
 40
1.384999212354511
 50
326.834102914029927
 51
0.0
  0
ARC
  5
468A
  8
0
 10
664.4800608984535302
 20
92.4970140285446263
 30
0.0
 40
0.4999828161783243
 50
146.8341029140298133
 51
203.4687043052541071
  0
ARC
  5
468B
  8
0
 10
656.083048429337623
 20
88.8518005139390397
 30
0.0
 40
8.6541091641218255
 50
3.2320571352065341
 51
23.4659167225662699
  0
ARC
  5
468C
  8
0
 10
656.0886392721896527
 20
88.8519092930420271
 30
0.0
 40
8.648521083688804
 50
359.9992111302429976
 51
3.2334258862085892
  0
LINE
  5
468D
  8
0
 10
664.7371603550586769
 20
88.8517902169636642
 30
0.0
 11
664.7371603550586769
 21
27.8321939682636703
 31
0.0
  0
LINE
  5
468E
  8
0
 10
664.8844311873508559
 20
97.674429285461315
 30
0.0
 11
663.8202836810925191
 21
97.6179578681667266
 31
0.0
  0
ARC
  5
468F
  8
0
 10
663.8302521387083743
 20
97.4301122318905755
 30
0.0
 40
0.1881099498039268
 50
93.0376819981998011
 51
194.1820108920375105
  0
ARC
  5
4690
  8
0
 10
661.7208127712060559
 20
96.9731195380698381
 30
0.0
 40
1.9703840322979289
 50
0.5074474936215149
 51
12.0368450623456003
  0
ARC
  5
4691
  8
0
 10
658.2718349272620344
 20
96.9442951791815943
 30
0.0
 40
5.4194821655372802
 50
359.7527154520083741
 51
0.4892348782813402
  0
LINE
  5
4692
  8
0
 10
663.691266617858787
 20
96.9209051485636763
 30
0.0
 11
663.691266617858787
 21
93.549423342363653
 31
0.0
  0
ARC
  5
4693
  8
0
 10
662.9015525194399743
 20
93.549423342363653
 30
0.0
 40
0.7897140984186706
 50
302.3087083789802136
 51
0.0
  0
ARC
  5
4694
  8
0
 10
663.4492508100752275
 20
92.6833417892557634
 30
0.0
 40
0.2350154630746979
 50
122.3087083789801994
 51
207.3658478067744966
  0
ARC
  5
4695
  8
0
 10
656.1037100946678038
 20
88.8813282954588573
 30
0.0
 40
8.0361558571628748
 50
13.7626592182131091
 51
27.3658478067745712
  0
ARC
  5
4696
  8
0
 10
662.8729009191379191
 20
89.2125387905441585
 30
0.0
 40
1.8899948610099959
 50
15.5745333291545602
 51
68.0066371179194391
  0
ARC
  5
4697
  8
0
 10
664.0526498668174327
 20
91.974381029711779
 30
0.0
 40
1.114269946919231
 50
226.7364620128668946
 51
244.9411746921788051
  0
LINE
  5
4698
  8
0
 10
663.2889793065899084
 20
91.1629595670618045
 30
0.0
 11
663.3242531706489444
 21
91.0515100080285436
 31
0.0
  0
ARC
  5
4699
  8
0
 10
664.0517413281581867
 20
91.7593282458470725
 30
0.0
 40
1.015010185714782
 50
224.2148485929251933
 51
244.7341059882722902
  0
ARC
  5
469A
  8
0
 10
662.8070811796413864
 20
88.9575983473298351
 30
0.0
 40
2.0511456390349299
 50
42.2401869006416391
 51
66.6965798445271645
  0
ARC
  5
469B
  8
0
 10
663.1819418190854094
 20
89.2997456312983644
 30
0.0
 40
1.543619290865627
 50
7.2243323966080126
 51
42.1916852245430221
  0
ARC
  5
469C
  8
0
 10
666.4882247513894526
 20
93.3261829833207059
 30
0.0
 40
3.8967747315258272
 50
215.7134777607232081
 51
220.3113216614108865
  0
ARC
  5
469D
  8
0
 10
661.0287596104981276
 20
88.9793616492861901
 30
0.0
 40
3.0860846202363739
 50
357.6152026570197222
 51
36.2732197168498232
  0
LINE
  5
469E
  8
0
 10
664.1121713915588316
 20
88.8509479752636508
 30
0.0
 11
664.1121713915588316
 21
65.6935600882804778
 31
0.0
  0
LINE
  5
469F
  8
0
 10
664.1121713915588316
 20
65.2362224300385805
 30
0.0
 11
664.1121713915588316
 21
60.057602899303042
 31
0.0
  0
LINE
  5
46A0
  8
0
 10
664.1121713915588316
 20
59.9953716881390804
 30
0.0
 11
664.1121713915588316
 21
50.3158141064769495
 31
0.0
  0
LINE
  5
46A1
  8
0
 10
664.1121713915588316
 20
48.9880701489885411
 30
0.0
 11
664.1121713915588316
 21
44.8770357612264021
 31
0.0
  0
LINE
  5
46A2
  8
0
 10
664.1121713915588316
 20
43.5492918037380079
 30
0.0
 11
664.1121713915588316
 21
28.2703020097646203
 31
0.0
  0
ARC
  5
46A3
  8
0
 10
660.8055531708578201
 20
28.2757755864286011
 30
0.0
 40
3.3066227510124788
 50
353.3283620269912717
 51
359.9051561038011755
  0
ARC
  5
46A4
  8
0
 10
664.1196991989218077
 20
27.8915307708844189
 30
0.0
 40
0.0299149157656121
 50
179.8383788482267107
 51
269.7592684990801786
  0
LINE
  5
46A5
  8
0
 10
664.1195735100587854
 20
27.86161611916366
 30
0.0
 11
664.6821496966587119
 21
27.8616333094636595
 31
0.0
  0
ARC
  5
46A6
  8
0
 10
664.6795134346208442
 20
27.8556870360907496
 30
0.0
 40
0.0065044634334852
 50
319.9991499438738742
 51
66.0900429654939501
  0
LINE
  5
46A7
  8
0
 10
664.684496080658846
 20
27.8515059736636594
 30
0.0
 11
664.6793399127062685
 21
27.8321939682636703
 31
0.0
  0
LINE
  5
46A8
  8
0
 10
664.1195735100587854
 20
27.86161611916366
 30
0.0
 11
663.8129791768586756
 21
27.8476691223636585
 31
0.0
  0
ARC
  5
46A9
  8
0
 10
663.9316349746363812
 20
25.2392799672200994
 30
0.0
 40
2.6110865904861891
 50
92.6045932451319516
 51
96.7637509109856069
  0
ARC
  5
46AA
  8
0
 10
665.630160355058706
 20
26.1571939682636589
 30
0.0
 40
0.1500000000000052
 50
269.999999997502016
 51
0.0
  0
LINE
  5
46AB
  8
0
 10
665.630160355058706
 20
26.0071939682636497
 30
0.0
 11
665.3905846289586634
 21
26.0071939682636497
 31
0.0
  0
ARC
  5
46AC
  8
0
 10
665.3905846289586634
 20
26.1571940622215102
 30
0.0
 40
0.1500000939578499
 50
186.0000323148117047
 51
270.0
  0
LINE
  5
46AD
  8
0
 10
665.2414062600587386
 20
26.1415146987636611
 30
0.0
 11
665.2255692307586514
 21
26.2921939682636605
 31
0.0
  0
ARC
  5
46AE
  8
0
 10
665.7201603546518527
 20
26.3521939685341096
 30
0.0
 40
0.0600000004789604
 50
269.9952234484600808
 51
0.0
  0
LINE
  5
46AF
  8
0
 10
665.7201553526588214
 20
26.2921939682636605
 30
0.0
 11
651.4796566626587264
 21
26.2921939682636605
 31
0.0
  0
LINE
  5
46B0
  8
0
 10
651.4796566626587264
 20
26.2921939682636605
 30
0.0
 11
651.3872806194588065
 21
26.1321939680636603
 31
0.0
  0
ARC
  5
46B1
  8
0
 10
651.170774268842365
 20
26.2571939678924586
 30
0.0
 40
0.2499999996288045
 50
269.9999999349860218
 51
329.999999996188194
  0
LINE
  5
46B2
  8
0
 10
651.1707742686587608
 20
26.0071939682636497
 30
0.0
 11
650.5062074415587858
 21
26.0071939682636497
 31
0.0
  0
ARC
  5
46B3
  8
0
 10
650.5062074415587858
 20
26.2571939682636497
 30
0.0
 40
0.25
 50
210.0000000000011937
 51
270.0
  0
LINE
  5
46B4
  8
0
 10
650.2897010906588093
 20
26.1321939682636497
 30
0.0
 11
650.1973250475587065
 21
26.2921939682636499
 31
0.0
  0
LINE
  5
46B5
  8
0
 10
650.1973250475587065
 20
26.2921939682636499
 30
0.0
 11
641.4796566626587264
 21
26.2921939682636605
 31
0.0
  0
LINE
  5
46B6
  8
0
 10
641.4796566626587264
 20
26.2921939682636605
 30
0.0
 11
641.3872806194586929
 21
26.1321939680636603
 31
0.0
  0
ARC
  5
46B7
  8
0
 10
641.1707742688424787
 20
26.2571939678924586
 30
0.0
 40
0.2499999996288103
 50
269.9999999349893187
 51
329.999999996188194
  0
LINE
  5
46B8
  8
0
 10
641.1707742686586471
 20
26.0071939682636497
 30
0.0
 11
640.5062074415587858
 21
26.0071939682636497
 31
0.0
  0
ARC
  5
46B9
  8
0
 10
640.5062074415587858
 20
26.2571939682636497
 30
0.0
 40
0.25
 50
210.0000000000011937
 51
270.0
  0
LINE
  5
46BA
  8
0
 10
640.2897010906586956
 20
26.1321939682636497
 30
0.0
 11
640.1973250475585928
 21
26.2921939682636605
 31
0.0
  0
LINE
  5
46BB
  8
0
 10
640.1973250475585928
 20
26.2921939682636605
 30
0.0
 11
636.5222536602587979
 21
26.2921939682636605
 31
0.0
  0
ARC
  5
46BC
  8
0
 10
636.5222536602587979
 20
26.1444673498627189
 30
0.0
 40
0.147726618400938
 50
90.0
 51
160.7384951456427871
  0
ARC
  5
46BD
  8
0
 10
635.9907396680797547
 20
26.3302000959313283
 30
0.0
 40
0.4153042660487963
 50
269.3350212309554195
 51
340.7384951456429008
  0
ARC
  5
46BE
  8
0
 10
637.4929290106616691
 20
155.7557529170098007
 30
0.0
 40
129.8495744415425861
 50
269.1394778901063773
 51
269.3350212309554195
  0
ARC
  5
46BF
  8
0
 10
635.5490424907853821
 20
26.3365111738638511
 30
0.0
 40
0.4157348625013135
 50
204.5645540697219076
 51
269.1394778901063773
  0
ARC
  5
46C0
  8
0
 10
635.0120919914540991
 20
26.1162187898566884
 30
0.0
 40
0.1657821154156706
 50
16.6367191331974489
 51
92.3595278941010633
  0
LINE
  5
46C1
  8
0
 10
657.4513618496587242
 20
23.7050855082636502
 30
0.0
 11
659.5062343575586965
 21
23.7527978853636483
 31
0.0
  0
ARC
  5
46C2
  8
0
 10
659.5236286255427558
 20
23.0036629892656315
 30
0.0
 40
0.7493368088586752
 50
61.1971635235861413
 51
91.3301197215204041
  0
LINE
  5
46C3
  8
0
 10
657.3317963054025768
 20
23.7024132476532792
 30
0.0
 11
657.33187741341942
 21
23.7016415564150797
 31
0.0
  0
LINE
  5
46C4
  8
0
 10
657.33187741341942
 20
23.7016415564150797
 30
0.0
 11
657.3318812447158734
 21
23.702415088814881
 31
0.0
  0
ARC
  5
46C5
  8
0
 10
657.3619469711578631
 20
23.7066192450770785
 30
0.0
 40
0.030478774368567
 50
189.3994541102615869
 51
268.7116396354750805
  0
LINE
  5
46C6
  8
0
 10
657.361261679219524
 20
23.67614817581509
 30
0.0
 11
657.4031252380193564
 21
23.67614817581509
 31
0.0
  0
ARC
  5
46C7
  8
0
 10
657.4036076166734119
 20
23.7061552798442783
 30
0.0
 40
0.0300109810133689
 50
269.0790220684610858
 51
357.1783721094888051
  0
LINE
  5
46C8
  8
0
 10
657.2924047939586671
 20
23.6729087010636583
 30
0.0
 11
656.7999883435843458
 21
23.6602939682636588
 31
0.0
  0
ARC
  5
46C9
  8
0
 10
657.1682418192983732
 20
32.122492279457461
 30
0.0
 40
8.4504957897474231
 50
270.841876096779572
 51
272.0761587259975158
  0
LINE
  5
46CA
  8
0
 10
657.4743853352588303
 20
23.6775437751636595
 30
0.0
 11
659.6882862401366765
 21
23.7346852345268502
 31
0.0
  0
LINE
  5
46CB
  8
0
 10
639.4648894879586578
 20
24.9778938843636702
 30
0.0
 11
642.1735861239587848
 21
24.9495030093636707
 31
0.0
  0
LINE
  5
46CC
  8
0
 10
642.4648914897587701
 20
24.9475209880636584
 30
0.0
 11
645.1735713764587672
 21
24.928139978063669
 31
0.0
  0
LINE
  5
46CD
  8
0
 10
645.4648767422587525
 20
24.9261579567636602
 30
0.0
 11
648.173560481758841
 21
24.916862661163659
 31
0.0
  0
LINE
  5
46CE
  8
0
 10
648.4648658475585989
 20
24.9148806398636502
 30
0.0
 11
651.1735506852587605
 21
24.9162997841636589
 31
0.0
  0
LINE
  5
46CF
  8
0
 10
651.4648560510587458
 20
24.9143177628636607
 30
0.0
 11
654.1735427297586511
 21
24.9264863732636712
 31
0.0
  0
LINE
  5
46D0
  8
0
 10
654.4648480955587502
 20
24.9245043519636589
 30
0.0
 11
657.1735400315587867
 21
24.9468596830636713
 31
0.0
  0
LINE
  5
46D1
  8
0
 10
657.4648453973586584
 20
24.9448776617636696
 30
0.0
 11
660.1735232380588059
 21
24.97638209566367
 31
0.0
  0
LINE
  5
46D2
  8
0
 10
660.4548267033586626
 20
25.0007788365636507
 30
0.0
 11
663.0762840571587731
 21
25.0307377842636498
 31
0.0
  0
ARC
  5
46D3
  8
0
 10
660.4483108753554461
 20
25.0146836440429894
 30
0.0
 40
0.0153557704335351
 50
295.1079073294226873
 51
354.6332368480490231
  0
ARC
  5
46D4
  8
0
 10
663.0437267265992887
 20
26.7436795057709702
 30
0.0
 40
1.713251096907163
 50
271.0888712857029077
 51
293.5000325045164118
  0
ARC
  5
46D5
  8
0
 10
666.7428168694412989
 20
18.8921168988425983
 30
0.0
 40
6.9670209240414263
 50
115.6509089959050982
 51
119.4412642297763938
  0
LINE
  5
46D6
  8
0
 10
663.3183096092245705
 20
24.9594170052123907
 30
0.0
 11
662.0078652989587908
 21
24.241343731063651
 31
0.0
  0
ARC
  5
46D7
  8
0
 10
661.0472744564273171
 20
26.0002756444107384
 30
0.0
 40
2.004139776199767
 50
280.3174781766368255
 51
298.6399104345823048
  0
ARC
  5
46D8
  8
0
 10
661.5375209026982475
 20
23.2888130411244987
 30
0.0
 40
0.7512912703533907
 50
100.0650524511982979
 51
150.3660756917321919
  0
ARC
  5
46D9
  8
0
 10
662.9815952473583138
 20
26.8443684082564396
 30
0.0
 40
1.8812091059768501
 50
283.3997429596824986
 51
293.2602672097888785
  0
ARC
  5
46DA
  8
0
 10
665.2746749527980228
 20
21.7737426001129784
 30
0.0
 40
3.6843108763324142
 50
114.8819548712738055
 51
118.6590323722128062
  0
LINE
  5
46DB
  8
0
 10
663.5076934653790204
 20
25.0066860045943891
 30
0.0
 11
662.0077529438588044
 21
24.1807365008636594
 31
0.0
  0
ARC
  5
46DC
  8
0
 10
661.0474292257482603
 20
25.924703234985671
 30
0.0
 40
1.9908896537201051
 50
273.1668472888467818
 51
298.8395914662143014
  0
ARC
  5
46DD
  8
0
 10
662.972895711236788
 20
26.7945455883535608
 30
0.0
 40
1.8853336354338459
 50
284.1947690158602882
 51
293.4565386707612902
  0
ARC
  5
46DE
  8
0
 10
665.4267147177691868
 20
21.4321577241570509
 30
0.0
 40
4.0123619074680832
 50
115.1207233394355001
 51
118.5431078806481935
  0
LINE
  5
46DF
  8
0
 10
663.5095286545588351
 20
24.9568485865636482
 30
0.0
 11
662.0069604203588369
 21
24.1257196960636584
 31
0.0
  0
ARC
  5
46E0
  8
0
 10
661.0397600757439704
 20
25.8742866518472887
 30
0.0
 40
1.998239951928015
 50
270.8436669844268749
 51
298.9486865824342772
  0
ARC
  5
46E1
  8
0
 10
662.9902196023165288
 20
26.6742541520529102
 30
0.0
 40
1.8070600064583631
 50
285.0537092376895885
 51
293.9197350653062131
  0
ARC
  5
46E2
  8
0
 10
665.5274835669006279
 20
21.2140360713992813
 30
0.0
 40
4.2142737679672964
 50
115.3537994763948973
 51
118.6026617113115975
  0
LINE
  5
46E3
  8
0
 10
663.5099731405861121
 20
24.9140029727497989
 30
0.0
 11
662.0057478828956619
 21
24.0785038741379509
 31
0.0
  0
ARC
  5
46E4
  8
0
 10
661.0350273034756583
 20
25.8261807012576803
 30
0.0
 40
1.9991680107886649
 50
269.3814772018229178
 51
299.0493180978162968
  0
ARC
  5
46E5
  8
0
 10
662.9426181125387529
 20
26.7595183424687484
 30
0.0
 40
1.9336830248285299
 50
286.6859327134004047
 51
293.802874892813918
  0
ARC
  5
46E6
  8
0
 10
665.2121574884467918
 20
21.7935490977031812
 30
0.0
 40
3.5265846985260212
 50
114.9771068876835045
 51
118.8633635513997007
  0
LINE
  5
46E7
  8
0
 10
663.5097957446085957
 20
24.8820380695136585
 30
0.0
 11
661.9956759509586846
 21
24.0382594744636613
 31
0.0
  0
ARC
  5
46E8
  8
0
 10
661.0452287234171536
 20
25.7437909592425989
 30
0.0
 40
1.9524824142392549
 50
275.9735200348089847
 51
299.1297583741629751
  0
ARC
  5
46E9
  8
0
 10
661.328726416847303
 20
23.0577396942836685
 30
0.0
 40
0.7484910527310272
 50
96.159084331035217
 51
126.3872961243692004
  0
ARC
  5
46EA
  8
0
 10
662.9862900051607539
 20
26.6064495823148306
 30
0.0
 40
1.791502888947031
 50
288.6962441089003732
 51
294.2874347967465951
  0
ARC
  5
46EB
  8
0
 10
665.0499911534650437
 20
22.0954227426152983
 30
0.0
 40
3.1692023065233319
 50
114.7502523029643982
 51
119.0810520687503953
  0
LINE
  5
46EC
  8
0
 10
663.509611800358698
 20
24.8650932479636602
 30
0.0
 11
662.0036474615587849
 21
24.0239987100636512
 31
0.0
  0
ARC
  5
46ED
  8
0
 10
661.0282167838595342
 20
25.7704894425493585
 30
0.0
 40
2.0004236765384071
 50
272.1507930850984849
 51
299.1837486289527988
  0
ARC
  5
46EE
  8
0
 10
663.0295848125588236
 20
26.4849941547636689
 30
0.0
 40
1.664967703800019
 50
292.4715991045197825
 51
349.1788368810990164
  0
ARC
  5
46EF
  8
0
 10
664.810938009929373
 20
26.1434286151716293
 30
0.0
 40
0.1488400699885662
 50
91.8155377398792751
 51
168.7734004852281942
  0
ARC
  5
46F0
  8
0
 10
660.8869703930761261
 20
24.9333158509552
 30
0.0
 40
0.0774003693878584
 50
111.3689279599995956
 51
181.8045592850816945
  0
LINE
  5
46F1
  8
0
 10
660.8096084098051506
 20
24.9308784905481495
 30
0.0
 11
660.8822120731598488
 21
23.6602939682636588
 31
0.0
  0
ARC
  5
46F2
  8
0
 10
659.7234342492819223
 20
24.9230570200346513
 30
0.0
 40
0.059307570921513
 50
0.3866635924433277
 51
54.8410232244226492
  0
LINE
  5
46F3
  8
0
 10
659.7827404696872691
 20
24.9234572572695896
 30
0.0
 11
659.8871713537374717
 21
23.6602939682636588
 31
0.0
  0
LINE
  5
46F4
  8
0
 10
644.5902277015586606
 20
35.0339333971636719
 30
0.0
 11
643.6385494758587811
 21
35.981787628763648
 31
0.0
  0
LINE
  5
46F5
  8
0
 10
643.6385494758587811
 20
35.981787628763648
 30
0.0
 11
643.3368326609054293
 21
36.2644243230431869
 31
0.0
  0
LINE
  5
46F6
  8
0
 10
644.510980933458768
 20
34.9546665259636598
 30
0.0
 11
643.5669052456606778
 21
35.909253236337662
 31
0.0
  0
LINE
  5
46F7
  8
0
 10
643.5669052456606778
 20
35.909253236337662
 30
0.0
 11
643.2805646264705501
 21
36.2074571718927771
 31
0.0
  0
LINE
  5
46F8
  8
0
 10
643.3368326609054293
 20
36.2644243230431869
 30
0.0
 11
643.2805646264705501
 21
36.2074571718927771
 31
0.0
  0
LINE
  5
46F9
  8
0
 10
644.6326648336587368
 20
35.0339333971636719
 30
0.0
 11
645.5843430593586163
 21
35.981787628763648
 31
0.0
  0
LINE
  5
46FA
  8
0
 10
645.5843430593586163
 20
35.981787628763648
 30
0.0
 11
645.8860598743121955
 21
36.2644243230431869
 31
0.0
  0
LINE
  5
46FB
  8
0
 10
644.7119116017586293
 20
34.9546665259636598
 30
0.0
 11
645.6559872895564922
 21
35.909253236337662
 31
0.0
  0
LINE
  5
46FC
  8
0
 10
645.6559872895564922
 20
35.909253236337662
 30
0.0
 11
645.9423279087468472
 21
36.2074571718927771
 31
0.0
  0
LINE
  5
46FD
  8
0
 10
645.8860598743121955
 20
36.2644243230431869
 30
0.0
 11
645.9423279087468472
 21
36.2074571718927771
 31
0.0
  0
ARC
  5
46FE
  8
0
 10
644.6114462676086987
 20
35.0551716856610369
 30
0.0
 40
0.0300215329974018
 50
225.0266155590082064
 51
314.9733844409882977
  0
LINE
  5
46FF
  8
0
 10
644.5902277015586606
 20
34.8447139934446213
 30
0.0
 11
643.6385494758587811
 21
33.896859761844631
 31
0.0
  0
LINE
  5
4700
  8
0
 10
643.6385494758587811
 20
33.896859761844631
 30
0.0
 11
643.3368326609054293
 21
33.6142230675650922
 31
0.0
  0
LINE
  5
4701
  8
0
 10
644.510992823258789
 20
34.9122538199636523
 30
0.0
 11
643.5669052456606778
 21
33.969394154270617
 31
0.0
  0
LINE
  5
4702
  8
0
 10
643.5669052456606778
 20
33.969394154270617
 30
0.0
 11
643.2805646264705501
 21
33.6711902187155019
 31
0.0
  0
LINE
  5
4703
  8
0
 10
643.3368326609054293
 20
33.6142230675650922
 30
0.0
 11
643.2805646264705501
 21
33.6711902187155019
 31
0.0
  0
LINE
  5
4704
  8
0
 10
644.6326648336587368
 20
34.8447139934446213
 30
0.0
 11
645.5843430593586163
 21
33.896859761844631
 31
0.0
  0
LINE
  5
4705
  8
0
 10
645.5843430593586163
 20
33.896859761844631
 30
0.0
 11
645.8860598743121955
 21
33.6142230675650922
 31
0.0
  0
LINE
  5
4706
  8
0
 10
644.7118891246587964
 20
34.9122538927636583
 30
0.0
 11
645.6559872895564922
 21
33.969394154270617
 31
0.0
  0
LINE
  5
4707
  8
0
 10
645.6559872895564922
 20
33.969394154270617
 30
0.0
 11
645.9423279087468472
 21
33.6711902187155019
 31
0.0
  0
LINE
  5
4708
  8
0
 10
645.8860598743121955
 20
33.6142230675650922
 30
0.0
 11
645.9423279087468472
 21
33.6711902187155019
 31
0.0
  0
ARC
  5
4709
  8
0
 10
644.6114462676086987
 20
34.8234757049472421
 30
0.0
 40
0.0300215329974018
 50
45.0266155590117023
 51
134.9733844409917083
  0
ARC
  5
470A
  8
0
 10
644.4897762987128544
 20
34.93345422687878
 30
0.0
 40
0.0299933020384013
 50
315.0217713100429933
 51
45.0103528058458124
  0
ARC
  5
470B
  8
0
 10
644.7330850873330519
 20
34.9334489822569125
 30
0.0
 40
0.0299750004556466
 50
134.94045098284289
 51
224.9988198078316088
  0
LINE
  5
470C
  8
0
 10
644.5554048538588177
 20
89.0157079456636637
 30
0.0
 11
644.5554076837587445
 21
86.7518717455636619
 31
0.0
  0
ARC
  5
470D
  8
0
 10
660.6470156752678804
 20
86.7518918608182048
 30
0.0
 40
16.0916079915216486
 50
180.0000716223752875
 51
182.5438129522057125
  0
ARC
  5
470E
  8
0
 10
659.208519146220965
 20
89.0314603604113444
 30
0.0
 40
14.6531227594531597
 50
177.3345970896905897
 51
180.0615941783084111
  0
LINE
  5
470F
  8
0
 10
644.6674686375379224
 20
89.0157079456636637
 30
0.0
 11
644.6674658076377682
 21
86.7518717455636619
 31
0.0
  0
ARC
  5
4710
  8
0
 10
628.575857816128746
 20
86.7518918608182048
 30
0.0
 40
16.0916079915216486
 50
357.4561870477941738
 51
359.9999283776245989
  0
ARC
  5
4711
  8
0
 10
630.014354345175434
 20
89.0314603604113444
 30
0.0
 40
14.6531227594531597
 50
359.9384058216915037
 51
2.6654029103093348
  0
LINE
  5
4712
  8
0
 10
644.5712647628192826
 20
86.0376927613296658
 30
0.0
 11
644.6516087285773438
 21
86.0376927613296232
 31
0.0
  0
LINE
  5
4713
  8
0
 10
644.5712490538543307
 20
89.7128786216201064
 30
0.0
 11
644.651624437542182
 21
89.7128786216201064
 31
0.0
  0
ARC
  5
4714
  8
0
 10
644.4479436350641208
 20
27.9495652853787711
 30
0.0
 40
3.4806108137277012
 50
175.4633530758144104
 51
178.6992041702667109
  0
LINE
  5
4715
  8
0
 10
640.968229795269508
 20
28.0285793966547487
 30
0.0
 11
640.968201717358852
 21
27.8321939682636703
 31
0.0
  0
LINE
  5
4716
  8
0
 10
640.9782377607585886
 20
28.2248701753636517
 30
0.0
 11
641.0585888609587073
 21
28.2248701753636517
 31
0.0
  0
ARC
  5
4717
  8
0
 10
637.5888829866535161
 20
27.9495652853787711
 30
0.0
 40
3.4806108137277012
 50
1.3007958297332689
 51
4.5366469241855532
  0
LINE
  5
4718
  8
0
 10
641.0685968264480152
 20
28.0285793966547487
 30
0.0
 11
641.0686249043586713
 21
27.8321939682636703
 31
0.0
  0
ARC
  5
4719
  8
0
 10
649.4480596995454107
 20
27.9495652853787711
 30
0.0
 40
3.4806108137277012
 50
175.4633530758144104
 51
178.6992041702667109
  0
LINE
  5
471A
  8
0
 10
645.9683458597510253
 20
28.0285793966547487
 30
0.0
 11
645.9683177818401418
 21
27.8321939682636703
 31
0.0
  0
LINE
  5
471B
  8
0
 10
645.9783538252402195
 20
28.2248701753636517
 30
0.0
 11
646.0587049254402245
 21
28.2248701753636517
 31
0.0
  0
ARC
  5
471C
  8
0
 10
642.5889990511349197
 20
27.9495652853787711
 30
0.0
 40
3.4806108137277012
 50
1.3007958297332689
 51
4.5366469241855532
  0
LINE
  5
471D
  8
0
 10
646.0687128909293051
 20
28.0285793966547487
 30
0.0
 11
646.0687409688401885
 21
27.8321939682636703
 31
0.0
  0
ARC
  5
471E
  8
0
 10
654.4480349445966567
 20
27.9495652853787711
 30
0.0
 40
3.4806108137277012
 50
175.4633530758144104
 51
178.6992041702667109
  0
LINE
  5
471F
  8
0
 10
650.9683211048020439
 20
28.0285793966547487
 30
0.0
 11
650.9682930268913879
 21
27.8321939682636703
 31
0.0
  0
LINE
  5
4720
  8
0
 10
650.9783290702912382
 20
28.2248701753636517
 30
0.0
 11
651.0586801704912432
 21
28.2248701753636517
 31
0.0
  0
ARC
  5
4721
  8
0
 10
647.588974296186052
 20
27.9495652853787711
 30
0.0
 40
3.4806108137277012
 50
1.3007958297332689
 51
4.5366469241855532
  0
LINE
  5
4722
  8
0
 10
651.0686881359805511
 20
28.0285793966547487
 30
0.0
 11
651.0687162138913209
 21
27.8321939682636703
 31
0.0
  0
ARC
  5
4723
  8
0
 10
659.4479014556570746
 20
27.9495652853787711
 30
0.0
 40
3.4806108137277012
 50
175.4633530758144104
 51
178.6992041702667109
  0
LINE
  5
4724
  8
0
 10
655.9681876158625755
 20
28.0285793966547487
 30
0.0
 11
655.9681595379519194
 21
27.8321939682636703
 31
0.0
  0
LINE
  5
4725
  8
0
 10
655.9781955813518834
 20
28.2248701753636517
 30
0.0
 11
656.0585466815518885
 21
28.2248701753636517
 31
0.0
  0
ARC
  5
4726
  8
0
 10
652.5888408072466973
 20
27.9495652853787711
 30
0.0
 40
3.4806108137277012
 50
1.3007958297332689
 51
4.5366469241855532
  0
LINE
  5
4727
  8
0
 10
656.068554647040969
 20
28.0285793966547487
 30
0.0
 11
656.0685827249518525
 21
27.8321939682636703
 31
0.0
  0
LINE
  5
4728
  8
0
 10
649.9314360069270151
 20
26.2921939682636499
 30
0.0
 11
649.9334768444587098
 21
25.4276314329636506
 31
0.0
  0
ARC
  5
4729
  8
0
 10
649.6739907000675203
 20
25.4270189046145383
 30
0.0
 40
0.2594868673401808
 50
332.1293693794330011
 51
0.1352489325898413
  0
LINE
  5
472A
  8
0
 10
649.8281403217990828
 20
26.2921939682636499
 30
0.0
 11
649.8316114127587753
 21
25.41976934626366
 31
0.0
  0
ARC
  5
472B
  8
0
 10
650.0705702381679885
 20
25.4207200849265611
 30
0.0
 40
0.2389607167401801
 50
180.2279598808661945
 51
208.7746366182608995
  0
LINE
  5
472C
  8
0
 10
649.8611164255587482
 20
25.3056925902636607
 30
0.0
 11
649.9033784845587434
 21
25.3057148294636711
 31
0.0
  0
ARC
  5
472D
  8
0
 10
632.1282922267189406
 20
54.156685591444969
 30
0.0
 40
0.0300363936453368
 50
91.1928970280562083
 51
179.6137848173956115
  0
ARC
  5
472E
  8
0
 10
632.306504407028342
 20
153.9422015646090927
 30
0.0
 40
99.755646395330885
 50
269.8972826162249135
 51
270.2148312525339975
  0
LINE
  5
472F
  8
0
 10
632.6805385929587828
 20
54.187256393063663
 30
0.0
 11
635.2062409448587914
 21
54.187256446263639
 31
0.0
  0
LINE
  5
4730
  8
0
 10
635.2062409448587914
 20
54.187256446263639
 30
0.0
 11
637.2064091452585899
 21
54.1760814986636632
 31
0.0
  0
LINE
  5
4731
  8
0
 10
637.2064091452585899
 20
54.1760814986636632
 30
0.0
 11
642.9558487675587912
 21
54.1760580696636467
 31
0.0
  0
ARC
  5
4732
  8
0
 10
642.9558486453257728
 20
54.1460622888611809
 30
0.0
 40
0.0299957808027291
 50
0.0352281148437477
 51
89.9997665193634475
  0
LINE
  5
4733
  8
0
 10
642.9858444204587613
 20
54.1460807316636377
 30
0.0
 11
642.9959680989586559
 21
52.9393919226636598
 31
0.0
  0
ARC
  5
4734
  8
0
 10
648.0154565548310757
 20
52.981503598004231
 30
0.0
 40
5.0196651035537361
 50
180.4806793917846051
 51
183.6675951047342892
  0
ARC
  5
4735
  8
0
 10
632.1282603825383148
 20
54.3423282698792178
 30
0.0
 40
0.0300038671593786
 50
180.004179812220201
 51
268.8665828220912886
  0
ARC
  5
4736
  8
0
 10
632.6467622076908128
 20
85.9199900381195079
 30
0.0
 40
31.6119220511854593
 50
269.0591110633890253
 51
270.061218823964623
  0
LINE
  5
4737
  8
0
 10
632.6805385929587828
 20
54.3080860314636382
 30
0.0
 11
635.2062409449588358
 21
54.3080860314636382
 31
0.0
  0
LINE
  5
4738
  8
0
 10
635.2062409449588358
 20
54.3080860314636382
 30
0.0
 11
642.9568159826360443
 21
54.2969101082641288
 31
0.0
  0
ARC
  5
4739
  8
0
 10
642.9558513168586842
 20
54.3268885594636473
 30
0.0
 40
0.0299939679999937
 50
271.8430642684919007
 51
0.0023560787089123
  0
LINE
  5
473A
  8
0
 10
642.9858476163586829
 20
54.3268950362636502
 30
0.0
 11
642.985843811658583
 21
66.2480707283636434
 31
0.0
  0
ARC
  5
473B
  8
0
 10
642.9558617432079473
 20
66.2480707187947502
 30
0.0
 40
0.0299820684508161
 50
0.0000182862210367
 51
90.024681826475927
  0
LINE
  5
473C
  8
0
 10
642.9558488275588388
 20
66.2780527844636538
 30
0.0
 11
632.6805385929587828
 21
66.2890995623636599
 31
0.0
  0
ARC
  5
473D
  8
0
 10
632.5357306538352304
 20
-68.4059683024836005
 30
0.0
 40
134.6951457048658085
 50
89.9384024917414564
 51
90.1735798749333952
  0
ARC
  5
473E
  8
0
 10
632.1300415917384043
 20
66.2544826153434627
 30
0.0
 40
0.034159305720309
 50
93.9863093055692786
 51
158.5121683323042134
  0
ARC
  5
473F
  8
0
 10
632.1292896198735889
 20
66.4457358286392576
 30
0.0
 40
0.0316040737866854
 50
190.9075828730150874
 51
267.0568181233809923
  0
LINE
  5
4740
  8
0
 10
632.1276668889086068
 20
66.4141734424156169
 30
0.0
 11
632.6805385929587828
 21
66.4099292008636439
 31
0.0
  0
LINE
  5
4741
  8
0
 10
632.6805385929587828
 20
66.4099292008636439
 30
0.0
 11
642.9566239314960967
 21
66.3988933828681098
 31
0.0
  0
ARC
  5
4742
  8
0
 10
642.9558493438587448
 20
66.428872675263662
 30
0.0
 40
0.0299892974000001
 50
271.4800459629670968
 51
0.0016072025996795
  0
LINE
  5
4743
  8
0
 10
642.9858435734588511
 20
66.4288832243636449
 30
0.0
 11
642.9858437697587306
 21
78.4528062246636608
 31
0.0
  0
LINE
  5
4744
  8
0
 10
642.9858437697587306
 20
78.4528062246636608
 30
0.0
 11
642.9960635482586895
 21
79.6364001776636456
 31
0.0
  0
ARC
  5
4745
  8
0
 10
648.1250810960900708
 20
79.5921135174212822
 30
0.0
 40
5.1292087415348124
 50
176.3883044275455063
 51
179.505290118411807
  0
ARC
  5
4746
  8
0
 10
643.1366404816411659
 20
54.1460624768065273
 30
0.0
 40
0.0299953275374379
 50
90.0237655655247835
 51
179.9651303580070874
  0
LINE
  5
4747
  8
0
 10
643.1066451596587967
 20
54.1460807316636377
 30
0.0
 11
643.0965214811586748
 21
52.9393919226636598
 31
0.0
  0
ARC
  5
4748
  8
0
 10
638.0770330252864824
 20
52.981503598004231
 30
0.0
 40
5.0196651035537361
 50
356.3324048952657108
 51
359.5193206082154234
  0
ARC
  5
4749
  8
0
 10
643.1366666553435607
 20
54.3269000522130696
 30
0.0
 40
0.0300223618123969
 50
180.0195793356747913
 51
268.1033214487915188
  0
LINE
  5
474A
  8
0
 10
643.1066419637587614
 20
54.3268950362636502
 30
0.0
 11
643.1066457684587476
 21
66.2480707283636434
 31
0.0
  0
ARC
  5
474B
  8
0
 10
643.1366328145076068
 20
66.2480686563766739
 30
0.0
 40
0.0299870461204316
 50
90.0027058134334936
 51
179.9960410868908127
  0
ARC
  5
474C
  8
0
 10
643.1366402362586996
 20
66.428872675263662
 30
0.0
 40
0.0299892974000001
 50
179.9983927974002995
 51
269.1819812308480095
  0
LINE
  5
474D
  8
0
 10
643.1066460066588206
 20
66.4288832243636449
 30
0.0
 11
643.1066458103587138
 21
78.4528062246636608
 31
0.0
  0
LINE
  5
474E
  8
0
 10
643.1066458103587138
 20
78.4528062246636608
 30
0.0
 11
643.0964260318587549
 21
79.6364001776636456
 31
0.0
  0
ARC
  5
474F
  8
0
 10
637.9674084840272599
 20
79.5921135174212822
 30
0.0
 40
5.1292087415348124
 50
0.4947098815881758
 51
3.6116955724544408
  0
LINE
  5
4750
  8
0
 10
643.0060719445585846
 20
52.6604061389636584
 30
0.0
 11
643.086417635558746
 21
52.6604061389636584
 31
0.0
  0
LINE
  5
4751
  8
0
 10
643.0060595250588449
 20
79.915224132463635
 30
0.0
 11
643.0864300550588268
 21
79.915224132463635
 31
0.0
  0
LINE
  5
4752
  8
0
 10
642.9858964635511711
 20
78.4589089062525744
 30
0.0
 11
637.2962407873586699
 21
78.4589056862636625
 31
0.0
  0
ARC
  5
4753
  8
0
 10
637.2962408552673423
 20
78.3389125450280659
 30
0.0
 40
0.119993141235598
 50
90.0000324258243865
 51
180.0136935499365052
  0
LINE
  5
4754
  8
0
 10
637.1762477174587502
 20
78.3388838669636556
 30
0.0
 11
637.1762454960971809
 21
66.4051011168696306
 31
0.0
  0
LINE
  5
4755
  8
0
 10
637.1762454736049222
 20
66.2842663189598085
 30
0.0
 11
637.176243243822455
 21
54.3052453913449682
 31
0.0
  0
LINE
  5
4756
  8
0
 10
642.9858437688781123
 20
78.3988625847515408
 30
0.0
 11
637.2962408900586979
 21
78.398859017063657
 31
0.0
  0
ARC
  5
4757
  8
0
 10
637.2962409276866538
 20
78.338851440872503
 30
0.0
 40
0.0600075761911392
 50
90.0000359275424273
 51
179.9690354525359055
  0
LINE
  5
4758
  8
0
 10
637.2362333602587796
 20
78.3388838709636701
 30
0.0
 11
637.2362333602587796
 21
66.4050366939761858
 31
0.0
  0
LINE
  5
4759
  8
0
 10
637.2362333602587796
 20
66.284201827197947
 30
0.0
 11
637.2362333602587796
 21
54.3051588887395695
 31
0.0
  0
LINE
  5
475A
  8
0
 10
643.1362120899805177
 20
66.3988864342636447
 30
0.0
 11
657.4905313319587776
 21
66.3988864342636447
 31
0.0
  0
LINE
  5
475B
  8
0
 10
643.1366313983587588
 20
66.2780557024636465
 30
0.0
 11
657.4905313319587776
 21
66.2780557024636465
 31
0.0
  0
LINE
  5
475C
  8
0
 10
649.9670830943585997
 20
78.4921940391636639
 30
0.0
 11
649.9670830943585997
 21
66.3988864342636447
 31
0.0
  0
LINE
  5
475D
  8
0
 10
649.9670830943585997
 20
66.2780557024636465
 30
0.0
 11
649.9670830943585997
 21
60.1051890667199729
 31
0.0
  0
LINE
  5
475E
  8
0
 10
649.9670830943585997
 20
60.0451907118044588
 30
0.0
 11
649.9670830943585997
 21
54.2968941385636725
 31
0.0
  0
LINE
  5
475F
  8
0
 10
649.9670830943585997
 20
54.1760578017636618
 30
0.0
 11
649.9670830943585997
 21
27.8321939682636703
 31
0.0
  0
LINE
  5
4760
  8
0
 10
650.0270827762586805
 20
78.4921939604636663
 30
0.0
 11
650.0270827762586805
 21
66.3988864342636447
 31
0.0
  0
LINE
  5
4761
  8
0
 10
650.0270827762586805
 20
66.2780557024636465
 30
0.0
 11
650.0270827762586805
 21
60.1051889676692923
 31
0.0
  0
LINE
  5
4762
  8
0
 10
650.0270827762586805
 20
60.0451906112585831
 30
0.0
 11
650.0270827762586805
 21
54.296894138563637
 31
0.0
  0
LINE
  5
4763
  8
0
 10
650.0270827762586805
 20
54.1760578017636618
 30
0.0
 11
650.0270827762586805
 21
27.8321939682636703
 31
0.0
  0
LINE
  5
4764
  8
0
 10
650.1020833794588043
 20
78.4921939549636534
 30
0.0
 11
650.1020833794588043
 21
66.3988864342636447
 31
0.0
  0
LINE
  5
4765
  8
0
 10
650.1020833794588043
 20
66.2780557024636465
 30
0.0
 11
650.1020833794588043
 21
60.1051888438543216
 31
0.0
  0
LINE
  5
4766
  8
0
 10
650.1020833794588043
 20
60.0451904855745369
 30
0.0
 11
650.1020833794588043
 21
54.296894138563637
 31
0.0
  0
LINE
  5
4767
  8
0
 10
650.1020833794588043
 20
54.1760578017636618
 30
0.0
 11
650.1020833794588043
 21
27.8321939682636703
 31
0.0
  0
LINE
  5
4768
  8
0
 10
650.1620829831588253
 20
78.4921940260636433
 30
0.0
 11
650.1620829831588253
 21
66.3988864342636447
 31
0.0
  0
LINE
  5
4769
  8
0
 10
650.1620829831588253
 20
66.2780557024636465
 30
0.0
 11
650.1620829831588253
 21
60.1051887448037903
 31
0.0
  0
LINE
  5
476A
  8
0
 10
650.1620829831588253
 20
60.0451903850287607
 30
0.0
 11
650.1620829831588253
 21
54.296894138563637
 31
0.0
  0
LINE
  5
476B
  8
0
 10
650.1620829831588253
 20
54.1760578017636618
 30
0.0
 11
650.1620829831588253
 21
27.8321939682636703
 31
0.0
  0
ARC
  5
476C
  8
0
 10
650.0645830385908539
 20
78.489694077234148
 30
0.0
 40
0.0975319892901957
 50
1.468771498531767
 51
178.5312208032611068
  0
ARC
  5
476D
  8
0
 10
650.0645830777827996
 20
78.4911569474310653
 30
0.0
 40
0.0375146372822293
 50
1.5840143663222399
 51
178.4159772303628984
  0
LINE
  5
476E
  8
0
 10
643.1066438079324143
 20
60.1052003922976397
 30
0.0
 11
649.9670830943585997
 21
60.1051890667199729
 31
0.0
  0
LINE
  5
476F
  8
0
 10
650.0270827762586805
 20
60.1051889676692923
 30
0.0
 11
650.1020833794588043
 21
60.1051888438543216
 31
0.0
  0
LINE
  5
4770
  8
0
 10
650.1620829831588253
 20
60.1051887448037903
 30
0.0
 11
655.0466726418586632
 21
60.1051806810636577
 31
0.0
  0
ARC
  5
4771
  8
0
 10
655.0466724437320636
 20
59.9851659845614975
 30
0.0
 40
0.1200146965023193
 50
359.9930786113329191
 51
89.9999054130843348
  0
LINE
  5
4772
  8
0
 10
655.1666871393588281
 20
59.9851514866636677
 30
0.0
 11
655.1666871393588281
 21
54.2968941385636725
 31
0.0
  0
LINE
  5
4773
  8
0
 10
643.1066437887835718
 20
60.0452022083488117
 30
0.0
 11
649.9670830943585997
 21
60.0451907118044588
 31
0.0
  0
LINE
  5
4774
  8
0
 10
650.0270827762586805
 20
60.0451906112585831
 30
0.0
 11
650.1020833794588043
 21
60.0451904855745369
 31
0.0
  0
LINE
  5
4775
  8
0
 10
650.1620829831588253
 20
60.0451903850287607
 30
0.0
 11
655.0465519851586578
 21
60.0451821997636586
 31
0.0
  0
ARC
  5
4776
  8
0
 10
655.046551884536143
 20
59.985136736434832
 30
0.0
 40
0.0600454633289286
 50
0.1287102061600091
 51
89.9999039852353349
  0
LINE
  5
4777
  8
0
 10
655.1065971963587344
 20
59.9852716234636389
 30
0.0
 11
655.1065971963587344
 21
54.2968941385636725
 31
0.0
  0
LINE
  5
4778
  8
0
 10
643.1366280399588504
 20
54.1760578017636618
 30
0.0
 11
657.4905313319587776
 21
54.1760578017636618
 31
0.0
  0
LINE
  5
4779
  8
0
 10
643.1356729980295768
 20
54.2968941385636725
 30
0.0
 11
657.4905313319587776
 21
54.2968941385636725
 31
0.0
  0
ARC
  5
477A
  8
0
 10
660.7118190206515465
 20
80.2181309053711828
 30
0.0
 40
2.1443754703084581
 50
183.0324661622350106
 51
217.8783777314588974
  0
ARC
  5
477B
  8
0
 10
657.4671322872452492
 20
77.6397362941674913
 30
0.0
 40
2.0002705382235471
 50
0.0006013236987601
 51
39.1093357519550011
  0
LINE
  5
477C
  8
0
 10
659.4674028253587039
 20
77.639757287163647
 30
0.0
 11
659.4674028253587039
 21
74.3507111232636504
 31
0.0
  0
ARC
  5
477D
  8
0
 10
657.467067867423566
 20
74.3507111232636504
 30
0.0
 40
2.0003349579352072
 50
320.6593373180792241
 51
0.0
  0
ARC
  5
477E
  8
0
 10
660.5725135297059296
 20
71.8262670952274362
 30
0.0
 40
2.0017737879112918
 50
141.1245678033183992
 51
178.8759506586353893
  0
ARC
  5
477F
  8
0
 10
663.4840569254464526
 20
77.3584935195253394
 30
0.0
 40
0.6752099664656991
 50
275.6002109614353799
 51
338.4739102921728886
  0
ARC
  5
4780
  8
0
 10
662.2933511815703014
 20
96.7784845639777558
 30
0.0
 40
20.13123510575425
 50
269.361887159763512
 51
273.5787446654807127
  0
ARC
  5
4781
  8
0
 10
660.0854325048530882
 20
154.9476084362829056
 30
0.0
 40
78.3242353384207917
 50
269.5478939620205097
 51
271.4512856952720199
  0
ARC
  5
4782
  8
0
 10
663.4828129447723768
 20
74.7742321620654167
 30
0.0
 40
0.6738748062327659
 50
20.9424812732794585
 51
86.0594514652805174
  0
ARC
  5
4783
  8
0
 10
663.387265575984884
 20
60.4191466940562378
 30
0.0
 40
15.0280367061931006
 50
89.4591492345405186
 51
94.8870255148546846
  0
ARC
  5
4784
  8
0
 10
661.0491012338382006
 20
96.7229410252465556
 30
0.0
 40
21.3566083083510208
 50
268.7902893296572984
 51
272.8393265209822971
  0
ARC
  5
4785
  8
0
 10
660.4348106018952649
 20
-148.9011421958059884
 30
0.0
 40
224.2722944135686873
 50
89.9582522490004663
 51
90.2471484705639426
  0
ARC
  5
4786
  8
0
 10
670.160964792376376
 20
75.3565551381345671
 30
0.0
 40
6.6324523696975417
 50
179.2228496067604055
 51
190.9595331104879961
  0
ARC
  5
4787
  8
0
 10
663.4550626753283495
 20
74.0387593807351436
 30
0.0
 40
0.2025594492394806
 50
266.516991536313185
 51
16.3032746526878611
  0
ARC
  5
4788
  8
0
 10
663.7250417432999257
 20
76.8759605564041379
 30
0.0
 40
3.0524670297040251
 50
242.951450209610698
 51
264.6938377069677131
  0
ARC
  5
4789
  8
0
 10
670.3611996880651986
 20
89.9403357340055294
 30
0.0
 40
17.7056690347532886
 50
239.2864684010530993
 51
243.0506619699536088
  0
ARC
  5
478A
  8
0
 10
658.5752723098955812
 20
69.8051208904888938
 30
0.0
 40
5.626860902381039
 50
60.8267123130882794
 51
80.8773423427467435
  0
ARC
  5
478B
  8
0
 10
662.7122099414854119
 20
81.8126638585268182
 30
0.0
 40
2.0256376667716198
 50
325.6944002793612754
 51
358.5074550730936949
  0
ARC
  5
478C
  8
0
 10
664.4218502873097805
 20
80.6485784463533264
 30
0.0
 40
0.0427314754449347
 50
148.3502547594526959
 51
180.6538693272410967
  0
LINE
  5
478D
  8
0
 10
664.379121594458752
 20
80.6480907979636754
 30
0.0
 11
664.379121594458752
 21
74.4841128642636505
 31
0.0
  0
ARC
  5
478E
  8
0
 10
664.4225539264358531
 20
74.4841128642636505
 30
0.0
 40
0.0434323319772361
 50
180.0000000000032117
 51
211.5333189228209108
  0
ARC
  5
478F
  8
0
 10
662.7841804236901453
 20
73.3445286092781288
 30
0.0
 40
1.952366167278335
 50
10.98207465967198
 51
34.8939582727821076
  0
ARC
  5
4790
  8
0
 10
662.7034860064430859
 20
73.3332991263336709
 30
0.0
 40
2.0337267008189932
 50
0.4111116167076684
 51
10.8595622496327593
  0
ARC
  5
4791
  8
0
 10
575.8015001936576027
 20
84.7826696816529619
 30
0.0
 40
88.9355559459631593
 50
355.3647620528154221
 51
357.7470269248767067
  0
ARC
  5
4792
  8
0
 10
664.7957413236247248
 20
77.5672729278449538
 30
0.0
 40
0.3507078610390348
 50
175.3647620528153936
 51
184.6280268594115057
  0
ARC
  5
4793
  8
0
 10
576.4146149012358364
 20
70.3819319322291079
 30
0.0
 40
88.3220198328134956
 50
2.5274841156887731
 51
4.6479745980418237
  0
LINE
  5
4794
  8
0
 10
664.379121594458752
 20
78.1012238556851202
 30
0.0
 11
664.4225337795248834
 21
77.5882220463476102
 31
0.0
  0
ARC
  5
4795
  8
0
 10
664.1882107442218057
 20
77.5683927303711727
 30
0.0
 40
0.2351605550378795
 50
354.493459733091413
 51
4.8370646847490004
  0
LINE
  5
4796
  8
0
 10
664.4222860923628105
 20
77.545826870351803
 30
0.0
 11
664.379121594458752
 21
77.034164492219503
 31
0.0
  0
LINE
  5
4797
  8
0
 10
664.379121594458752
 20
78.3359103942973292
 30
0.0
 11
664.4339276801741789
 21
77.6875407742336819
 31
0.0
  0
ARC
  5
4798
  8
0
 10
575.6212237488035726
 20
84.9130530460609663
 30
0.0
 40
89.1061412428549602
 50
355.3488458495133955
 51
357.6285698218368907
  0
LINE
  5
4799
  8
0
 10
664.379121594458752
 20
76.804182101767779
 30
0.0
 11
664.434041299352657
 21
77.4485594742363759
 31
0.0
  0
ARC
  5
479A
  8
0
 10
576.2156314236035541
 20
70.2501238444661595
 30
0.0
 40
88.5116111960551137
 50
2.5068693115994969
 51
4.6648794676676184
  0
ARC
  5
479B
  8
0
 10
572.7054664815210572
 20
78.0302829109681539
 30
0.0
 40
92.0218290176223945
 50
357.6623177098301767
 51
359.9056076938023807
  0
LINE
  5
479C
  8
0
 10
664.7271706203495114
 20
77.8786810162707326
 30
0.0
 11
664.7274166911976181
 21
77.9211190866750627
 31
0.0
  0
ARC
  5
479D
  8
0
 10
575.9691803604232518
 20
77.8361670063633539
 30
0.0
 40
88.7582769853354421
 50
0.054838788800536
 51
2.162382047699027
  0
ARC
  5
479E
  8
0
 10
571.0038736498870549
 20
77.9056544286543442
 30
0.0
 40
93.7317664468458247
 50
357.6906636851906001
 51
2.0799301049366958
  0
ARC
  5
479F
  8
0
 10
664.2580127126198022
 20
74.1025672287946264
 30
0.0
 40
0.3849911171396875
 50
356.510151135432011
 51
2.8259055113866758
  0
LINE
  5
47A0
  8
0
 10
664.6422899017586587
 20
74.0791321656636654
 30
0.0
 11
664.6370021704882447
 21
73.9599839088123616
 31
0.0
  0
ARC
  5
47A1
  8
0
 10
665.4828351407267064
 20
74.1004672263093624
 30
0.0
 40
0.8238063216334331
 50
178.0311918926325916
 51
181.9683650657082978
  0
LINE
  5
47A2
  8
0
 10
664.6595149110587499
 20
74.072171378863672
 30
0.0
 11
664.6682935601995723
 21
73.8562427286514236
 31
0.0
  0
ARC
  5
47A3
  8
0
 10
683.3362023477360481
 20
73.1231784928524036
 30
0.0
 40
18.7026465116774787
 50
177.5420491638433873
 51
177.5645736977147919
  0
LINE
  5
47A4
  8
0
 10
664.6507629321215518
 20
73.925263517124435
 30
0.0
 11
664.6511500632148
 21
73.9156310661339404
 31
0.0
  0
ARC
  5
47A5
  8
0
 10
660.3254927455975576
 20
65.7903892957430827
 30
0.0
 40
3.7879164540939301
 50
353.5007651414493921
 51
358.5352081074884154
  0
ARC
  5
47A6
  8
0
 10
667.1478761223338552
 20
65.0080235001598652
 30
0.0
 40
3.079182156855484
 50
173.4056322592944923
 51
176.2963723261102018
  0
LINE
  5
47A7
  8
0
 10
664.075124743749484
 20
65.2069247834752019
 30
0.0
 11
664.0830889792953258
 21
65.148642356106123
 31
0.0
  0
ARC
  5
47A8
  8
0
 10
664.432956807486562
 20
65.1252794276478681
 30
0.0
 40
0.3670282686204082
 50
112.0828385385215
 51
167.1470390576658076
  0
ARC
  5
47A9
  8
0
 10
664.3835707434200231
 20
65.0974811008776584
 30
0.0
 40
0.3048061098601302
 50
134.2340237626711996
 51
170.3372488900942017
  0
ARC
  5
47AA
  8
0
 10
664.5078471321370444
 20
64.975509400799055
 30
0.0
 40
0.4789088073793099
 50
115.0090469799672945
 51
134.7074699947721967
  0
ARC
  5
47AB
  8
0
 10
663.9654365238817491
 20
66.1482644649169202
 30
0.0
 40
0.8132112719829407
 50
294.7102569170208994
 51
341.6194655980021935
  0
ARC
  5
47AC
  8
0
 10
664.0086152585041646
 20
66.1556484912418767
 30
0.0
 40
0.7473069399183488
 50
292.5312469497188204
 51
347.1341435621591813
  0
ARC
  5
47AD
  8
0
 10
664.4013849064904207
 20
64.5299475877555011
 30
0.0
 40
0.2893247396033334
 50
138.3677750329923128
 51
178.4112362395844968
  0
ARC
  5
47AE
  8
0
 10
664.5326435394400733
 20
64.4132786374563153
 30
0.0
 40
0.4649392967668453
 50
113.3838762479955022
 51
138.3677750329923128
  0
ARC
  5
47AF
  8
0
 10
664.0718190377187966
 20
65.5481760647749212
 30
0.0
 40
0.7601372508055452
 50
291.3140885368898125
 51
313.6868682475159744
  0
ARC
  5
47B0
  8
0
 10
664.2801960956638823
 20
65.3321320590936665
 30
0.0
 40
0.4599831238976911
 50
313.5053137640629757
 51
353.4321035006680063
  0
ARC
  5
47B1
  8
0
 10
664.3842455306938746
 20
64.4754924100677016
 30
0.0
 40
0.2725305238062106
 50
147.3107038096125052
 51
176.6836817232565977
  0
ARC
  5
47B2
  8
0
 10
664.5152148519082402
 20
64.3779377446036136
 30
0.0
 40
0.4355918493725615
 50
113.5238036894427012
 51
145.8151295849166047
  0
ARC
  5
47B3
  8
0
 10
663.9980164847352171
 20
65.6259232014890443
 30
0.0
 40
0.915420187754093
 50
292.0282294647440722
 51
303.5772276030452872
  0
ARC
  5
47B4
  8
0
 10
664.2269930709053369
 20
65.3021242731008584
 30
0.0
 40
0.519143710107052
 50
302.2870041376426116
 51
349.3297811366639962
  0
ARC
  5
47B5
  8
0
 10
662.7216380345415701
 20
64.2568678482656281
 30
0.0
 40
2.015772708272352
 50
334.4807736588747957
 51
352.2984080532585267
  0
ARC
  5
47B6
  8
0
 10
662.6972241444060501
 20
64.268522734342227
 30
0.0
 40
2.0428258855534152
 50
325.7336133385791754
 51
334.4807736588747957
  0
ARC
  5
47B7
  8
0
 10
664.421802030465301
 20
63.0959184701882094
 30
0.0
 40
0.0426833767196471
 50
148.3315548705465119
 51
180.6725693449427865
  0
LINE
  5
47B8
  8
0
 10
664.379121594458752
 20
63.0954174407636614
 30
0.0
 11
664.379121594458752
 21
59.946898776963657
 31
0.0
  0
ARC
  5
47B9
  8
0
 10
664.422553925084344
 20
59.946898776963657
 30
0.0
 40
0.0434323306256275
 50
179.9999999999984084
 51
211.5333229576046108
  0
ARC
  5
47BA
  8
0
 10
662.7791816483570528
 20
58.8046645566255819
 30
0.0
 40
1.9579822816190711
 50
27.3975838227533011
 51
34.8738821882247407
  0
ARC
  5
47BB
  8
0
 10
662.7849708743468682
 20
58.8075957029509908
 30
0.0
 40
1.9514936031777299
 50
5.6765111352369351
 51
27.3993926936308299
  0
ARC
  5
47BC
  8
0
 10
664.4898017500579499
 20
59.752778993909871
 30
0.0
 40
0.39749125774819
 50
204.1712825084989902
 51
250.7801877678055007
  0
ARC
  5
47BD
  8
0
 10
664.0993363253946882
 20
58.7042456326326914
 30
0.0
 40
0.7215219693791975
 50
47.8571503189441074
 51
68.9112003080772411
  0
ARC
  5
47BE
  8
0
 10
664.2697999387262371
 20
58.8882773970851616
 30
0.0
 40
0.4706982647337835
 50
6.8274198663489409
 51
48.2116768860041773
  0
LINE
  5
47BF
  8
0
 10
664.0796479539587835
 20
60.0573094952636524
 30
0.0
 11
664.095622344958656
 21
59.9950788086636493
 31
0.0
  0
LINE
  5
47C0
  8
0
 10
664.095622344958656
 20
59.9950788086636493
 30
0.0
 11
664.1121603123588102
 21
59.9953652850636701
 31
0.0
  0
ARC
  5
47C1
  8
0
 10
664.0971461832980367
 20
60.0213569221774819
 30
0.0
 40
0.0300164833267842
 50
300.0129772877945129
 51
359.288927973518696
  0
LINE
  5
47C2
  8
0
 10
664.1271603550586633
 20
60.0318146958636518
 30
0.0
 11
664.127160348573284
 21
56.0002505825222414
 31
0.0
  0
LINE
  5
47C3
  8
0
 10
664.1271603445694609
 20
53.5114911083069629
 30
0.0
 11
664.1271603400585946
 21
50.7074296879806568
 31
0.0
  0
ARC
  5
47C4
  8
0
 10
664.6185247927177215
 20
56.1267169535224326
 30
0.0
 40
0.5073783203521325
 50
183.6424166660746096
 51
234.9022764899033859
  0
ARC
  5
47C5
  8
0
 10
664.1627227439904573
 20
55.4317187914475724
 30
0.0
 40
0.3244228054394812
 50
359.9692668795264012
 51
59.6195628887390185
  0
LINE
  5
47C6
  8
0
 10
664.4871455027587217
 20
55.4315447729636475
 30
0.0
 11
664.4871455027587217
 21
54.0813391300636468
 31
0.0
  0
ARC
  5
47C7
  8
0
 10
664.162128112481696
 20
54.0813391300636468
 30
0.0
 40
0.3250173902770967
 50
303.0605177334542191
 51
0.0
  0
ARC
  5
47C8
  8
0
 10
664.6122858052734728
 20
53.3897573712475122
 30
0.0
 40
0.5001657878760958
 50
123.0605177334541054
 51
179.1787852732556132
  0
LINE
  5
47C9
  8
0
 10
664.379121594458752
 20
53.8393677830781385
 30
0.0
 11
664.379121594458752
 21
53.7225654960636589
 31
0.0
  0
ARC
  5
47CA
  8
0
 10
664.4225539260818323
 20
53.7225654960636589
 30
0.0
 40
0.0434323316230554
 50
180.0
 51
211.533319054741014
  0
ARC
  5
47CB
  8
0
 10
662.9336504728256614
 20
52.6647861147857412
 30
0.0
 40
1.7830667898358259
 50
21.6510888344531196
 51
35.485490650815052
  0
ARC
  5
47CC
  8
0
 10
662.7170795460674526
 20
52.5670119386300101
 30
0.0
 40
2.0204620855420421
 50
1.11311274524255
 51
21.962214906165169
  0
LINE
  5
47CD
  8
0
 10
664.379121594458752
 20
57.6608457855219214
 30
0.0
 11
664.379121594458752
 21
55.6734245923817994
 31
0.0
  0
ARC
  5
47CE
  8
0
 10
664.4919883546696155
 20
57.267770350809009
 30
0.0
 40
0.399128542404937
 50
116.3196995652731971
 51
156.0727850106399899
  0
ARC
  5
47CF
  8
0
 10
663.900325072552846
 20
58.4538722096741381
 30
0.0
 40
0.9263568528341029
 50
296.5939967237051178
 51
314.4213338931589874
  0
ARC
  5
47D0
  8
0
 10
664.1177606024564284
 20
58.2425629925593213
 30
0.0
 40
0.6232916004010089
 50
313.7416674327297983
 51
353.5938639928713769
  0
ARC
  5
47D1
  8
0
 10
664.0336432818533012
 20
58.3399806555790335
 30
0.0
 40
0.7124126327178698
 50
293.7437244766634876
 51
350.9361773415603807
  0
ARC
  5
47D2
  8
0
 10
664.4670013770958121
 20
57.3548067685766583
 30
0.0
 40
0.3638618798223053
 50
113.7437244766635018
 51
159.064551217758293
  0
LINE
  5
47D3
  8
0
 10
664.5157495775771395
 20
57.761492474695892
 30
0.0
 11
664.379121594458752
 21
55.9743518932331625
 31
0.0
  0
ARC
  5
47D4
  8
0
 10
569.9857301275585542
 20
52.5372763002309711
 30
0.0
 40
94.7571068036716184
 50
0.6274863460578699
 51
3.2085115718711368
  0
LINE
  5
47D5
  8
0
 10
664.486881022470925
 20
54.0682299181843717
 30
0.0
 11
664.5305390396786152
 21
53.458054090989279
 31
0.0
  0
LINE
  5
47D6
  8
0
 10
664.4738521958749971
 20
53.9893369571812372
 30
0.0
 11
664.5104759212880481
 21
53.4972215069315169
 31
0.0
  0
LINE
  5
47D7
  8
0
 10
664.4608477751796727
 20
63.2376157125094522
 30
0.0
 11
664.379121594458752
 21
62.2551960316549327
 31
0.0
  0
LINE
  5
47D8
  8
0
 10
664.5230423546031489
 20
63.3523078513976685
 30
0.0
 11
664.6634145145252432
 21
60.7787386836704826
 31
0.0
  0
LINE
  5
47D9
  8
0
 10
664.6634145145252432
 20
60.7787386836704826
 30
0.0
 11
664.7024152050587418
 21
61.6516249065636686
 31
0.0
  0
ARC
  5
47DA
  8
0
 10
664.1741636759020366
 20
61.662974592793951
 30
0.0
 40
0.5283734412647105
 50
358.7691676235709224
 51
36.6684518126069676
  0
LINE
  5
47DB
  8
0
 10
664.6728404167718054
 20
60.6278741575442126
 30
0.0
 11
664.7041844955106171
 21
61.5880213568046671
 31
0.0
  0
LINE
  5
47DC
  8
0
 10
664.7041844955106171
 20
61.5880213568046671
 30
0.0
 11
664.7024152050587418
 21
61.6516249065636686
 31
0.0
  0
ARC
  5
47DD
  8
0
 10
665.3448274567058434
 20
60.6066569224802691
 30
0.0
 40
0.6723219116636538
 50
178.1915509908839113
 51
181.8095809831609984
  0
ARC
  5
47DE
  8
0
 10
576.0058329889288871
 20
57.2075761885523235
 30
0.0
 40
88.7313256561301529
 50
1.509357607601657
 51
2.181679762299749
  0
LINE
  5
47DF
  8
0
 10
664.706372104543334
 20
59.5447782109641892
 30
0.0
 11
664.7046590860588822
 21
59.4541410312752205
 31
0.0
  0
ARC
  5
47E0
  8
0
 10
664.2240350185535362
 20
59.4632246977631169
 30
0.0
 40
0.4807098992763056
 50
339.569880487800674
 51
358.9172539791371719
  0
LINE
  5
47E1
  8
0
 10
664.6949574392579052
 20
59.4739891388415884
 30
0.0
 11
664.6642147508730432
 21
60.4219848042980985
 31
0.0
  0
LINE
  5
47E2
  8
0
 10
664.6642147508730432
 20
60.4219848042980203
 30
0.0
 11
664.6207845094743334
 21
59.4694987021314674
 31
0.0
  0
LINE
  5
47E3
  8
0
 10
664.379121594458752
 20
60.7748774220025965
 30
0.0
 11
664.4612750050017667
 21
59.8067905739836334
 31
0.0
  0
ARC
  5
47E4
  8
0
 10
664.485860182689521
 20
59.6868377674672814
 30
0.0
 40
0.3895304412618747
 50
202.949063936380611
 51
249.402966182836991
  0
ARC
  5
47E5
  8
0
 10
664.0848555279187622
 20
58.6198144509835828
 30
0.0
 40
0.7503570492685019
 50
46.9823471128028629
 51
69.402966182836991
  0
ARC
  5
47E6
  8
0
 10
664.2893678431621538
 20
58.8389916325358868
 30
0.0
 40
0.450583928393088
 50
6.3809679843427398
 51
46.9823471128063588
  0
LINE
  5
47E7
  8
0
 10
664.7371603550586769
 20
58.8538143319660918
 30
0.0
 11
664.1271603550586633
 21
58.837595805885563
 31
0.0
  0
ARC
  5
47E8
  8
0
 10
664.0971475160995396
 20
60.0316203777140487
 30
0.0
 40
0.0300134680091733
 50
0.3709563865168277
 51
61.0062917933863105
  0
LINE
  5
47E9
  8
0
 10
664.1116954514203599
 20
60.057872346018037
 30
0.0
 11
664.0796479539587835
 21
60.0573094952636524
 31
0.0
  0
ARC
  5
47EA
  8
0
 10
664.0722853562593855
 20
60.0282430064197214
 30
0.0
 40
0.0299844729584849
 50
14.7970606317801803
 51
75.7858373504405449
  0
LINE
  5
47EB
  8
0
 10
664.1012760987587171
 20
60.0359010998636577
 30
0.0
 11
664.1042848525587488
 21
60.024264189863672
 31
0.0
  0
ARC
  5
47EC
  8
0
 10
664.0756940663136447
 20
60.0168719666050805
 30
0.0
 40
0.0295309671838921
 50
312.4406768547216871
 51
14.4965121710195906
  0
ARC
  5
47ED
  8
0
 10
660.7118190206515465
 20
65.6697845137089331
 30
0.0
 40
2.1443754703084581
 50
183.0324661622350106
 51
217.8783777314588974
  0
ARC
  5
47EE
  8
0
 10
657.4671322872452492
 20
63.0913899025052416
 30
0.0
 40
2.0002705382235471
 50
0.0006013236987601
 51
39.1093357519550011
  0
LINE
  5
47EF
  8
0
 10
659.4674028253587039
 20
63.0914108955013972
 30
0.0
 11
659.4674028253587039
 21
59.8023647316014006
 31
0.0
  0
ARC
  5
47F0
  8
0
 10
657.467067867423566
 20
59.8023647316014006
 30
0.0
 40
2.0003349579352072
 50
320.6593373180792241
 51
0.0
  0
ARC
  5
47F1
  8
0
 10
660.5725135297059296
 20
57.2779207035651794
 30
0.0
 40
2.0017737879112918
 50
141.1245678033183992
 51
178.8759506586353893
  0
ARC
  5
47F2
  8
0
 10
663.4840569254464526
 20
62.8101471278630825
 30
0.0
 40
0.6752099664656991
 50
275.6002109614353799
 51
338.4739102921728886
  0
ARC
  5
47F3
  8
0
 10
662.2933511815703014
 20
82.2301381723155345
 30
0.0
 40
20.13123510575425
 50
269.361887159763512
 51
273.5787446654807127
  0
ARC
  5
47F4
  8
0
 10
660.0854325048530882
 20
140.399262044620599
 30
0.0
 40
78.3242353384207917
 50
269.5478939620205097
 51
271.4512856952720199
  0
ARC
  5
47F5
  8
0
 10
663.4828129447723768
 20
60.2258857704031598
 30
0.0
 40
0.6738748062327659
 50
20.9424812732794585
 51
86.0594514652805174
  0
ARC
  5
47F6
  8
0
 10
663.387265575984884
 20
45.870800302393981
 30
0.0
 40
15.0280367061931006
 50
89.4591492345405186
 51
94.8870255148546846
  0
ARC
  5
47F7
  8
0
 10
661.0491012338382006
 20
82.1745946335843058
 30
0.0
 40
21.3566083083510208
 50
268.7902893296572984
 51
272.8393265209822971
  0
ARC
  5
47F8
  8
0
 10
660.4348106018952649
 20
-163.4494885874682097
 30
0.0
 40
224.2722944135686873
 50
89.9582522490004663
 51
90.2471484705639426
  0
ARC
  5
47F9
  8
0
 10
670.160964792376376
 20
60.8082087464723173
 30
0.0
 40
6.6324523696975417
 50
179.2228496067604055
 51
190.9595331104879961
  0
ARC
  5
47FA
  8
0
 10
663.4550626753283495
 20
59.4904129890729081
 30
0.0
 40
0.2025594492394806
 50
266.516991536313185
 51
16.3032746526878611
  0
ARC
  5
47FB
  8
0
 10
663.7250417432999257
 20
62.3276141647418882
 30
0.0
 40
3.0524670297040251
 50
242.951450209610698
 51
264.6938377069677131
  0
ARC
  5
47FC
  8
0
 10
670.3611996880651986
 20
75.3919893423432654
 30
0.0
 40
17.7056690347532886
 50
239.2864684010530993
 51
243.0506619699536088
  0
ARC
  5
47FD
  8
0
 10
658.5752723098955812
 20
55.2567744988266583
 30
0.0
 40
5.626860902381039
 50
60.8267123130882794
 51
80.8773423427467435
  0
ARC
  5
47FE
  8
0
 10
660.7118190206515465
 20
42.7132831094302077
 30
0.0
 40
2.1443754703084581
 50
183.0324661622350106
 51
217.8783777314588974
  0
ARC
  5
47FF
  8
0
 10
657.4671322872452492
 20
40.1348884982265091
 30
0.0
 40
2.0002705382235471
 50
0.0006013236987601
 51
39.1093357519550011
  0
LINE
  5
4800
  8
0
 10
659.4674028253587039
 20
40.1349094912226789
 30
0.0
 11
659.4674028253587039
 21
36.8458633273226823
 31
0.0
  0
ARC
  5
4801
  8
0
 10
657.467067867423566
 20
36.8458633273226823
 30
0.0
 40
2.0003349579352072
 50
320.6593373180792241
 51
0.0
  0
ARC
  5
4802
  8
0
 10
660.5725135297059296
 20
34.3214192992864611
 30
0.0
 40
2.0017737879112918
 50
141.1245678033183992
 51
178.8759506586353893
  0
ARC
  5
4803
  8
0
 10
663.4840569254464526
 20
39.8536457235843713
 30
0.0
 40
0.6752099664656991
 50
275.6002109614353799
 51
338.4739102921728886
  0
ARC
  5
4804
  8
0
 10
662.2933511815703014
 20
59.2736367680367806
 30
0.0
 40
20.13123510575425
 50
269.361887159763512
 51
273.5787446654807127
  0
ARC
  5
4805
  8
0
 10
660.0854325048530882
 20
117.442760640341902
 30
0.0
 40
78.3242353384207917
 50
269.5478939620205097
 51
271.4512856952720199
  0
ARC
  5
4806
  8
0
 10
663.4828129447723768
 20
37.2693843661244415
 30
0.0
 40
0.6738748062327659
 50
20.9424812732794585
 51
86.0594514652805174
  0
ARC
  5
4807
  8
0
 10
663.387265575984884
 20
22.9142988981152591
 30
0.0
 40
15.0280367061931006
 50
89.4591492345405186
 51
94.8870255148546846
  0
ARC
  5
4808
  8
0
 10
661.0491012338382006
 20
59.2180932293055804
 30
0.0
 40
21.3566083083510208
 50
268.7902893296572984
 51
272.8393265209822971
  0
ARC
  5
4809
  8
0
 10
660.4348106018952649
 20
-186.405989991746992
 30
0.0
 40
224.2722944135686873
 50
89.9582522490004663
 51
90.2471484705639426
  0
ARC
  5
480A
  8
0
 10
670.160964792376376
 20
37.8517073421935919
 30
0.0
 40
6.6324523696975417
 50
179.2228496067604055
 51
190.9595331104879961
  0
ARC
  5
480B
  8
0
 10
663.4550626753283495
 20
36.5339115847941827
 30
0.0
 40
0.2025594492394806
 50
266.516991536313185
 51
16.3032746526878611
  0
ARC
  5
480C
  8
0
 10
663.7250417432999257
 20
39.3711127604631628
 30
0.0
 40
3.0524670297040251
 50
242.951450209610698
 51
264.6938377069677131
  0
ARC
  5
480D
  8
0
 10
670.3611996880651986
 20
52.4354879380645471
 30
0.0
 40
17.7056690347532886
 50
239.2864684010530993
 51
243.0506619699536088
  0
ARC
  5
480E
  8
0
 10
658.5752723098955812
 20
32.3002730945479186
 30
0.0
 40
5.626860902381039
 50
60.8267123130882794
 51
80.8773423427467435
  0
ARC
  5
480F
  8
0
 10
664.0971603498586546
 20
50.7074297166636399
 30
0.0
 40
0.0299999901999927
 50
300.0243642386378724
 51
359.9999452195201002
  0
ARC
  5
4810
  8
0
 10
664.1421480047721388
 20
50.7914126731514131
 30
0.0
 40
0.0299069043378271
 50
239.9242869831562928
 51
270.0236607343878745
  0
LINE
  5
4811
  8
0
 10
664.1421603550586497
 20
50.7615057713636588
 30
0.0
 11
664.477160355058686
 21
50.7615057713636588
 31
0.0
  0
ARC
  5
4812
  8
0
 10
664.477160355058686
 20
50.7515057713636608
 30
0.0
 40
0.009999999999998
 50
359.9999999999789111
 51
90.0
  0
LINE
  5
4813
  8
0
 10
664.4871603550587906
 20
50.7515057713636608
 30
0.0
 11
664.4871603550587906
 21
50.6711474262636514
 31
0.0
  0
ARC
  5
4814
  8
0
 10
664.477160355058686
 20
50.6711474262636514
 30
0.0
 40
0.0100000000000016
 50
272.000000000010175
 51
0.0000000000179129
  0
LINE
  5
4815
  8
0
 10
664.4775093500257981
 20
50.661153517993462
 30
0.0
 11
664.1411133701587914
 21
50.6494063115636521
 31
0.0
  0
ARC
  5
4816
  8
0
 10
664.1421603550561485
 20
50.6194245867542207
 30
0.0
 40
0.0299999999987443
 50
91.9999999930133754
 51
178.4458031778995064
  0
ARC
  5
4817
  8
0
 10
664.2474711406706547
 20
51.0820751098018278
 30
0.0
 40
0.7153911464894889
 50
214.2815746097523117
 51
240.8474287400804883
  0
ARC
  5
4818
  8
0
 10
663.0900604140697396
 20
49.0071010164490772
 30
0.0
 40
1.6605543659615249
 50
23.6675383417803609
 51
60.8474287400805025
  0
ARC
  5
4819
  8
0
 10
663.1201869493082768
 20
49.047364700392329
 30
0.0
 40
1.616988698772196
 50
0.2491903010013873
 51
22.7893363661073494
  0
LINE
  5
481A
  8
0
 10
663.6563581214587657
 20
50.6791236350636609
 30
0.0
 11
663.6563581214587657
 21
50.565396479363649
 31
0.0
  0
ARC
  5
481B
  8
0
 10
664.1848359454862702
 20
50.8776781061115386
 30
0.0
 40
0.6138473954439611
 50
210.5791687083577983
 51
241.5511636266948017
  0
ARC
  5
481C
  8
0
 10
663.1045316539282339
 20
48.8837611277437816
 30
0.0
 40
1.65391852699653
 50
33.8267639584485167
 51
61.5511636266948514
  0
ARC
  5
481D
  8
0
 10
663.0328931521460163
 20
48.8966655797634431
 30
0.0
 40
1.706996814942392
 50
3.2406313266214939
 51
32.1281122466883033
  0
ARC
  5
481E
  8
0
 10
668.1179762795680972
 20
52.4840774642926888
 30
0.0
 40
4.856683365291607
 50
203.2697117246923142
 51
206.6004472747046066
  0
ARC
  5
481F
  8
0
 10
660.6939092677057488
 20
48.8203793036107783
 30
0.0
 40
3.4223728854395699
 50
2.8085269279503602
 51
25.7910195191231892
  0
ARC
  5
4820
  8
0
 10
664.2474711406706547
 20
42.7830308004131297
 30
0.0
 40
0.7153911464894889
 50
119.1525712599194975
 51
145.718425390247603
  0
ARC
  5
4821
  8
0
 10
663.0900604140697396
 20
44.8580048937658802
 30
0.0
 40
1.6605543659615249
 50
299.1525712599195117
 51
336.3324616582195858
  0
ARC
  5
4822
  8
0
 10
663.1201869493082768
 20
44.8177412098226284
 30
0.0
 40
1.616988698772196
 50
337.2106636338925796
 51
359.7508096989986939
  0
LINE
  5
4823
  8
0
 10
663.6563581214587657
 20
43.1859822751512965
 30
0.0
 11
663.6563581214587657
 21
43.2997094308513084
 31
0.0
  0
ARC
  5
4824
  8
0
 10
664.1848359454862702
 20
42.9874278041034188
 30
0.0
 40
0.6138473954439611
 50
118.4488363733050988
 51
149.4208312916422017
  0
ARC
  5
4825
  8
0
 10
663.1045316539282339
 20
44.981344782471183
 30
0.0
 40
1.65391852699653
 50
298.4488363733050846
 51
326.1732360415514904
  0
ARC
  5
4826
  8
0
 10
663.0328931521460163
 20
44.9684403304515214
 30
0.0
 40
1.706996814942392
 50
327.8718877533116824
 51
356.7593686733785034
  0
ARC
  5
4827
  8
0
 10
668.1179762795680972
 20
41.3810284459222686
 30
0.0
 40
4.856683365291607
 50
153.3995527252945976
 51
156.7302882753076858
  0
ARC
  5
4828
  8
0
 10
660.6939092677057488
 20
45.0447266066041792
 30
0.0
 40
3.4223728854395699
 50
334.2089804808769031
 51
357.1914730720480975
  0
LINE
  5
4829
  8
0
 10
664.1121713915588316
 20
44.9622183877128165
 30
0.0
 11
664.7371603550586769
 21
44.9576984895272318
 31
0.0
  0
LINE
  5
482A
  8
0
 10
664.7371603550586769
 20
48.9196309661787794
 30
0.0
 11
664.1121713915588316
 21
48.8932859725512614
 31
0.0
  0
ARC
  5
482B
  8
0
 10
664.149263037471087
 20
41.2980251512962369
 30
0.0
 40
0.6126512157102258
 50
289.8603042191897998
 51
343.6572166414761114
  0
ARC
  5
482C
  8
0
 10
664.4915659062080522
 20
40.3503730489891979
 30
0.0
 40
0.394927942943071
 50
109.8603042191898993
 51
163.8769864757942969
  0
ARC
  5
482D
  8
0
 10
664.4886683712346667
 20
40.4111105155516697
 30
0.0
 40
0.3920231486112874
 50
111.0103025604126969
 51
163.82077138978471
  0
ARC
  5
482E
  8
0
 10
664.1771419220552843
 20
41.3246348423934506
 30
0.0
 40
0.5736360311748518
 50
287.3405078125139198
 51
347.4907121354543733
  0
ARC
  5
482F
  8
0
 10
662.7153238861476439
 20
41.3051058606335033
 30
0.0
 40
2.0222828181205719
 50
325.6771770489453957
 51
353.9638685478983007
  0
ARC
  5
4830
  8
0
 10
664.4225338610317522
 20
40.1422196143455281
 30
0.0
 40
0.0434132900671266
 50
148.6106886348214005
 51
180.3934321183672864
  0
LINE
  5
4831
  8
0
 10
664.379121594458752
 20
40.1419215112636607
 30
0.0
 11
664.379121594458752
 21
36.993402847563658
 31
0.0
  0
ARC
  5
4832
  8
0
 10
664.4225539264358531
 20
36.993402847563658
 30
0.0
 40
0.0434323319772396
 50
180.0000000000015916
 51
211.5333189228188076
  0
ARC
  5
4833
  8
0
 10
662.704909198767723
 20
35.8225344691103516
 30
0.0
 40
2.035376994268141
 50
3.1758064588111479
 51
34.3397267990224435
  0
ARC
  5
4834
  8
0
 10
576.4211794257249721
 20
34.2550036901427717
 30
0.0
 40
88.3157283008336833
 50
1.5113989266594079
 51
3.9888452666063641
  0
ARC
  5
4835
  8
0
 10
663.8508995968225008
 20
36.5618375414394876
 30
0.0
 40
0.8555805098889447
 50
344.4769445093191962
 51
1.5113989266594079
  0
LINE
  5
4836
  8
0
 10
664.461227726245852
 20
40.2845924714043377
 30
0.0
 11
664.379121594458752
 21
39.3037677892008972
 31
0.0
  0
LINE
  5
4837
  8
0
 10
664.379121594458752
 20
37.8263500072021017
 30
0.0
 11
664.4620577984173906
 21
36.8497580609075897
 31
0.0
  0
ARC
  5
4838
  8
0
 10
657.9618621016878706
 20
33.9868225768291126
 30
0.0
 40
0.1923014491705533
 50
275.3392533543491822
 51
352.0815351013042118
  0
LINE
  5
4839
  8
0
 10
657.9797562778586553
 20
33.7953554887636614
 30
0.0
 11
657.7542487771587503
 21
33.7835335406636617
 31
0.0
  0
ARC
  5
483A
  8
0
 10
657.7624822378212457
 20
33.7517676361323566
 30
0.0
 40
0.0328155841814759
 50
104.5308311072083001
 51
159.2884159317796104
  0
ARC
  5
483B
  8
0
 10
657.8080064529146966
 20
33.7306938741755715
 30
0.0
 40
0.0829293933845666
 50
156.7924168280277968
 51
179.8926241193767908
  0
LINE
  5
483C
  8
0
 10
657.7250772051587546
 20
33.7308492889636611
 30
0.0
 11
657.7250772051587546
 21
33.3838834063636725
 31
0.0
  0
ARC
  5
483D
  8
0
 10
658.1181272120155654
 20
33.3838834063636725
 30
0.0
 40
0.393050006856896
 50
180.0
 51
202.8357695610150131
  0
LINE
  5
483E
  8
0
 10
657.7558840530587077
 20
33.2313442255636602
 30
0.0
 11
658.0985233877587461
 21
32.4179476471636576
 31
0.0
  0
ARC
  5
483F
  8
0
 10
657.3453250318480059
 20
32.1222711386312909
 30
0.0
 40
0.8091553380190361
 50
4.1780785791439721
 51
21.4330494827960187
  0
ARC
  5
4840
  8
0
 10
657.9430407790461004
 20
33.6845667289967423
 30
0.0
 40
0.1952387360361391
 50
273.5337266811372956
 51
323.3537284321056973
  0
LINE
  5
4841
  8
0
 10
657.9550745279588
 20
33.489699202363667
 30
0.0
 11
657.7250772051587546
 21
33.4799609961386224
 31
0.0
  0
ARC
  5
4842
  8
0
 10
657.8959210689677093
 20
33.7236974542568788
 30
0.0
 40
0.2564215066099695
 50
322.6227137423300064
 51
359.432079618980822
  0
ARC
  5
4843
  8
0
 10
630.8307263514190026
 20
28.2837575120783811
 30
0.0
 40
0.124485407604667
 50
180.0074219351521947
 51
225.007422086599405
  0
LINE
  5
4844
  8
0
 10
630.742713278958604
 20
28.1957216342636485
 30
0.0
 11
631.9380105779518999
 21
27.00074855109429
 31
0.0
  0
ARC
  5
4845
  8
0
 10
631.8944919648854466
 20
26.9564398915312786
 30
0.0
 40
0.0621057726422222
 50
0.6073700177416795
 51
45.5153878473766724
  0
LINE
  5
4846
  8
0
 10
631.95659424805865
 20
26.9570982380636686
 30
0.0
 11
631.9587116772587478
 21
26.9151252023636509
 31
0.0
  0
LINE
  5
4847
  8
0
 10
631.9587116772587478
 20
26.9151252023636509
 30
0.0
 11
631.9617772025586646
 21
26.9120596121636595
 31
0.0
  0
ARC
  5
4848
  8
0
 10
630.8389117797227073
 20
26.7926617391798096
 30
0.0
 40
1.1291955587380089
 50
4.0271427239135278
 51
6.0696361687139149
  0
LINE
  5
4849
  8
0
 10
631.9617772025586646
 20
26.9120596121636595
 30
0.0
 11
631.9889048515069589
 21
26.9120596121636595
 31
0.0
  0
ARC
  5
484A
  8
0
 10
629.8400244427639336
 20
26.9728584556601909
 30
0.0
 40
1.932162518978082
 50
355.6735608272110198
 51
0.9102747053766911
  0
LINE
  5
484B
  8
0
 10
631.7719431221587456
 20
27.0035539919636598
 30
0.0
 11
631.7719431221587456
 21
27.1667709622804416
 31
0.0
  0
LINE
  5
484C
  8
0
 10
657.4905313319587776
 20
27.9729891139765385
 30
0.0
 11
658.081690286158846
 21
28.0027384790636695
 31
0.0
  0
ARC
  5
484D
  8
0
 10
658.0777104879427952
 20
28.081822296295389
 30
0.0
 40
0.0791838931966611
 50
272.8809110451584274
 51
340.4512169147683949
  0
ARC
  5
484E
  8
0
 10
664.421279056531489
 20
72.475407104233355
 30
0.0
 40
0.3135262476309292
 50
189.6306043656927045
 51
230.273508033063905
  0
ARC
  5
484F
  8
0
 10
664.5671620173390011
 20
72.6509587576767757
 30
0.0
 40
0.5417809765647413
 50
230.273508033063905
 51
243.4807583362608057
  0
ARC
  5
4850
  8
0
 10
663.9494065541741747
 20
71.3983442745781502
 30
0.0
 40
0.8548907451541312
 50
39.6343892367802795
 51
63.9185642436868022
  0
ARC
  5
4851
  8
0
 10
664.1840670432359275
 20
71.5872158770818174
 30
0.0
 40
0.5537090902302627
 50
2.7023978579145211
 51
40.0721951442074626
  0
ARC
  5
4852
  8
0
 10
664.3925824767941322
 20
72.3799548284425072
 30
0.0
 40
0.2806473178148247
 50
182.3510266210041948
 51
230.1115404164629865
  0
ARC
  5
4853
  8
0
 10
664.6690475082841658
 20
72.7340405208815213
 30
0.0
 40
0.729783942769077
 50
231.2848351281799921
 51
244.5932578310300016
  0
ARC
  5
4854
  8
0
 10
663.9637399777544715
 20
71.3499978896996936
 30
0.0
 40
0.8241442100171468
 50
39.1794303671239277
 51
61.5828446609113485
  0
ARC
  5
4855
  8
0
 10
664.0793807009703187
 20
71.4668276261024147
 30
0.0
 40
0.6609274324855977
 50
5.5941658004668646
 51
37.6615788786132768
  0
ARC
  5
4856
  8
0
 10
664.4047793592227436
 20
71.4554463488384357
 30
0.0
 40
0.2935977983395801
 50
184.7061284560718946
 51
226.0453554891614942
  0
ARC
  5
4857
  8
0
 10
664.5359466271592055
 20
71.5862607455561744
 30
0.0
 40
0.4788251794280757
 50
225.6110920976063028
 51
245.7612367235840054
  0
ARC
  5
4858
  8
0
 10
663.9698728884836783
 20
70.4152040713063201
 30
0.0
 40
0.8221527533141445
 50
36.9673803478951513
 51
63.2931364792776705
  0
ARC
  5
4859
  8
0
 10
664.1793888341910588
 20
70.5754922966180374
 30
0.0
 40
0.5583669993107157
 50
2.6463628132635848
 51
36.7547443414594994
  0
ARC
  5
485A
  8
0
 10
664.4703901151902983
 20
71.4329539507806857
 30
0.0
 40
0.3648351801313607
 50
190.9284996798583904
 51
243.9689291898123997
  0
ARC
  5
485B
  8
0
 10
663.9829803420321923
 20
70.3727272009309814
 30
0.0
 40
0.8022075369282262
 50
40.513502238115592
 51
65.9208902836334545
  0
ARC
  5
485C
  8
0
 10
664.1615084567155236
 20
70.5091100352396865
 30
0.0
 40
0.5780137181054732
 50
5.1813141522627131
 51
41.7319707348130891
  0
ENDSEC
  0
EOF
