  0
SECTION
  2
HEADER
  9
$ACADVER
  1
AC1009
  9
$INSBASE
 10
3009.089694187870009
 20
133.956993916823194
 30
0.0
  9
$EXTMIN
 10
2973.6015543894768598
 20
133.9437651823172075
 30
-0.0015258207003583
  9
$EXTMAX
 10
3009.1211530977147959
 20
209.5266186337534862
 30
0.0000000349246037
  9
$LIMMIN
 10
0.0
 20
0.0
  9
$LIMMAX
 10
11.6929133858000007
 20
8.2677165353999982
  9
$ORTHOMODE
 70
     0
  9
$REGENMODE
 70
     1
  9
$FILLMODE
 70
     1
  9
$QTEXTMODE
 70
     0
  9
$MIRRTEXT
 70
     0
  9
$DRAGMODE
 70
     2
  9
$LTSCALE
 40
0.6431102362
  9
$OSMODE
 70
  4095
  9
$ATTMODE
 70
     1
  9
$TEXTSIZE
 40
0.2
  9
$TRACEWID
 40
0.05
  9
$TEXTSTYLE
  7
STANDARD
  9
$CLAYER
  8
0
  9
$CELTYPE
  6
BYLAYER
  9
$CECOLOR
 62
   256
  9
$DIMSCALE
 40
1.0
  9
$DIMASZ
 40
0.1875
  9
$DIMEXO
 40
0.0625
  9
$DIMDLI
 40
0.4443307087
  9
$DIMRND
 40
0.0
  9
$DIMDLE
 40
0.0
  9
$DIMEXE
 40
0.125
  9
$DIMTP
 40
0.01
  9
$DIMTM
 40
0.01
  9
$DIMTXT
 40
2.0
  9
$DIMCEN
 40
0.1052362205
  9
$DIMTSZ
 40
0.0
  9
$DIMTOL
 70
     1
  9
$DIMLIM
 70
     0
  9
$DIMTIH
 70
     1
  9
$DIMTOH
 70
     1
  9
$DIMSE1
 70
     0
  9
$DIMSE2
 70
     0
  9
$DIMTAD
 70
     0
  9
$DIMZIN
 70
     0
  9
$DIMBLK
  1

  9
$DIMASO
 70
     1
  9
$DIMSHO
 70
     1
  9
$DIMPOST
  1
\X
  9
$DIMAPOST
  1

  9
$DIMALT
 70
     1
  9
$DIMALTD
 70
     2
  9
$DIMALTF
 40
25.3999999999999986
  9
$DIMLFAC
 40
1.0
  9
$DIMTOFL
 70
     0
  9
$DIMTVP
 40
0.0
  9
$DIMTIX
 70
     0
  9
$DIMSOXD
 70
     0
  9
$DIMSAH
 70
     0
  9
$DIMBLK1
  1

  9
$DIMBLK2
  1

  9
$DIMSTYLE
  2
STANDARD
  9
$DIMCLRD
 70
     0
  9
$DIMCLRE
 70
     0
  9
$DIMCLRT
 70
     0
  9
$DIMTFAC
 40
1.0
  9
$DIMGAP
 40
0.09
  9
$LUNITS
 70
     2
  9
$LUPREC
 70
     4
  9
$SKETCHINC
 40
0.1
  9
$FILLETRAD
 40
0.0
  9
$AUNITS
 70
     0
  9
$AUPREC
 70
     0
  9
$MENU
  1
.
  9
$ELEVATION
 40
0.0
  9
$PELEVATION
 40
0.0
  9
$THICKNESS
 40
0.0
  9
$LIMCHECK
 70
     0
  9
$BLIPMODE
 70
     0
  9
$CHAMFERA
 40
0.0
  9
$CHAMFERB
 40
0.0
  9
$SKPOLY
 70
     0
  9
$TDCREATE
 40
2458060.468368056230247
  9
$TDUPDATE
 40
2459709.9218981480225921
  9
$TDINDWG
 40
0.4700186343
  9
$TDUSRTIMER
 40
0.4700186343
  9
$USRTIMER
 70
     1
  9
$ANGBASE
 50
0.0
  9
$ANGDIR
 70
     0
  9
$PDMODE
 70
     0
  9
$PDSIZE
 40
0.3125
  9
$PLINEWID
 40
0.0
  9
$COORDS
 70
     1
  9
$SPLFRAME
 70
     0
  9
$SPLINETYPE
 70
     6
  9
$SPLINESEGS
 70
     8
  9
$ATTDIA
 70
     1
  9
$ATTREQ
 70
     1
  9
$HANDLING
 70
     1
  9
$HANDSEED
  5
41FC5
  9
$SURFTAB1
 70
     6
  9
$SURFTAB2
 70
     6
  9
$SURFTYPE
 70
     6
  9
$SURFU
 70
     6
  9
$SURFV
 70
     6
  9
$UCSNAME
  2

  9
$UCSORG
 10
0.0
 20
0.0
 30
0.0
  9
$UCSXDIR
 10
1.0
 20
0.0
 30
0.0
  9
$UCSYDIR
 10
0.0
 20
1.0
 30
0.0
  9
$PUCSNAME
  2

  9
$PUCSORG
 10
0.0
 20
0.0
 30
0.0
  9
$PUCSXDIR
 10
1.0
 20
0.0
 30
0.0
  9
$PUCSYDIR
 10
0.0
 20
1.0
 30
0.0
  9
$USERI1
 70
     0
  9
$USERI2
 70
     0
  9
$USERI3
 70
     0
  9
$USERI4
 70
     0
  9
$USERI5
 70
     0
  9
$USERR1
 40
0.0
  9
$USERR2
 40
0.0
  9
$USERR3
 40
0.0
  9
$USERR4
 40
0.0
  9
$USERR5
 40
0.0
  9
$WORLDVIEW
 70
     1
  9
$SHADEDGE
 70
     3
  9
$SHADEDIF
 70
    70
  9
$TILEMODE
 70
     1
  9
$MAXACTVP
 70
    64
  9
$PLIMCHECK
 70
     0
  9
$PEXTMIN
 10
1.0000000000000000E+20
 20
1.0000000000000000E+20
 30
1.0000000000000000E+20
  9
$PEXTMAX
 10
-1.0000000000000000E+20
 20
-1.0000000000000000E+20
 30
-1.0000000000000000E+20
  9
$PLIMMIN
 10
0.0
 20
0.0
  9
$PLIMMAX
 10
12.0
 20
9.0
  9
$UNITMODE
 70
     0
  9
$VISRETAIN
 70
     1
  9
$PLINEGEN
 70
     0
  9
$PSLTSCALE
 70
     1
  0
ENDSEC
  0
SECTION
  2
TABLES
  0
TABLE
  2
VPORT
 70
     1
  0
VPORT
  2
*ACTIVE
 70
     0
 10
0.0
 20
0.0
 11
1.0
 21
1.0
 12
-812.1827136392165585
 22
45.73992971128542
 13
0.0
 23
0.0
 14
1.0
 24
1.0
 15
0.0
 25
0.0
 16
0.0
 26
0.0
 36
17.1152628219792007
 17
3803.5440673828129547
 27
125.9952621967499056
 37
0.0
 40
76.1725766253095742
 41
2.4830729166666661
 42
50.0
 43
0.0
 44
0.0
 50
0.0
 51
0.0
 71
     0
 72
   100
 73
     1
 74
     1
 75
     0
 76
     0
 77
     0
 78
     0
  0
ENDTAB
  0
TABLE
  2
LTYPE
 70
     2
  0
LTYPE
  2
CONTINUOUS
 70
     0
  3
Solid line
 72
    65
 73
     0
 40
0.0
  0
LTYPE
  2
PHANTOM2
 70
     0
  3
___ _ _ ___ _ _ ___ _ _ ___ _ _
 72
    65
 73
     6
 40
1.25
 49
0.625
 49
-0.125
 49
0.125
 49
-0.125
 49
0.125
 49
-0.125
  0
ENDTAB
  0
TABLE
  2
LAYER
 70
     2
  0
LAYER
  2
0
 70
     0
 62
   255
  6
CONTINUOUS
  0
LAYER
  2
DEFPOINTS
 70
     0
 62
     7
  6
CONTINUOUS
  0
ENDTAB
  0
TABLE
  2
STYLE
 70
     1
  0
STYLE
  2
STANDARD
 70
     0
 40
0.0
 41
0.8
 50
0.0
 71
     0
 42
0.2
  3
txt
  4

  0
ENDTAB
  0
TABLE
  2
VIEW
 70
     0
  0
ENDTAB
  0
TABLE
  2
UCS
 70
     0
  0
ENDTAB
  0
TABLE
  2
APPID
 70
     9
  0
APPID
  2
ACAD
 70
     0
  0
APPID
  2
ACAD_MLEADERVER
 70
     0
  0
APPID
  2
ACAD_EXEMPT_FROM_CAD_STANDARDS
 70
     0
  0
APPID
  2
ACAD_NAV_VCDISPLAY
 70
     0
  0
APPID
  2
ACAECLAYERSTANDARD
 70
     0
  0
APPID
  2
ACCMTRANSPARENCY
 70
     0
  0
APPID
  2
ACAD_DSTYLE_DIMJAG
 70
     0
  0
APPID
  2
ACAD_DSTYLE_DIMTALN
 70
     0
  0
APPID
  2
ACDBATTR
 70
     0
  0
ENDTAB
  0
TABLE
  2
DIMSTYLE
 70
     1
  0
DIMSTYLE
  2
STANDARD
 70
     0
  3

  4

  5

  6

  7

 40
1.0
 41
0.1875
 42
0.0625
 43
0.38
 44
0.125
 45
0.0
 46
0.0
 47
0.01
 48
0.01
140
0.15625
141
0.09
142
0.0
143
25.3999999999999986
144
1.0
145
0.0
146
1.0
147
0.09
 71
     1
 72
     0
 73
     1
 74
     1
 75
     0
 76
     0
 77
     0
 78
     4
170
     0
171
     2
172
     0
173
     0
174
     0
175
     0
176
     0
177
     0
178
     0
  0
ENDTAB
  0
ENDSEC
  0
SECTION
  2
BLOCKS
  0
BLOCK
  8
0
  2
$MODEL_SPACE
 70
     0
 10
0.0
 20
0.0
 30
0.0
  3
$MODEL_SPACE
  1

  0
ENDBLK
  5
21
  8
0
  0
BLOCK
 67
     1
  8
0
  2
$PAPER_SPACE
 70
     0
 10
0.0
 20
0.0
 30
0.0
  3
$PAPER_SPACE
  1

  0
ENDBLK
  5
1D
 67
     1
  8
0
  0
ENDSEC
  0
SECTION
  2
ENTITIES
  0
ATTDEF
  5
40AD1
  8
DEFPOINTS
 10
3009.085583323694209
 20
133.961175647218397
 30
0.0
 40
0.001
  1
72400106
  3

  2
MODELNUMBER
 70
     0
1001
ACDBATTR
1070
     0
1070
     1
  0
ATTDEF
  5
40AD2
  8
DEFPOINTS
 10
3009.085583323694209
 20
133.9595089805517887
 30
0.0
 40
0.001
  1
INSEMBLE
  3

  2
TRADENAME
 70
     0
1001
ACDBATTR
1070
     0
1070
     1
  0
ATTDEF
  5
40AD3
  8
DEFPOINTS
 10
3009.085583323694209
 20
133.9578423138850951
 30
0.0
 40
0.001
  1
SHOWER STALL
  3

  2
PRODUCT
 70
     0
1001
ACDBATTR
1070
     0
1070
     1
  0
LINE
  5
41C83
  8
0
 10
2975.089694187870009
 20
133.956993916823194
 30
0.0
 11
2975.2446941861649066
 21
133.956993916823194
 31
0.0
  0
LINE
  5
41C84
  8
0
 10
3009.089694187870009
 20
209.5133671994232998
 30
0.0
 11
3009.089694187870009
 21
208.3100146260233032
 31
0.0
  0
ARC
  5
41C85
  8
0
 10
3008.926694187936846
 20
208.3100146260233032
 30
0.0
 40
0.1629999999333052
 50
272.9999999891517746
 51
0.0000000000008142
  0
LINE
  5
41C86
  8
0
 10
3000.0077910126051393
 20
209.2077976168233135
 30
0.0
 11
2975.1281420589698428
 21
209.2077976168233135
 31
0.0
  0
ARC
  5
41C87
  8
0
 10
2975.1276645957709661
 20
209.0827391108684878
 30
0.0
 40
0.1250599829679369
 50
89.6973054113762203
 51
134.9486886180534952
  0
LINE
  5
41C88
  8
0
 10
2975.0393130636048227
 20
209.1712490318033986
 30
0.0
 11
2973.8612804081330978
 21
207.9953244693041938
 31
0.0
  0
ARC
  5
41C89
  8
0
 10
2973.9466554021018965
 20
207.9097964226388058
 30
0.0
 40
0.1208467474186371
 50
134.9486886180523868
 51
181.6968722794372013
  0
LINE
  5
41C8A
  8
0
 10
2973.825861648630962
 20
207.9062179475405117
 30
0.0
 11
2973.8258616486700703
 21
138.5804735862232917
 31
0.0
  0
ARC
  5
41C8B
  8
0
 10
2973.9503470554509477
 20
138.5804574607851976
 30
0.0
 40
0.1244854078644374
 50
179.9925780980721015
 51
225.0074219977447001
  0
LINE
  5
41C8C
  8
0
 10
2973.8623339826699521
 20
138.4924215829232992
 30
0.0
 11
2975.0430355873359076
 21
137.31180008994491
 31
0.0
  0
ARC
  5
41C8D
  8
0
 10
2974.9782574006158029
 20
137.2311455549036054
 30
0.0
 40
0.1034474141650916
 50
23.3213242658396283
 51
51.2300963244337666
  0
ARC
  5
41C8E
  8
0
 10
2974.3741314600001715
 20
137.1828336640172097
 30
0.0
 40
0.7047973726152039
 50
2.3574990438905621
 51
7.2762824075554571
  0
LINE
  5
41C8F
  8
0
 10
2975.0783323046712212
 20
137.2118251595233005
 30
0.0
 11
2975.0813979062909311
 21
137.2087595608026049
 31
0.0
  0
ARC
  5
41C90
  8
0
 10
2975.0425609185458597
 20
137.1991873835764011
 30
0.0
 40
0.0399992274745057
 50
358.4825637218223164
 51
13.8457635623109692
  0
ARC
  5
41C91
  8
0
 10
2975.2216543766107861
 20
137.2024443631202928
 30
0.0
 40
0.1391752026202376
 50
181.7771845828910955
 51
203.0302687039329896
  0
ARC
  5
41C92
  8
0
 10
2975.2162111283619197
 20
137.2086751034688064
 30
0.0
 40
0.1368295138622043
 50
206.3248895650104942
 51
270.7102445934145862
  0
LINE
  5
41C93
  8
0
 10
2975.9111874446648471
 20
138.1288939168233014
 30
0.0
 11
3009.089694187870009
 21
138.1288939168233014
 31
0.0
  0
ARC
  5
41C94
  8
0
 10
2975.9111874446648471
 20
138.0038939168452998
 30
0.0
 40
0.1249999999779909
 50
89.9999999973163369
 51
149.534455097178494
  0
LINE
  5
41C95
  8
0
 10
2975.8034456677701201
 20
138.0672714326233006
 30
0.0
 11
2975.1403959774720533
 21
136.9400869583668907
 31
0.0
  0
ARC
  5
41C96
  8
0
 10
2975.4569234019249961
 20
136.7538943558710116
 30
0.0
 40
0.3672292140546826
 50
149.534455097178494
 51
179.9999997578152886
  0
LINE
  5
41C97
  8
0
 10
2975.089694187870009
 20
136.7538943558710116
 30
0.0
 11
2975.089694187870009
 21
133.956993916823194
 31
0.0
  0
LINE
  5
41C98
  8
0
 10
3009.089694187870009
 20
138.1288939168233014
 30
0.0
 11
3009.089694187870009
 21
136.4538939168232901
 31
0.0
  0
ARC
  5
41C99
  8
0
 10
3008.9396941878699181
 20
136.4538939168232901
 30
0.0
 40
0.1499999999999915
 50
270.0
 51
359.9999999999984084
  0
LINE
  5
41C9A
  8
0
 10
3008.9396941878699181
 20
136.3038939168233128
 30
0.0
 11
3008.7003300043988929
 21
136.3038939168233128
 31
0.0
  0
ARC
  5
41C9B
  8
0
 10
3008.7003300043988929
 20
136.4541291193852999
 30
0.0
 40
0.1502352025620581
 50
186.0807723522461004
 51
270.0
  0
LINE
  5
41C9C
  8
0
 10
3008.5509400928649484
 20
136.4382146473330977
 30
0.0
 11
3008.5348906601630006
 21
136.5888714409537954
 31
0.0
  0
ARC
  5
41C9D
  8
0
 10
3009.0302015276320162
 20
136.6476690902892983
 30
0.0
 40
0.058777363071152
 50
269.5054424598022251
 51
1.0401887851848859
  0
LINE
  5
41C9E
  8
0
 10
3009.0296941878700636
 20
136.5888939168231957
 30
0.0
 11
2994.7891904953698941
 21
136.5888939168231957
 31
0.0
  0
LINE
  5
41C9F
  8
0
 10
2994.7891904953698941
 20
136.5888939168231957
 30
0.0
 11
2994.69681445239803
 21
136.4288939168712886
 31
0.0
  0
ARC
  5
41CA0
  8
0
 10
2994.4803081014511008
 20
136.5538939167765875
 30
0.0
 40
0.2499999999533141
 50
269.9999999814747866
 51
330.0000000188877038
  0
LINE
  5
41CA1
  8
0
 10
2994.4803081013701558
 20
136.3038939168233128
 30
0.0
 11
2993.8157412743698842
 21
136.3038939170382093
 31
0.0
  0
ARC
  5
41CA2
  8
0
 10
2993.8157412744508292
 20
136.5538497767589945
 30
0.0
 40
0.249955859720842
 50
210.0089697973023988
 51
269.9999999814747866
  0
LINE
  5
41CA3
  8
0
 10
2993.5992927183679058
 20
136.4288379598050938
 30
0.0
 11
2993.5068529380519067
 21
136.5888904849306869
 31
0.0
  0
LINE
  5
41CA4
  8
0
 10
2993.5068529380519067
 20
136.5888904849306869
 30
0.0
 11
2984.7891904953698941
 21
136.5888939168231957
 31
0.0
  0
LINE
  5
41CA5
  8
0
 10
2984.7891904953698941
 20
136.5888939168231957
 30
0.0
 11
2984.69681445239803
 21
136.4288939168712886
 31
0.0
  0
ARC
  5
41CA6
  8
0
 10
2984.4803081014511008
 20
136.5538939167765875
 30
0.0
 40
0.2499999999533141
 50
269.9999999814747866
 51
330.0000000188877038
  0
LINE
  5
41CA7
  8
0
 10
2984.4803081013701558
 20
136.3038939168233128
 30
0.0
 11
2983.8157412743707937
 21
136.3038939170382093
 31
0.0
  0
ARC
  5
41CA8
  8
0
 10
2983.8157412744508292
 20
136.553893917486505
 30
0.0
 40
0.2500000004483027
 50
210.0000001034808861
 51
269.9999999814747866
  0
LINE
  5
41CA9
  8
0
 10
2983.5992349233429195
 20
136.4288939168712886
 30
0.0
 11
2983.5068588800290854
 21
136.5888939166260059
 31
0.0
  0
LINE
  5
41CAA
  8
0
 10
2983.5068588800290854
 20
136.5888939166260059
 30
0.0
 11
2979.8324183483700835
 21
136.5888939166260059
 31
0.0
  0
ARC
  5
41CAB
  8
0
 10
2979.8324183483700835
 20
136.4411872505428107
 30
0.0
 40
0.1477066660831454
 50
90.0
 51
160.9333712544523962
  0
ARC
  5
41CAC
  8
0
 10
2979.3002814061260324
 20
136.6251091565526963
 30
0.0
 40
0.4153181937690961
 50
269.1660680172844877
 51
340.9333712544524246
  0
ARC
  5
41CAD
  8
0
 10
2980.6808972137018827
 20
231.474418934072304
 30
0.0
 40
95.2746754827577149
 50
268.8865775903802273
 51
269.1660680172844877
  0
ARC
  5
41CAE
  8
0
 10
2978.8376482303701778
 20
136.6343187563242054
 30
0.0
 40
0.4166649167551478
 50
200.0527579158298863
 51
268.8865775903802273
  0
ARC
  5
41CAF
  8
0
 10
2978.3069419907910742
 20
136.4406038855780139
 30
0.0
 40
0.1482904477443471
 50
20.0527579158298686
 51
89.8642357988378251
  0
LINE
  5
41CB0
  8
0
 10
2978.3072933694697895
 20
136.5888939170206129
 30
0.0
 11
2975.8432507879711011
 21
136.5888939170206129
 31
0.0
  0
ARC
  5
41CB1
  8
0
 10
2975.8432491638750435
 20
136.8788768246539007
 30
0.0
 40
0.2899829078351606
 50
205.0038709188386008
 51
270.0003208941652133
  0
ARC
  5
41CB2
  8
0
 10
2484.9104394680612131
 20
-92.0872328534608044
 30
0.0
 40
541.4115059372264795
 50
25.0038709188386505
 51
25.010808270745251
  0
ARC
  5
41CB3
  8
0
 10
2975.4106406333489758
 20
136.7494246336144954
 30
0.0
 40
0.1567940380642539
 50
25.010808270745251
 51
178.4832418209713012
  0
LINE
  5
41CB4
  8
0
 10
2975.2539015318639031
 20
136.7535748671195961
 30
0.0
 11
2975.2446941861649066
 21
133.956993916823194
 31
0.0
  0
ARC
  5
41CB5
  8
0
 10
2976.6140743869409562
 20
134.5533033261378932
 30
0.0
 40
1.3683826934736261
 50
152.5365727979474002
 51
177.6503689652114133
  0
ARC
  5
41CB6
  8
0
 10
2976.5434570254028586
 20
134.5900071254062027
 30
0.0
 40
1.2887963841530741
 50
90.3563261983164949
 51
152.5365727979474002
  0
LINE
  5
41CB7
  8
0
 10
2976.5354419681048057
 20
135.8787785863962938
 30
0.0
 11
2978.0046657795201099
 21
135.8788939168233014
 31
0.0
  0
ARC
  5
41CB8
  8
0
 10
2977.9999978721498337
 20
134.8317842627882044
 30
0.0
 40
1.0471200585093361
 50
70.4392265656081094
 51
89.7445829872979033
  0
ARC
  5
41CB9
  8
0
 10
2977.5653706778498417
 20
133.6085598793195004
 30
0.0
 40
2.345264384205759
 50
55.599103030525221
 51
70.4392265656081094
  0
ARC
  5
41CBA
  8
0
 10
2934.9275926174441338
 20
54.8005500871387525
 30
0.0
 40
91.9357176779097216
 50
59.8696866836257726
 51
61.4326995787344927
  0
ARC
  5
41CBB
  8
0
 10
2982.0934010603300521
 20
136.2638854140965066
 30
0.0
 40
2.1987514760152109
 50
242.4496411102269917
 51
266.8823545007488747
  0
LINE
  5
41CBC
  8
0
 10
2983.1941941871700692
 20
133.956993916823194
 30
0.0
 11
2982.1967004693128729
 21
133.956993916823194
 31
0.0
  0
ARC
  5
41CBD
  8
0
 10
2981.7333968060361258
 20
133.3086715466124019
 30
0.0
 40
0.7968514165896764
 50
54.4496691471243466
 51
82.8631962194292839
  0
ARC
  5
41CBE
  8
0
 10
2982.0642906744142238
 20
136.109421510782397
 30
0.0
 40
2.0234044047293058
 50
240.9008870763269101
 51
263.4191093903102114
  0
ARC
  5
41CBF
  8
0
 10
3283.5276793973430358
 20
674.5065610954989097
 30
0.0
 40
619.074169343412791
 50
240.6173866776078967
 51
240.7548130466877865
  0
LINE
  5
41CC0
  8
0
 10
2979.7855269969541041
 20
135.0683978150208873
 30
0.0
 11
2979.3806769439697746
 21
135.2793197125232894
 31
0.0
  0
LINE
  5
41CC1
  8
0
 10
2979.3805577268699381
 20
135.2793724221232878
 30
0.0
 11
2979.790312579069905
 21
135.0973670486233118
 31
0.0
  0
LINE
  5
41CC2
  8
0
 10
2979.790312579069905
 20
135.0973670486233118
 30
0.0
 11
2981.0940993745939522
 21
134.3665898448456915
 31
0.0
  0
ARC
  5
41CC3
  8
0
 10
2982.0617912121438167
 20
136.1646679587788924
 30
0.0
 40
2.041938391887967
 50
241.7116975760515061
 51
263.5023124372830239
  0
ARC
  5
41CC4
  8
0
 10
2982.0637430683618732
 20
136.3994999278872058
 30
0.0
 40
2.2756161267594761
 50
264.1225879722106242
 51
268.6356827349904961
  0
ARC
  5
41CC5
  8
0
 10
2985.441533680106204
 20
278.2261642559403185
 30
0.0
 40
144.1424980401891958
 50
268.6356827349904961
 51
268.8985136188426281
  0
ARC
  5
41CC6
  8
0
 10
2943.5485019992679554
 20
-2605.454710221329151
 30
0.0
 40
2741.1329184899941538
 50
89.1793068798322253
 51
89.1838963035531265
  0
ARC
  5
41CC7
  8
0
 10
2982.1358224282139417
 20
135.1744868962744022
 30
0.0
 40
0.5080873929975283
 50
5.6678693561259861
 51
26.3682856720877794
  0
LINE
  5
41CC8
  8
0
 10
2982.641425838127816
 20
135.2246664818254942
 30
0.0
 11
2982.6410395160710323
 21
133.9872919019232995
 31
0.0
  0
ARC
  5
41CC9
  8
0
 10
2982.6777792583029623
 20
133.990670520698302
 30
0.0
 40
0.036894659814516
 50
185.2702494482747113
 51
245.8920019783961095
  0
ARC
  5
41CCA
  8
0
 10
2984.3267458434561377
 20
134.6371203003851065
 30
0.0
 40
1.69592484022774
 50
153.3801126802985095
 51
157.6671228242965981
  0
ARC
  5
41CCB
  8
0
 10
2982.9442467035351001
 20
135.2050514713376117
 30
0.0
 40
0.2013179732483971
 50
157.6671219173398129
 51
179.8819167030960102
  0
LINE
  5
41CCC
  8
0
 10
2982.742929157834169
 20
135.2054663757751882
 30
0.0
 11
2982.7429588328700447
 21
133.9930088560232946
 31
0.0
  0
ARC
  5
41CCD
  8
0
 10
2982.7028421571772014
 20
133.9915720039765006
 30
0.0
 40
0.0401423991875954
 50
300.5274794656309041
 51
2.0512761854124069
  0
LINE
  5
41CCE
  8
0
 10
2982.5910472591581311
 20
135.4001484840892999
 30
0.0
 11
2982.5848458511991339
 21
135.3089660569798127
 31
0.0
  0
ARC
  5
41CCF
  8
0
 10
2982.484874773986121
 20
135.3157629599737959
 30
0.0
 40
0.100201867095727
 50
325.9265246763895902
 51
356.1105203915278139
  0
LINE
  5
41CD0
  8
0
 10
2982.5678739634699923
 20
135.2596243038233013
 30
0.0
 11
2982.4991298958211701
 21
135.234423703113805
 31
0.0
  0
ARC
  5
41CD1
  8
0
 10
2982.5084635989028357
 20
135.2093412563228014
 30
0.0
 40
0.0267627941411571
 50
110.4112866124899028
 51
158.6496572350928886
  0
ARC
  5
41CD2
  8
0
 10
2986.6256413900109692
 20
134.7836638155023934
 30
0.0
 40
4.0282703421472377
 50
183.5419581706237011
 51
188.4503191399257958
  0
ARC
  5
41CD3
  8
0
 10
2976.5025303303418696
 20
134.1825087381033939
 30
0.0
 40
6.1126955833814973
 50
3.303936883927487
 51
8.6883404266244053
  0
ARC
  5
41CD4
  8
0
 10
2982.4729312116751316
 20
135.0948650796630091
 30
0.0
 40
0.0729869167484466
 50
8.6883404266268212
 51
81.5840075194339533
  0
LINE
  5
41CD5
  8
0
 10
2982.483613514769786
 20
135.1670660382233109
 30
0.0
 11
2982.4835374898711962
 21
135.2190847792348052
 31
0.0
  0
ARC
  5
41CD6
  8
0
 10
2939.7469735579898042
 20
-2048.4501050078019944
 30
0.0
 40
2184.0353408500150181
 50
88.8787794120588615
 51
88.9169591201635399
  0
ARC
  5
41CD7
  8
0
 10
2992.3427525808601786
 20
733.6768548746721308
 30
0.0
 40
598.5887330909688444
 50
268.8195040868067736
 51
268.916959120163483
  0
ARC
  5
41CD8
  8
0
 10
2980.0449443216648433
 20
136.882917884781989
 30
0.0
 40
1.6681024239826541
 50
246.4561110289712076
 51
268.8195040868067736
  0
ARC
  5
41CD9
  8
0
 10
2980.4737624926128774
 20
137.8670699049241932
 30
0.0
 40
2.741620110136695
 50
235.7506452416022
 51
246.4561110289712076
  0
ARC
  5
41CDA
  8
0
 10
2978.0285613389150967
 20
134.2757240629979094
 30
0.0
 40
1.603120807152467
 50
55.7506452416021787
 51
90.3743023950516431
  0
ARC
  5
41CDB
  8
0
 10
4265.8747103776358927
 20
59739.5834069737466052
 30
0.0
 40
59619.2551627970897243
 50
268.7660722189501143
 51
268.7666812896810029
  0
ARC
  5
41CDC
  8
0
 10
2982.0522039524921638
 20
136.0936918002867912
 30
0.0
 40
1.940679450798396
 50
263.384166785268917
 51
268.6820902448167203
  0
ARC
  5
41CDD
  8
0
 10
2982.0559528981762014
 20
136.1356259320039044
 30
0.0
 40
1.9827665731415229
 50
240.9507437066502007
 51
263.4161648707859058
  0
ARC
  5
41CDE
  8
0
 10
3732.4837474132159514
 20
1482.1677080988561102
 30
0.0
 40
1543.0681741099790543
 50
240.8045033717257013
 51
240.8599659600722873
  0
ARC
  5
41CDF
  8
0
 10
2983.798278270137871
 20
144.7638869661857086
 30
0.0
 40
10.4346388347436392
 50
244.9479121233027001
 51
247.4036375871937139
  0
ARC
  5
41CE0
  8
0
 10
2980.7583359742397988
 20
138.2601528675031091
 30
0.0
 40
3.2555158807362621
 50
235.2079229088184036
 51
244.9479121233027001
  0
ARC
  5
41CE1
  8
0
 10
2977.9653684975478427
 20
134.240413333914006
 30
0.0
 40
1.639274538041448
 50
55.207922908818361
 51
88.1581730422447691
  0
ARC
  5
41CE2
  8
0
 10
2978.8152233005362177
 20
136.5684160842625943
 30
0.0
 40
0.3813875726492076
 50
188.9521597380656033
 51
220.7134983075050911
  0
ARC
  5
41CE3
  8
0
 10
2978.379313129978982
 20
136.1932954767331978
 30
0.0
 40
0.1937064605211439
 50
21.2266225106213504
 51
40.7134983075039116
  0
ARC
  5
41CE4
  8
0
 10
2979.8077980805987863
 20
136.7481320158557025
 30
0.0
 40
1.3387467489741749
 50
201.2266225106214108
 51
217.8512002799108132
  0
ARC
  5
41CE5
  8
0
 10
2980.2436405597741214
 20
137.0868303432075948
 30
0.0
 40
1.890720682782943
 50
217.8512002799108132
 51
231.2741269674401963
  0
ARC
  5
41CE6
  8
0
 10
2980.0980549631030954
 20
137.1021891823652084
 30
0.0
 40
1.815808616797276
 50
235.1641319920674107
 51
248.1392950262489876
  0
ARC
  5
41CE7
  8
0
 10
2980.0334763395658229
 20
136.9646733581272997
 30
0.0
 40
1.664158266174351
 50
248.4398878050521091
 51
269.6007226138141846
  0
LINE
  5
41CE8
  8
0
 10
2980.021879405369873
 20
135.3005554999232913
 30
0.0
 11
2982.5678736907711937
 21
135.2596060838232859
 31
0.0
  0
ARC
  5
41CE9
  8
0
 10
2982.7987023052578479
 20
135.2000165551120006
 30
0.0
 40
0.0562402673862342
 50
85.6387601355881571
 51
172.5953389827811861
  0
ARC
  5
41CEA
  8
0
 10
2996.4718566890110196
 20
1062.4815140307559886
 30
0.0
 40
927.3261658196912549
 50
269.1554240677511984
 51
269.3257752808502801
  0
ARC
  5
41CEB
  8
0
 10
2946.5500132406059492
 20
-2605.4912877808151279
 30
0.0
 40
2741.1329184899941538
 50
89.1793068798322253
 51
89.1838963035531265
  0
ARC
  5
41CEC
  8
0
 10
2985.1373336695519356
 20
135.1379093367885105
 30
0.0
 40
0.5080873929975283
 50
5.6678693561259861
 51
26.3682856720877794
  0
LINE
  5
41CED
  8
0
 10
2985.6429370794658098
 20
135.1880889223396025
 30
0.0
 11
2985.6425507574081166
 21
133.9872919019232995
 31
0.0
  0
ARC
  5
41CEE
  8
0
 10
2985.6792904996409561
 20
133.990670520698302
 30
0.0
 40
0.036894659814516
 50
185.2702494482747113
 51
245.8920019783961095
  0
ARC
  5
41CEF
  8
0
 10
2987.328257084760935
 20
134.6005427409137098
 30
0.0
 40
1.6959248401913389
 50
153.3801126802343902
 51
157.6671228243259861
  0
ARC
  5
41CF0
  8
0
 10
2985.9457579448730939
 20
135.1684739118516916
 30
0.0
 40
0.2013179732483971
 50
157.6671219173398129
 51
179.8819167030960102
  0
LINE
  5
41CF1
  8
0
 10
2985.7444403991721629
 20
135.1688888162894102
 30
0.0
 11
2985.7444700742071291
 21
133.9930088560232946
 31
0.0
  0
ARC
  5
41CF2
  8
0
 10
2985.7043533985138311
 20
133.9915720039765006
 30
0.0
 40
0.0401423991875954
 50
300.5274794656309041
 51
2.0512761854124069
  0
LINE
  5
41CF3
  8
0
 10
2985.5925585004961249
 20
135.3635709246034935
 30
0.0
 11
2985.5863570925371278
 21
135.2723884974940063
 31
0.0
  0
ARC
  5
41CF4
  8
0
 10
2985.4863860153241149
 20
135.2791854004879042
 30
0.0
 40
0.100201867095727
 50
325.9265246763895902
 51
356.1105203915278139
  0
LINE
  5
41CF5
  8
0
 10
2985.5693852048079862
 20
135.2230467443374096
 30
0.0
 11
2985.5006411371591639
 21
135.1978461436279986
 31
0.0
  0
ARC
  5
41CF6
  8
0
 10
2985.5099748402408295
 20
135.1727636968369097
 30
0.0
 40
0.0267627941411571
 50
110.4112866124899028
 51
158.6496572350928886
  0
ARC
  5
41CF7
  8
0
 10
2989.6271526313480535
 20
134.7836638155023934
 30
0.0
 40
4.0282703421472377
 50
183.5419581706237011
 51
188.4503191399257958
  0
ARC
  5
41CF8
  8
0
 10
2980.2533104244248534
 20
134.2046577239337068
 30
0.0
 40
5.3634370039957346
 50
3.529022833016402
 51
9.2773036468266863
  0
ARC
  5
41CF9
  8
0
 10
2985.474442453012216
 20
135.0582875201770889
 30
0.0
 40
0.0729869167484466
 50
8.6883404266268212
 51
81.5840075194339533
  0
LINE
  5
41CFA
  8
0
 10
2985.4851247561077798
 20
135.1304884787373908
 30
0.0
 11
2985.4850487312078258
 21
135.1825072197489135
 31
0.0
  0
ARC
  5
41CFB
  8
0
 10
2985.8002135465958418
 20
135.1634389956261941
 30
0.0
 40
0.0562402673862342
 50
85.6387601355881571
 51
172.5953389827811861
  0
ARC
  5
41CFC
  8
0
 10
2983.5579184244870703
 20
133.2931223787878992
 30
0.0
 40
0.7569813338683985
 50
88.816250176558313
 51
118.7176060242574067
  0
LINE
  5
41CFD
  8
0
 10
2983.5735567975229969
 20
134.0499421599207039
 30
0.0
 11
2985.1128044022930226
 21
134.0143027618356086
 31
0.0
  0
ARC
  5
41CFE
  8
0
 10
2984.7144282009589915
 20
133.3492807688695052
 30
0.0
 40
0.7758233117008484
 50
51.5649981562438171
 51
88.7037646757985669
  0
LINE
  5
41CFF
  8
0
 10
2984.7319786000698514
 20
134.1249055457232942
 30
0.0
 11
2982.7429809377158563
 21
134.1597013832000869
 31
0.0
  0
LINE
  5
41D00
  8
0
 10
2982.7429560242048865
 20
134.1077648278358083
 30
0.0
 11
2985.0216552606011646
 21
134.0616804774616924
 31
0.0
  0
LINE
  5
41D01
  8
0
 10
2984.9348360709232111
 20
134.0931370599876971
 30
0.0
 11
2982.7430276302711718
 21
134.1377108917232874
 31
0.0
  0
LINE
  5
41D02
  8
0
 10
2982.6410939977649832
 20
134.1617946597274909
 30
0.0
 11
2982.0099586417682076
 21
134.1729259251058863
 31
0.0
  0
ARC
  5
41D03
  8
0
 10
2982.0450152580938266
 20
136.1606127938096904
 30
0.0
 40
1.98799598952454
 50
240.9016029721726966
 51
268.9895853490015725
  0
ARC
  5
41D04
  8
0
 10
2962.2435966480147727
 20
102.000812376009705
 30
0.0
 40
37.4963475087880767
 50
59.847329078460163
 51
62.8235285389927895
  0
ARC
  5
41D05
  8
0
 10
2894.4249604514620842
 20
-6459.7182572392612201
 30
0.0
 40
6595.7252115762639733
 50
89.1799774032898966
 51
89.1818847491415596
  0
ARC
  5
41D06
  8
0
 10
2988.1456254532799903
 20
135.1089222445278892
 30
0.0
 40
0.5080716953297849
 50
5.6677090269552801
 51
26.3691167946847997
  0
LINE
  5
41D07
  8
0
 10
2988.6512133826790887
 20
135.1590988649780911
 30
0.0
 11
2988.6508270606218503
 21
133.9872919019232995
 31
0.0
  0
ARC
  5
41D08
  8
0
 10
2988.6875668028551445
 20
133.990670520698302
 30
0.0
 40
0.036894659814516
 50
185.2702494482747113
 51
245.8920019783961095
  0
ARC
  5
41D09
  8
0
 10
2990.3365333883912172
 20
134.5715526833716069
 30
0.0
 40
1.6959248406456611
 50
153.3801126810936921
 51
157.6671228240309972
  0
ARC
  5
41D0A
  8
0
 10
2988.9540342480868276
 20
135.1394838544900949
 30
0.0
 40
0.2013179732483971
 50
157.6671219173398129
 51
179.8819167030960102
  0
LINE
  5
41D0B
  8
0
 10
2988.7527167023858965
 20
135.1398987589278136
 30
0.0
 11
2988.7527463774208627
 21
133.9930088560232946
 31
0.0
  0
ARC
  5
41D0C
  8
0
 10
2988.7126297017280194
 20
133.9915720039765006
 30
0.0
 40
0.0401423991875954
 50
300.5274794656309041
 51
2.0512761854124069
  0
LINE
  5
41D0D
  8
0
 10
2988.6008329464220878
 20
135.3345834635757967
 30
0.0
 11
2988.5946333957508614
 21
135.2433984401324096
 31
0.0
  0
ARC
  5
41D0E
  8
0
 10
2988.494662318536939
 20
135.2501953431263928
 30
0.0
 40
0.100201867095727
 50
325.9265246763895902
 51
356.1105203915278139
  0
LINE
  5
41D0F
  8
0
 10
2988.5776615080221745
 20
135.1940566869758982
 30
0.0
 11
2988.5089174403719881
 21
135.1688560862664019
 31
0.0
  0
ARC
  5
41D10
  8
0
 10
2988.5182511434550179
 20
135.1437736394753983
 30
0.0
 40
0.0267627941411571
 50
110.4112866124899028
 51
158.6496572350928886
  0
ARC
  5
41D11
  8
0
 10
2991.9908502146090541
 20
134.7340175120731089
 30
0.0
 40
3.3837012502372641
 50
183.8671546991822083
 51
189.2227298554593915
  0
ARC
  5
41D12
  8
0
 10
2983.2615867276381323
 20
134.1756676665721102
 30
0.0
 40
5.3634370039957346
 50
3.529022833016402
 51
9.2773036468266863
  0
ARC
  5
41D13
  8
0
 10
2988.4827187562259496
 20
135.029297462815606
 30
0.0
 40
0.0729869167484466
 50
8.6883404266268212
 51
81.5840075194339533
  0
LINE
  5
41D14
  8
0
 10
2988.4934010593219682
 20
135.1014984213757941
 30
0.0
 11
2988.4933250344220141
 21
135.1535171623872884
 31
0.0
  0
ARC
  5
41D15
  8
0
 10
2988.8084898498091206
 20
135.1344489382645975
 30
0.0
 40
0.0562402673862342
 50
85.6387601355881571
 51
172.5953389827811861
  0
ARC
  5
41D16
  8
0
 10
2952.557967612010998
 20
-2605.5383960064300481
 30
0.0
 40
2741.1329184899941538
 50
89.1793068798322253
 51
89.1838963035531265
  0
ARC
  5
41D17
  8
0
 10
2991.1452880409569843
 20
135.0908011111741018
 30
0.0
 40
0.5080873929975283
 50
5.6678693561259861
 51
26.3682856720877794
  0
LINE
  5
41D18
  8
0
 10
2991.6508914508708585
 20
135.1409806967253076
 30
0.0
 11
2991.6505051288131654
 21
133.9872919019232995
 31
0.0
  0
ARC
  5
41D19
  8
0
 10
2991.6872448710469143
 20
133.990670520698302
 30
0.0
 40
0.036894659814516
 50
185.2702494482747113
 51
245.8920019783961095
  0
ARC
  5
41D1A
  8
0
 10
2993.3362114561318776
 20
134.5534345153137963
 30
0.0
 40
1.69592484015503
 50
153.3801126801710097
 51
157.6671228243463929
  0
ARC
  5
41D1B
  8
0
 10
2991.9537123162790522
 20
135.1213656862373114
 30
0.0
 40
0.2013179732483971
 50
157.6671219173398129
 51
179.8819167030960102
  0
LINE
  5
41D1C
  8
0
 10
2991.7523947705772116
 20
135.1217805906750016
 30
0.0
 11
2991.7524244456130873
 21
133.9930088560232946
 31
0.0
  0
ARC
  5
41D1D
  8
0
 10
2991.7123077699188798
 20
133.9915720039765006
 30
0.0
 40
0.0401423991875954
 50
300.5274794656309041
 51
2.0512761854124069
  0
LINE
  5
41D1E
  8
0
 10
2991.6005128719011736
 20
135.3164626989891133
 30
0.0
 11
2991.5943114639421765
 21
135.2252802718795976
 31
0.0
  0
ARC
  5
41D1F
  8
0
 10
2991.4943403867277993
 20
135.2320771748736092
 30
0.0
 40
0.100201867095727
 50
325.9265246763895902
 51
356.1105203915278139
  0
LINE
  5
41D20
  8
0
 10
2991.5773395762130349
 20
135.1759385187230862
 30
0.0
 11
2991.5085955085642127
 21
135.1507379180135899
 31
0.0
  0
ARC
  5
41D21
  8
0
 10
2991.5179292116458782
 20
135.1256554712225864
 30
0.0
 40
0.0267627941411571
 50
110.4112866124899028
 51
158.6496572350928886
  0
ARC
  5
41D22
  8
0
 10
2995.6351070027531023
 20
134.7836638155023934
 30
0.0
 40
4.0282703421472377
 50
183.5419581706237011
 51
188.4503191399257958
  0
ARC
  5
41D23
  8
0
 10
2987.1532105884380144
 20
134.2331365815082904
 30
0.0
 40
4.4715079711827848
 50
3.8683025321201421
 51
10.1639680870855997
  0
ARC
  5
41D24
  8
0
 10
2991.4823968244181742
 20
135.011179294562794
 30
0.0
 40
0.0729869167484466
 50
8.6883404266268212
 51
81.5840075194339533
  0
LINE
  5
41D25
  8
0
 10
2991.4930791275128286
 20
135.0833802531230106
 30
0.0
 11
2991.4930031026128745
 21
135.1353989941345048
 31
0.0
  0
ARC
  5
41D26
  8
0
 10
2955.5539966432279471
 20
-2605.5350699315699785
 30
0.0
 40
2741.1329184899941538
 50
89.1793068798322253
 51
89.1838963035531265
  0
ARC
  5
41D27
  8
0
 10
2994.1413170721739334
 20
135.0941271860340009
 30
0.0
 40
0.5080873929975283
 50
5.6678693561259861
 51
26.3682856720877794
  0
LINE
  5
41D28
  8
0
 10
2994.6469204820878076
 20
135.144306771585093
 30
0.0
 11
2994.6465341600301144
 21
133.9872919019232995
 31
0.0
  0
ARC
  5
41D29
  8
0
 10
2994.6832739022638634
 20
133.990670520698302
 30
0.0
 40
0.036894659814516
 50
185.2702494482747113
 51
245.8920019783961095
  0
ARC
  5
41D2A
  8
0
 10
2996.3322404874161293
 20
134.5567605901447052
 30
0.0
 40
1.6959248402277849
 50
153.3801126802985095
 51
157.6671228242973086
  0
ARC
  5
41D2B
  8
0
 10
2994.9497413474950918
 20
135.1246917610972105
 30
0.0
 40
0.2013179732483971
 50
157.6671219173398129
 51
179.8819167030960102
  0
LINE
  5
41D2C
  8
0
 10
2994.7484238017941607
 20
135.125106665534787
 30
0.0
 11
2994.7484534768300364
 21
133.9930088560232946
 31
0.0
  0
ARC
  5
41D2D
  8
0
 10
2994.7083368011358289
 20
133.9915720039765006
 30
0.0
 40
0.0401423991875954
 50
300.5274794656309041
 51
2.0512761854124069
  0
LINE
  5
41D2E
  8
0
 10
2994.5965419031172132
 20
135.3197887738490124
 30
0.0
 11
2994.5903404951591256
 21
135.2286063467394115
 31
0.0
  0
ARC
  5
41D2F
  8
0
 10
2994.4903694179452032
 20
135.2354032497333947
 30
0.0
 40
0.100201867095727
 50
325.9265246763895902
 51
356.1105203915278139
  0
LINE
  5
41D30
  8
0
 10
2994.573368607429984
 20
135.1792645935829
 30
0.0
 11
2994.5046245397811617
 21
135.154063992873489
 31
0.0
  0
ARC
  5
41D31
  8
0
 10
2994.5139582428619178
 20
135.1289815460824002
 30
0.0
 40
0.0267627941411571
 50
110.4112866124899028
 51
158.6496572350928886
  0
ARC
  5
41D32
  8
0
 10
2998.6311360339700514
 20
134.7836638155023934
 30
0.0
 40
4.0282703421472377
 50
183.5419581706237011
 51
188.4503191399257958
  0
ARC
  5
41D33
  8
0
 10
2990.0889616817280512
 20
134.2311278414969138
 30
0.0
 40
4.531784566727163
 50
3.842227575598991
 51
10.0958736520494305
  0
ARC
  5
41D34
  8
0
 10
2994.4784258556342138
 20
135.0145053694226078
 30
0.0
 40
0.0729869167484466
 50
8.6883404266268212
 51
81.5840075194339533
  0
LINE
  5
41D35
  8
0
 10
2994.4891081587297776
 20
135.0867063279829097
 30
0.0
 11
2994.4890321338298236
 21
135.138725068994404
 31
0.0
  0
ARC
  5
41D36
  8
0
 10
2994.8041969492178396
 20
135.119656844871713
 30
0.0
 40
0.0562402673862342
 50
85.6387601355881571
 51
172.5953389827811861
  0
ARC
  5
41D37
  8
0
 10
2958.564568671104098
 20
-2605.523548638002012
 30
0.0
 40
2741.1329184899941538
 50
89.1793068798322253
 51
89.1838963035531265
  0
ARC
  5
41D38
  8
0
 10
2997.1518891000500844
 20
135.1056484796019106
 30
0.0
 40
0.5080873929975283
 50
5.6678693561259861
 51
26.3682856720877794
  0
LINE
  5
41D39
  8
0
 10
2997.6574925099639586
 20
135.1558280651530026
 30
0.0
 11
2997.6571061879058107
 21
133.9872919019232995
 31
0.0
  0
ARC
  5
41D3A
  8
0
 10
2997.6938459301400144
 20
133.990670520698302
 30
0.0
 40
0.036894659814516
 50
185.2702494482747113
 51
245.8920019783961095
  0
ARC
  5
41D3B
  8
0
 10
2999.3428125153050132
 20
134.5682818837071864
 30
0.0
 40
1.695924840241448
 50
153.3801126803290913
 51
157.6671228242898053
  0
ARC
  5
41D3C
  8
0
 10
2997.960313375370788
 20
135.1362130546650917
 30
0.0
 40
0.2013179732483971
 50
157.6671219173398129
 51
179.8819167030960102
  0
LINE
  5
41D3D
  8
0
 10
2997.7589958296698569
 20
135.1366279591028103
 30
0.0
 11
2997.7590255047061873
 21
133.9930088560232946
 31
0.0
  0
ARC
  5
41D3E
  8
0
 10
2997.7189088290119798
 20
133.9915720039765006
 30
0.0
 40
0.0401423991875954
 50
300.5274794656309041
 51
2.0512761854124069
  0
LINE
  5
41D3F
  8
0
 10
2997.6071139309929094
 20
135.3313100674168936
 30
0.0
 11
2997.6009125230348218
 21
135.2401276403072927
 31
0.0
  0
ARC
  5
41D40
  8
0
 10
2997.5009414458208994
 20
135.2469245433013043
 30
0.0
 40
0.100201867095727
 50
325.9265246763895902
 51
356.1105203915278139
  0
LINE
  5
41D41
  8
0
 10
2997.5839406353061349
 20
135.1907858871508097
 30
0.0
 11
2997.515196567656858
 21
135.1655852864413987
 31
0.0
  0
ARC
  5
41D42
  8
0
 10
2997.5245302707389783
 20
135.1405028396503951
 30
0.0
 40
0.0267627941411571
 50
110.4112866124899028
 51
158.6496572350928886
  0
ARC
  5
41D43
  8
0
 10
3001.6417080618471118
 20
134.7836638155023934
 30
0.0
 40
4.0282703421472377
 50
183.5419581706237011
 51
188.4503191399257958
  0
ARC
  5
41D44
  8
0
 10
2992.8875659655691379
 20
134.2241671953703133
 30
0.0
 40
4.743747863531464
 50
3.7545545030230199
 51
9.8668553107090222
  0
ARC
  5
41D45
  8
0
 10
2997.4889978835108195
 20
135.0260266629904891
 30
0.0
 40
0.0729869167484466
 50
8.6883404266268212
 51
81.5840075194339533
  0
LINE
  5
41D46
  8
0
 10
2997.4996801866059286
 20
135.0982276215507909
 30
0.0
 11
2997.4996041617059745
 21
135.1502463625623136
 31
0.0
  0
ARC
  5
41D47
  8
0
 10
2997.814768977093081
 20
135.1311781384395942
 30
0.0
 40
0.0562402673862342
 50
85.6387601355881571
 51
172.5953389827811861
  0
ARC
  5
41D48
  8
0
 10
2961.5605970208948747
 20
-2605.4959441620990219
 30
0.0
 40
2741.1329184899941538
 50
89.1793068798322253
 51
89.1838963035531265
  0
ARC
  5
41D49
  8
0
 10
3000.1479174498408611
 20
135.1332529555043038
 30
0.0
 40
0.5080873929975283
 50
5.6678693561259861
 51
26.3682856720877794
  0
LINE
  5
41D4A
  8
0
 10
3000.65352085975519
 20
135.1834325410555095
 30
0.0
 11
3000.6531345376970421
 21
134.0024221303056891
 31
0.0
  0
ARC
  5
41D4B
  8
0
 10
3000.6898742799307911
 20
134.0058007490806915
 30
0.0
 40
0.036894659814516
 50
185.2702494482747113
 51
245.8920019783961095
  0
ARC
  5
41D4C
  8
0
 10
3002.3388408649980192
 20
134.5958863596520132
 30
0.0
 40
1.695924840134881
 50
153.3801126801317025
 51
157.6671228243592111
  0
ARC
  5
41D4D
  8
0
 10
3000.9563417251620194
 20
135.1638175305675134
 30
0.0
 40
0.2013179732483971
 50
157.6671219173398129
 51
179.8819167030960102
  0
LINE
  5
41D4E
  8
0
 10
3000.7550241794610884
 20
135.1642324350052036
 30
0.0
 11
3000.755053854496964
 21
134.0081390844057125
 31
0.0
  0
ARC
  5
41D4F
  8
0
 10
3000.7165159366782063
 20
134.006791592048387
 30
0.0
 40
0.0385614684037818
 50
299.1983848658646821
 51
2.0025520101437562
  0
LINE
  5
41D50
  8
0
 10
3000.6031422807841409
 20
135.3589145433192868
 30
0.0
 11
3000.5969408728260532
 21
135.2677321162097996
 31
0.0
  0
ARC
  5
41D51
  8
0
 10
3000.4969697956121308
 20
135.2745290192038112
 30
0.0
 40
0.100201867095727
 50
325.9265246763895902
 51
356.1105203915278139
  0
LINE
  5
41D52
  8
0
 10
3000.5799689850969116
 20
135.2183903630532029
 30
0.0
 11
3000.5112249174480894
 21
135.1931897623437919
 31
0.0
  0
ARC
  5
41D53
  8
0
 10
3000.5205586205288455
 20
135.1681073155527884
 30
0.0
 40
0.0267627941411571
 50
110.4112866124899028
 51
158.6496572350928886
  0
ARC
  5
41D54
  8
0
 10
3004.637736411636979
 20
134.7836638155023934
 30
0.0
 40
4.0282703421472377
 50
183.5419581706237011
 51
188.4503191399257958
  0
ARC
  5
41D55
  8
0
 10
2995.355720169954111
 20
134.2074752255952887
 30
0.0
 40
5.27161250024957
 50
3.559891232249202
 51
9.3580302224054641
  0
ARC
  5
41D56
  8
0
 10
3000.4850262333011415
 20
135.053631138892996
 30
0.0
 40
0.0729869167484466
 50
8.6883404266268212
 51
81.5840075194339533
  0
LINE
  5
41D57
  8
0
 10
3000.4957085363971601
 20
135.1258320974532126
 30
0.0
 11
3000.495632511497206
 21
135.1778508384647068
 31
0.0
  0
ARC
  5
41D58
  8
0
 10
3000.8107973268838577
 20
135.1587826143419875
 30
0.0
 40
0.0562402673862342
 50
85.6387601355881571
 51
172.5953389827811861
  0
ARC
  5
41D59
  8
0
 10
2964.5711697301971981
 20
-2605.4583568296311569
 30
0.0
 40
2741.1329184899941538
 50
89.1793068798322253
 51
89.1838963035531265
  0
ARC
  5
41D5A
  8
0
 10
3003.1584901591431844
 20
135.1708402879725099
 30
0.0
 40
0.5080873929975283
 50
5.6678693561259861
 51
26.3682856720877794
  0
LINE
  5
41D5B
  8
0
 10
3003.6640935690570586
 20
135.221019873523602
 30
0.0
 11
3003.6637072469989107
 21
133.9872919019232995
 31
0.0
  0
ARC
  5
41D5C
  8
0
 10
3003.7004469892331144
 20
133.990670520698302
 30
0.0
 40
0.036894659814516
 50
185.2702494482747113
 51
245.8920019783961095
  0
ARC
  5
41D5D
  8
0
 10
3005.34941357434991
 20
134.6334736920985051
 30
0.0
 40
1.6959248401893909
 50
153.380112680233708
 51
157.6671228243297946
  0
ARC
  5
41D5E
  8
0
 10
3003.966914434463888
 20
135.2014048630356911
 30
0.0
 40
0.2013179732483971
 50
157.6671219173398129
 51
179.8819167030960102
  0
LINE
  5
41D5F
  8
0
 10
3003.765596888762957
 20
135.201819767473296
 30
0.0
 11
3003.7656265637988326
 21
133.9930088560232946
 31
0.0
  0
ARC
  5
41D60
  8
0
 10
3003.7255098881050799
 20
133.9915720039765006
 30
0.0
 40
0.0401423991875954
 50
300.5274794656309041
 51
2.0512761854124069
  0
LINE
  5
41D61
  8
0
 10
3003.613714990086919
 20
135.3965018757874077
 30
0.0
 11
3003.6075135821279218
 21
135.3053194486778921
 31
0.0
  0
ARC
  5
41D62
  8
0
 10
3003.5075425049149089
 20
135.3121163516719037
 30
0.0
 40
0.100201867095727
 50
325.9265246763895902
 51
356.1105203915278139
  0
LINE
  5
41D63
  8
0
 10
3003.5905416943987802
 20
135.255977695521409
 30
0.0
 11
3003.521797626749958
 21
135.2307770948119128
 31
0.0
  0
ARC
  5
41D64
  8
0
 10
3003.5311313298320783
 20
135.2056946480209092
 30
0.0
 40
0.0267627941411571
 50
110.4112866124899028
 51
158.6496572350928886
  0
ARC
  5
41D65
  8
0
 10
3007.6483091209402119
 20
134.7836638155023934
 30
0.0
 40
4.0282703421472377
 50
183.5419581706237011
 51
188.4503191399257958
  0
ARC
  5
41D66
  8
0
 10
2997.6021214065522145
 20
134.184718113324891
 30
0.0
 40
6.0357731745207692
 50
3.3250827390947491
 51
8.7436945515628821
  0
ARC
  5
41D67
  8
0
 10
3003.4955989426030101
 20
135.0912184713610884
 30
0.0
 40
0.0729869167484466
 50
8.6883404266268212
 51
81.5840075194339533
  0
LINE
  5
41D68
  8
0
 10
3003.5062812456990287
 20
135.1634194299213902
 30
0.0
 11
3003.5062052207990746
 21
135.215438170932913
 31
0.0
  0
ARC
  5
41D69
  8
0
 10
3003.8213700361870906
 20
135.1963699468101083
 30
0.0
 40
0.0562402673862342
 50
85.6387601355881571
 51
172.5953389827811861
  0
ARC
  5
41D6A
  8
0
 10
2989.0173570703891528
 20
333.9115919495313278
 30
0.0
 40
198.7180217117021925
 50
269.0734563797184933
 51
269.8732237754101106
  0
ARC
  5
41D6B
  8
0
 10
2991.6385254198639814
 20
408.7387998524819182
 30
0.0
 40
273.5628681762582914
 50
269.4081545720094937
 51
269.9871850640278126
  0
ARC
  5
41D6C
  8
0
 10
2991.8307134272849908
 20
135.0870630555045864
 30
0.0
 40
0.0916028344703665
 50
108.1352054649801033
 51
148.1750721738553978
  0
ARC
  5
41D6D
  8
0
 10
2993.2022002390108355
 20
730.5050829415428097
 30
0.0
 40
595.3326135927002269
 50
269.865261679595676
 51
270.1305855380501839
  0
ARC
  5
41D6E
  8
0
 10
2994.5559588401551991
 20
437.6393497181286989
 30
0.0
 40
302.4637208611520123
 50
270.0478339620959218
 51
270.5736009424460917
  0
ARC
  5
41D6F
  8
0
 10
3068.4547307959669524
 20
-6006.1028611985966563
 30
0.0
 40
6141.6963209013847518
 50
90.6332153774663851
 51
90.6589736208892276
  0
ARC
  5
41D70
  8
0
 10
3005.8554966962401522
 20
-111.3233348583502931
 30
0.0
 40
246.5897147098806954
 50
90.5262757505911964
 51
91.1712372385860448
  0
ARC
  5
41D71
  8
0
 10
3007.3675485816697801
 20
15.3879574467362499
 30
0.0
 40
119.9168087129158948
 50
90.4765379374864693
 51
91.692552895818153
  0
ARC
  5
41D72
  8
0
 10
3006.3563267285771872
 20
136.9678019812764092
 30
0.0
 40
1.667241090827366
 50
270.476537937486512
 51
343.1021251660914118
  0
ARC
  5
41D73
  8
0
 10
3008.0952570997901603
 20
136.4395449911093863
 30
0.0
 40
0.1501565771551898
 50
95.945279703970499
 51
163.1021251660928897
  0
LINE
  5
41D74
  8
0
 10
2985.1967004692742194
 20
133.9569939167753034
 30
0.0
 11
3000.0558246136679372
 21
133.9569939167753034
 31
0.0
  0
LINE
  5
41D75
  8
0
 10
3003.1941941878890248
 20
133.9569939167753034
 30
0.0
 11
3004.1941941885529559
 21
133.9569939167753034
 31
0.0
  0
ARC
  5
41D76
  8
0
 10
2999.2368082411931027
 20
180.1319044946029919
 30
0.0
 40
46.1821735595972669
 50
271.0161635546656953
 51
271.7843341259397789
  0
ARC
  5
41D77
  8
0
 10
3000.7171442646431387
 20
133.2457954335390866
 30
0.0
 40
0.7275617262796219
 50
88.5679080518290647
 51
93.336168988947577
  0
ARC
  5
41D78
  8
0
 10
2979.6653382724130097
 20
970.5808064830748663
 30
0.0
 40
836.8729586735794328
 50
271.4426909423041252
 51
271.5972084302359235
  0
ARC
  5
41D79
  8
0
 10
3002.8230081161809721
 20
133.2752080458562887
 30
0.0
 40
0.7762802826012877
 50
61.4347111736589966
 51
77.4683642035689957
  0
ARC
  5
41D7A
  8
0
 10
3002.8357466443299018
 20
133.3325180642054875
 30
0.0
 40
0.7175716094550393
 50
77.4683642035689957
 51
91.6877015318032136
  0
ARC
  5
41D7B
  8
0
 10
2998.0222451343252033
 20
296.698816607188121
 30
0.0
 40
162.7196251862000906
 50
270.9622131281619204
 51
271.6877015318030999
  0
ARC
  5
41D7C
  8
0
 10
3084.3715647067920145
 20
232.2421453836462888
 30
0.0
 40
127.2632287091049932
 50
229.6626630766340895
 51
230.1034483312089947
  0
ARC
  5
41D7D
  8
0
 10
3001.7889930766468751
 20
133.4624174922998066
 30
0.0
 40
1.4896966143085959
 50
19.3900961197488506
 51
50.1034483312089378
  0
ARC
  5
41D7E
  8
0
 10
3005.6081699463129553
 20
133.4563302511596135
 30
0.0
 40
1.4999971831977359
 50
130.0083363234718945
 51
160.5018511303422031
  0
ARC
  5
41D7F
  8
0
 10
3040.5614366509389583
 20
91.8129554371220138
 30
0.0
 40
55.868200383479369
 50
128.9035262409884126
 51
130.0083363234718945
  0
ARC
  5
41D80
  8
0
 10
3004.6547031283162141
 20
133.3132235110471981
 30
0.0
 40
0.7915231006830743
 50
97.0934518358503169
 51
125.5773161576679939
  0
ARC
  5
41D81
  8
0
 10
3004.2920845057869883
 20
136.2272149128930039
 30
0.0
 40
2.144943850507774
 50
277.0934518358503169
 51
298.4960682868704112
  0
ARC
  5
41D82
  8
0
 10
2820.3650776444210351
 20
475.0340626537771982
 30
0.0
 40
387.6565830121496106
 50
298.4960682868704112
 51
298.8351685226293739
  0
ARC
  5
41D83
  8
0
 10
3006.3438764504098799
 20
136.7775958546361892
 30
0.0
 40
1.6587631591053711
 50
306.4138005426175937
 51
349.286757314943884
  0
ARC
  5
41D84
  8
0
 10
3008.1230506385750232
 20
136.4374274691207916
 30
0.0
 40
0.1526751026056017
 50
97.2142569093663269
 51
167.9724545723539109
  0
ARC
  5
41D85
  8
0
 10
2987.3576643374931336
 20
1007.1695024321260235
 30
0.0
 40
873.1324847718352657
 50
270.8791836518291802
 51
271.0327612587096837
  0
ARC
  5
41D86
  8
0
 10
2987.0118303326780733
 20
1026.675818539581087
 30
0.0
 40
892.6716496642147831
 50
270.8821675178477904
 51
271.0333655930649002
  0
ARC
  5
41D87
  8
0
 10
2986.2017908316111061
 20
926.2137141347918714
 30
0.0
 40
792.2675721225700727
 50
271.0525324694136771
 51
271.2237631956937207
  0
ARC
  5
41D88
  8
0
 10
2997.8652915848670091
 20
335.3389326270768152
 30
0.0
 40
201.3095830100201908
 50
270.8224983852338141
 51
271.5003314828866792
  0
ARC
  5
41D89
  8
0
 10
3004.3111311952770848
 20
136.5025458239385898
 30
0.0
 40
2.3015334157933651
 50
269.874313929962625
 51
278.5593236466287976
  0
ARC
  5
41D8A
  8
0
 10
3004.3708097605958756
 20
136.106036021499591
 30
0.0
 40
1.9005576626751941
 50
278.5593236466287976
 51
299.403468545160024
  0
ARC
  5
41D8B
  8
0
 10
3017.0002062895691779
 20
114.410106493459395
 30
0.0
 40
23.2037266989798994
 50
115.4861010332160021
 51
120.2696445821687945
  0
ARC
  5
41D8C
  8
0
 10
3004.4374406256370094
 20
132.1050473550679953
 30
0.0
 40
2.070727479586278
 50
89.8687044613009647
 51
94.1056092499289605
  0
ARC
  5
41D8D
  8
0
 10
3004.3444185480698252
 20
136.1818765315231019
 30
0.0
 40
2.00848805389986
 50
272.7900907750093893
 51
282.5856009108650824
  0
ARC
  5
41D8E
  8
0
 10
3004.3355442864180986
 20
136.2114839283840126
 30
0.0
 40
2.039318911730525
 50
282.64768182877242
 51
298.7969787952134766
  0
ARC
  5
41D8F
  8
0
 10
2992.7278267224378396
 20
158.5854437268139066
 30
0.0
 40
27.2445909533156403
 50
297.523523317526724
 51
300.6586357638925051
  0
ARC
  5
41D90
  8
0
 10
3013.3657482291841916
 20
122.7332779312842064
 30
0.0
 40
14.1298049525406206
 50
116.7051435149453056
 51
118.5145096197720989
  0
ARC
  5
41D91
  8
0
 10
3004.1974658250542234
 20
138.999871850435909
 30
0.0
 40
4.8784513321500276
 50
270.7798831102667236
 51
273.7331328936562045
  0
ARC
  5
41D92
  8
0
 10
3004.4115107988568525
 20
135.7193793733825089
 30
0.0
 40
1.5909832877708781
 50
273.7331328936562045
 51
286.0883151605107741
  0
ARC
  5
41D93
  8
0
 10
3004.1798567608370831
 20
136.5225783689317893
 30
0.0
 40
2.4269212159580951
 50
286.0883151605107741
 51
299.215068001143095
  0
ARC
  5
41D94
  8
0
 10
3476.3981952815611294
 20
-707.8911180458837862
 30
0.0
 40
965.0567478597555464
 50
119.128924560975193
 51
119.215068001143095
  0
ARC
  5
41D95
  8
0
 10
3010.5970787263081547
 20
127.9950170265817064
 30
0.0
 40
8.1469762561293848
 50
116.0800272549372067
 51
119.128924560975193
  0
ARC
  5
41D96
  8
0
 10
3006.1683410209730027
 20
136.3766502665197891
 30
0.0
 40
1.3601763238092439
 50
296.0891334143768745
 51
308.5213325276312162
  0
ARC
  5
41D97
  8
0
 10
3135.6306388595821772
 20
-95.489794030175446
 30
0.0
 40
264.202600921229191
 50
119.192632682598699
 51
119.2957509700797942
  0
ARC
  5
41D98
  8
0
 10
3024.0298600501919282
 20
103.1365382717501973
 30
0.0
 40
36.3714818083509428
 50
119.0810940132078031
 51
120.2781135845156939
  0
ARC
  5
41D99
  8
0
 10
2982.7756556839030964
 20
135.097373801796607
 30
0.0
 40
0.0643988000354208
 50
90.4624692566001869
 51
119.2076758281994984
  0
ARC
  5
41D9A
  8
0
 10
2985.4647934654071832
 20
250.7691503645733064
 30
0.0
 40
115.6386636731332942
 50
268.6672284081682278
 51
270.010073595783922
  0
ARC
  5
41D9B
  8
0
 10
2985.7710022109699821
 20
135.0554730851233955
 30
0.0
 40
0.0652558385998607
 50
90.1333463285548646
 51
114.0177943528968996
  0
ARC
  5
41D9C
  8
0
 10
2986.1082382874587893
 20
-9.8466716083215573
 30
0.0
 40
144.9677929624589012
 50
89.0572669698617858
 51
90.1333463285548646
  0
ARC
  5
41D9D
  8
0
 10
2988.7756363005560161
 20
135.0103826779225074
 30
0.0
 40
0.0633075321376258
 50
90.9220370348060953
 51
111.223508086233096
  0
ARC
  5
41D9E
  8
0
 10
2990.5992373568701623
 20
4.627840930846375
 30
0.0
 40
130.4586014526333031
 50
89.6074328473676189
 51
90.8013762288591835
  0
ARC
  5
41D9F
  8
0
 10
2991.7757422968697938
 20
134.9893537002232051
 30
0.0
 40
0.0637723046001194
 50
88.348277737669946
 51
111.4739081435810988
  0
ARC
  5
41DA0
  8
0
 10
2993.1151333611778682
 20
35.0696257008061565
 30
0.0
 40
99.9924201237561476
 50
89.2163921897211907
 51
90.7664423071950921
  0
ARC
  5
41DA1
  8
0
 10
2994.484723964803834
 20
134.9796897073269974
 30
0.0
 40
0.0730343077765108
 50
14.8441689406866306
 51
91.6345567592352666
  0
ARC
  5
41DA2
  8
0
 10
2994.7757712906118286
 20
134.989937888624894
 30
0.0
 40
0.0637910523141859
 50
91.8259081965107953
 51
115.3833297345732944
  0
ARC
  5
41DA3
  8
0
 10
2997.5699796117201004
 20
47.3392313388762389
 30
0.0
 40
87.7590244393798002
 50
90.045896827340016
 51
91.8259081965107953
  0
ARC
  5
41DA4
  8
0
 10
2997.7863097277909219
 20
134.9461478274828892
 30
0.0
 40
0.1297428755792552
 50
86.0099278273651038
 51
102.8011352851512044
  0
ARC
  5
41DA5
  8
0
 10
2991.0935165450828208
 20
770.3380908230202522
 30
0.0
 40
635.2978646775519564
 50
270.6044301598024049
 51
270.8467627031146208
  0
ARC
  5
41DA6
  8
0
 10
3000.4893634141590155
 20
135.0334877447807003
 30
0.0
 40
0.0764602805265593
 50
29.5777172460492288
 51
95.4412650355667438
  0
ARC
  5
41DA7
  8
0
 10
3000.7779552805841377
 20
135.0421403526360962
 30
0.0
 40
0.0721143947786037
 50
93.925702794002973
 51
110.0060263923248982
  0
ARC
  5
41DA8
  8
0
 10
3007.8645457399070438
 20
-295.2269241176828132
 30
0.0
 40
430.3994358264450284
 50
90.7652690059007341
 51
90.9440834616104041
  0
LINE
  5
41DA9
  8
0
 10
3009.089694187870009
 20
209.5133671994232998
 30
0.0
 11
3002.6034135016138862
 21
209.1755716862074905
 31
0.0
  0
ARC
  5
41DAA
  8
0
 10
3002.6165546131210249
 20
208.923238737931797
 30
0.0
 40
0.2526749010035378
 50
92.9811827886515232
 51
141.0892115590600042
  0
LINE
  5
41DAB
  8
0
 10
3002.4199419827709789
 20
209.0819462651128902
 30
0.0
 11
3001.3839605479711281
 21
207.9900915934233012
 31
0.0
  0
ARC
  5
41DAC
  8
0
 10
3001.4746655356088922
 20
207.9039512258920865
 30
0.0
 40
0.1250901982606068
 50
136.478554016821704
 51
182.4043273577013053
  0
ARC
  5
41DAD
  8
0
 10
3000.0078292084331224
 20
209.0828000775427995
 30
0.0
 40
0.1249975451162855
 50
45.0404271881981728
 51
90.017508022055253
  0
LINE
  5
41DAE
  8
0
 10
3000.0961534337279772
 20
209.1712490318112998
 30
0.0
 11
3001.2669128736711173
 21
208.0004895919232979
 31
0.0
  0
ARC
  5
41DAF
  8
0
 10
3001.1638010511419452
 20
207.897403627275196
 30
0.0
 40
0.145803854724432
 50
359.9492498726302188
 51
44.9928149210379615
  0
LINE
  5
41DB0
  8
0
 10
3001.3096048486700056
 20
207.8972744805336106
 30
0.0
 11
3001.3094557048198112
 21
207.7288943915100958
 31
0.0
  0
ARC
  5
41DB1
  8
0
 10
3000.8342002550448342
 20
207.721003053156096
 30
0.0
 40
0.4754700840867967
 50
353.3547243261127733
 51
0.9509770597472538
  0
LINE
  5
41DB2
  8
0
 10
2975.0285214282707784
 20
137.3262341372233095
 30
0.0
 11
2975.0285214282707784
 21
207.6994662508232921
 31
0.0
  0
ARC
  5
41DB3
  8
0
 10
2975.3311647619038922
 20
207.6996936052568117
 30
0.0
 40
0.3026342762209165
 50
90.0023491513618836
 51
180.0430422421615049
  0
LINE
  5
41DB4
  8
0
 10
2975.3311523537699941
 20
208.0023278812232945
 30
0.0
 11
3001.0922981318699385
 21
208.0022053058233098
 31
0.0
  0
ARC
  5
41DB5
  8
0
 10
3001.0892418994108084
 20
207.7286986205654102
 30
0.0
 40
0.2735237602798257
 50
74.5908732581070808
 51
89.3597892012730597
  0
ARC
  5
41DB6
  8
0
 10
3001.1163572614459554
 20
207.8675318169015895
 30
0.0
 40
0.1329117138415297
 50
24.9567531317860798
 51
69.952252228004582
  0
ARC
  5
41DB7
  8
0
 10
3000.9014605701909204
 20
207.7994236377035122
 30
0.0
 40
0.3576513678933752
 50
2.4291509916592862
 51
20.3181321016862704
  0
LINE
  5
41DB8
  8
0
 10
3001.2587905508689801
 20
207.8145823271233041
 30
0.0
 11
3001.2592386610699577
 21
207.6659806650233122
 31
0.0
  0
LINE
  5
41DB9
  8
0
 10
3001.2592386612018345
 20
207.6659806211683872
 30
0.0
 11
3001.3064759556700665
 21
207.6659806626232978
 31
0.0
  0
LINE
  5
41DBA
  8
0
 10
3001.3496854586878726
 20
207.8987035527246121
 30
0.0
 11
3001.3472881190700718
 21
207.6572975321232946
 31
0.0
  0
ARC
  5
41DBB
  8
0
 10
3001.2191166565048661
 20
207.6585703691644937
 30
0.0
 40
0.1281777825142995
 50
315.4694718346246987
 51
359.4310294056658108
  0
LINE
  5
41DBC
  8
0
 10
3001.3104916356701324
 20
207.5686806750233018
 30
0.0
 11
3000.8642023428951688
 21
207.1221600244232945
 31
0.0
  0
ARC
  5
41DBD
  8
0
 10
3001.0557783473650488
 20
206.951944598575011
 30
0.0
 40
0.2557177913818728
 50
135.4277949522754909
 51
179.397723070975502
  0
LINE
  5
41DBE
  8
0
 10
3000.8000746837701627
 20
206.9546325817233026
 30
0.0
 11
3000.8007388936521238
 21
138.1288939168233014
 31
0.0
  0
LINE
  5
41DBF
  8
0
 10
2978.3258616486700703
 20
138.1288939168233014
 30
0.0
 11
2978.3258616486700703
 21
207.1337520202455096
 31
0.0
  0
ARC
  5
41DC0
  8
0
 10
2978.3258696259667886
 20
207.0677913904335981
 30
0.0
 40
0.7515581538087894
 50
83.858862016575344
 51
96.1411447534548103
  0
LINE
  5
41DC1
  8
0
 10
2978.2856885948699528
 20
207.1345653694233135
 30
0.0
 11
2978.2834331593339812
 21
207.8181505076942983
 31
0.0
  0
LINE
  5
41DC2
  8
0
 10
2978.3720880160549314
 20
207.8179270574794941
 30
0.0
 11
2978.3664358132700727
 21
207.1329305501232909
 31
0.0
  0
LINE
  5
41DC3
  8
0
 10
2978.3664358132700727
 20
207.1329305501232909
 30
0.0
 11
2978.2856885948699528
 21
207.1345653694233135
 31
0.0
  0
ARC
  5
41DC4
  8
0
 10
2979.0207321081470582
 20
207.3867047995763926
 30
0.0
 40
0.7770863907236228
 50
184.1419586962144024
 51
198.9333285891732999
  0
LINE
  5
41DC5
  8
0
 10
2978.2456753453420788
 20
207.3305775060620135
 30
0.0
 11
2978.2384859798698926
 21
207.7783823128233109
 31
0.0
  0
LINE
  5
41DC6
  8
0
 10
2978.2384859798698926
 20
207.7783823128233109
 30
0.0
 11
2978.2454693713661982
 21
207.8150366363981902
 31
0.0
  0
ARC
  5
41DC7
  8
0
 10
2977.5738485976771699
 20
207.3945728043971997
 30
0.0
 40
0.8346563146255199
 50
341.7313426569169224
 51
355.6026660260548056
  0
LINE
  5
41DC8
  8
0
 10
2978.4060479519989713
 20
207.3305775060620135
 30
0.0
 11
2978.4132373174697932
 21
207.7783823128233109
 31
0.0
  0
LINE
  5
41DC9
  8
0
 10
2978.4132373174697932
 20
207.7783823128233109
 30
0.0
 11
2978.4062539259739424
 21
207.8150366363981902
 31
0.0
  0
ARC
  5
41DCA
  8
0
 10
2978.2376930340819854
 20
207.7635282192838133
 30
0.0
 40
0.029853944146102
 50
83.05659954426703
 51
87.8677638945550683
  0
LINE
  5
41DCB
  8
0
 10
2978.2388037784699009
 20
207.7933614931233137
 30
0.0
 11
2975.4785165266707736
 21
207.7933640974233072
 31
0.0
  0
ARC
  5
41DCC
  8
0
 10
2975.4737562338968928
 20
208.8778277203624896
 30
0.0
 40
1.0844740706286231
 50
263.8615474648836994
 51
270.251500306379512
  0
ARC
  5
41DCD
  8
0
 10
2975.3580403606729305
 20
207.6594082146106928
 30
0.0
 40
0.1401635915674461
 50
90.1015509920449631
 51
179.8547869657535045
  0
LINE
  5
41DCE
  8
0
 10
2975.2178772192701217
 20
207.6597634512233128
 30
0.0
 11
2975.1914087851841941
 21
137.2717322993007087
 31
0.0
  0
ARC
  5
41DCF
  8
0
 10
2975.0064599312340761
 20
137.2373111745951064
 30
0.0
 40
0.1881246724998224
 50
358.4371189256361845
 51
10.5427874860458299
  0
ARC
  5
41DD0
  8
0
 10
2975.2265255805209563
 20
137.2349123290173907
 30
0.0
 40
0.0321273373304914
 50
184.87826261171341
 51
266.9927776690693122
  0
LINE
  5
41DD1
  8
0
 10
2975.2248401214019395
 20
137.2028292332892931
 30
0.0
 11
2975.2937130466912095
 21
137.200725976213505
 31
0.0
  0
ARC
  5
41DD2
  8
0
 10
2982.1696048469711968
 20
207.0735842220645111
 30
0.0
 40
0.7515581538087894
 50
83.858862016575344
 51
96.1411447534548103
  0
LINE
  5
41DD3
  8
0
 10
2982.1294238158729968
 20
205.9443865772848881
 30
0.0
 11
2982.1271683803370252
 21
207.8239433393250977
 31
0.0
  0
LINE
  5
41DD4
  8
0
 10
2982.2158232370579753
 20
207.8237198891102935
 30
0.0
 11
2982.2101710342731167
 21
205.9427517579848939
 31
0.0
  0
LINE
  5
41DD5
  8
0
 10
2982.2101710342731167
 20
205.9427517579848939
 30
0.0
 11
2982.1294238158729968
 21
205.9443865772848881
 31
0.0
  0
ARC
  5
41DD6
  8
0
 10
2982.8644673291501022
 20
206.1965260074379955
 30
0.0
 40
0.7770863907236228
 50
184.1419586962144024
 51
198.9333285891732999
  0
LINE
  5
41DD7
  8
0
 10
2982.0894105663442133
 20
206.140398713923588
 30
0.0
 11
2982.0822212008738461
 21
207.7841751444541103
 31
0.0
  0
LINE
  5
41DD8
  8
0
 10
2982.0822212008738461
 20
207.7841751444541103
 30
0.0
 11
2982.0892045923687874
 21
207.8208294680289896
 31
0.0
  0
ARC
  5
41DD9
  8
0
 10
2981.4175838186802139
 20
206.2043940122588026
 30
0.0
 40
0.8346563146255761
 50
341.7313426569184003
 51
355.6026660260548056
  0
LINE
  5
41DDA
  8
0
 10
2982.2497831730020152
 20
206.140398713923588
 30
0.0
 11
2982.2569725384742014
 21
207.7841751444541103
 31
0.0
  0
LINE
  5
41DDB
  8
0
 10
2982.2569725384742014
 20
207.7841751444541103
 30
0.0
 11
2982.2499891469769864
 21
207.8208294680289896
 31
0.0
  0
ARC
  5
41DDC
  8
0
 10
2985.1695970807231788
 20
207.07373297925011
 30
0.0
 40
0.7514094429650731
 50
83.8582470231260544
 51
96.1417530302545771
  0
LINE
  5
41DDD
  8
0
 10
2985.1294242303229112
 20
205.9443866375848984
 30
0.0
 11
2985.1271685913870897
 21
207.8239433856251139
 31
0.0
  0
LINE
  5
41DDE
  8
0
 10
2985.2158234481080399
 20
207.8237199354103097
 30
0.0
 11
2985.2101712453240907
 21
205.9427518042849101
 31
0.0
  0
LINE
  5
41DDF
  8
0
 10
2985.2101712453240907
 20
205.9427518042849101
 30
0.0
 11
2985.1294240269230613
 21
205.9443866235849043
 31
0.0
  0
ARC
  5
41DE0
  8
0
 10
2985.8644675402001667
 20
206.1965260537380118
 30
0.0
 40
0.7770863907236228
 50
184.1419586962144024
 51
198.9333285891732999
  0
LINE
  5
41DE1
  8
0
 10
2985.0894107773951873
 20
206.1403987602236043
 30
0.0
 11
2985.0822214119239106
 21
207.7841751907540981
 31
0.0
  0
LINE
  5
41DE2
  8
0
 10
2985.0822214119239106
 20
207.7841751907540981
 30
0.0
 11
2985.089204803418852
 21
207.8208295143290059
 31
0.0
  0
ARC
  5
41DE3
  8
0
 10
2984.4747266212471004
 20
206.1965260537380118
 30
0.0
 40
0.7770863907236228
 50
341.0666714108265865
 51
355.8580413037847165
  0
LINE
  5
41DE4
  8
0
 10
2985.2497833840520798
 20
206.1403987602236043
 30
0.0
 11
2985.2569727495229017
 21
207.7841751907540981
 31
0.0
  0
LINE
  5
41DE5
  8
0
 10
2985.2569727495229017
 20
207.7841751907540981
 30
0.0
 11
2985.2499893580270509
 21
207.8208295143290059
 31
0.0
  0
ARC
  5
41DE6
  8
0
 10
2988.5495968697728131
 20
207.0737329329998886
 30
0.0
 40
0.7514094429652208
 50
83.8582470231260544
 51
96.1417530302545771
  0
LINE
  5
41DE7
  8
0
 10
2988.5094238159731503
 20
205.8604588822483947
 30
0.0
 11
2988.5071683804371787
 21
207.8239433393750915
 31
0.0
  0
LINE
  5
41DE8
  8
0
 10
2988.5958232371572194
 20
207.823719889160202
 30
0.0
 11
2988.5901710343741797
 21
205.8588240629485142
 31
0.0
  0
LINE
  5
41DE9
  8
0
 10
2988.5901710343741797
 20
205.8588240629485142
 30
0.0
 11
2988.5094238159731503
 21
205.8604588822483947
 31
0.0
  0
ARC
  5
41DEA
  8
0
 10
2989.244467329249801
 20
206.1125983124015875
 30
0.0
 40
0.7770863907236228
 50
184.1419586962144024
 51
198.9333285891732999
  0
LINE
  5
41DEB
  8
0
 10
2988.4694105664448216
 20
206.0564710188872084
 30
0.0
 11
2988.4622212009730902
 21
207.7841751445041893
 31
0.0
  0
LINE
  5
41DEC
  8
0
 10
2988.4622212009730902
 20
207.7841751445041893
 30
0.0
 11
2988.469204592468941
 21
207.8208294680790118
 31
0.0
  0
ARC
  5
41DED
  8
0
 10
2987.7975838187799127
 20
206.1204663172223945
 30
0.0
 40
0.8346563146254929
 50
341.7313426569169224
 51
355.6026660260548056
  0
LINE
  5
41DEE
  8
0
 10
2988.6297831731021688
 20
206.0564710188872084
 30
0.0
 11
2988.6369725385739002
 21
207.7841751445041893
 31
0.0
  0
LINE
  5
41DEF
  8
0
 10
2988.6369725385739002
 20
207.7841751445041893
 30
0.0
 11
2988.6299891470771399
 21
207.8208294680790118
 31
0.0
  0
ARC
  5
41DF0
  8
0
 10
2991.2995968699237892
 20
207.0737329328501062
 30
0.0
 40
0.7514094429650943
 50
83.8582470231260544
 51
96.1417530302545771
  0
LINE
  5
41DF1
  8
0
 10
2991.259423816123217
 20
205.8730345257663998
 30
0.0
 11
2991.2571683805867906
 21
207.8239433392251101
 31
0.0
  0
LINE
  5
41DF2
  8
0
 10
2991.3458232373081955
 20
207.8237198890103059
 30
0.0
 11
2991.3401710345237916
 21
205.8713997064664056
 31
0.0
  0
LINE
  5
41DF3
  8
0
 10
2991.3401710345237916
 20
205.8713997064664056
 30
0.0
 11
2991.259423816123217
 21
205.8730345257663998
 31
0.0
  0
ARC
  5
41DF4
  8
0
 10
2991.9944673293998676
 20
206.1251739559195926
 30
0.0
 40
0.7770863907236228
 50
184.1419586962144024
 51
198.9333285891732999
  0
LINE
  5
41DF5
  8
0
 10
2991.2194105665948882
 20
206.0690466624052135
 30
0.0
 11
2991.2122212011240663
 21
207.7841751443540943
 31
0.0
  0
LINE
  5
41DF6
  8
0
 10
2991.2122212011240663
 20
207.7841751443540943
 30
0.0
 11
2991.2192045926190076
 21
207.8208294679290873
 31
0.0
  0
ARC
  5
41DF7
  8
0
 10
2990.5475838189299793
 20
206.1330419607403996
 30
0.0
 40
0.8346563146256119
 50
341.7313426569184003
 51
355.6026660260540098
  0
LINE
  5
41DF8
  8
0
 10
2991.3797831732531449
 20
206.0690466624052135
 30
0.0
 11
2991.3869725387230574
 21
207.7841751443540943
 31
0.0
  0
LINE
  5
41DF9
  8
0
 10
2991.3869725387230574
 20
207.7841751443540943
 30
0.0
 11
2991.3799891472281161
 21
207.8208294679290873
 31
0.0
  0
ARC
  5
41DFA
  8
0
 10
2997.9295968697738317
 20
207.0737329330497118
 30
0.0
 40
0.7514094429654286
 50
83.8582470231260544
 51
96.1417530302545771
  0
LINE
  5
41DFB
  8
0
 10
2997.8894238159728047
 20
205.6611302247644915
 30
0.0
 11
2997.8871683804381973
 21
207.8239433394251137
 31
0.0
  0
LINE
  5
41DFC
  8
0
 10
2997.9758232371568738
 20
207.8237198892103095
 30
0.0
 11
2997.9701710343729246
 21
205.6594954054644973
 31
0.0
  0
LINE
  5
41DFD
  8
0
 10
2997.9701710343729246
 20
205.6594954054644973
 30
0.0
 11
2997.8894238159728047
 21
205.6611302247644915
 31
0.0
  0
ARC
  5
41DFE
  8
0
 10
2998.6244673292499101
 20
205.9132696549175989
 30
0.0
 40
0.7770863907236228
 50
184.1419586962144024
 51
198.9333285891732999
  0
LINE
  5
41DFF
  8
0
 10
2997.8494105664440212
 20
205.8571423614031914
 30
0.0
 11
2997.8422212009731993
 21
207.7841751445540979
 31
0.0
  0
LINE
  5
41E00
  8
0
 10
2997.8422212009731993
 20
207.7841751445540979
 30
0.0
 11
2997.8492045924690501
 21
207.8208294681290056
 31
0.0
  0
ARC
  5
41E01
  8
0
 10
2997.1775838187800218
 20
205.9211376597382923
 30
0.0
 40
0.8346563146252211
 50
341.7313426569145918
 51
355.6026660260556014
  0
LINE
  5
41E02
  8
0
 10
2998.0097831731018232
 20
205.8571423614031914
 30
0.0
 11
2998.0169725385730999
 21
207.7841751445540979
 31
0.0
  0
LINE
  5
41E03
  8
0
 10
2998.0169725385730999
 20
207.7841751445540979
 30
0.0
 11
2998.0099891470767943
 21
207.8208294681290056
 31
0.0
  0
ARC
  5
41E04
  8
0
 10
2994.9295968697238095
 20
207.0737329329500938
 30
0.0
 40
0.7514094429651021
 50
83.8582470231260544
 51
96.1417530302545771
  0
LINE
  5
41E05
  8
0
 10
2994.8894238159227825
 20
205.6611302246645039
 30
0.0
 11
2994.8871683803868109
 21
207.8239433393250977
 31
0.0
  0
LINE
  5
41E06
  8
0
 10
2994.9758232371068516
 20
207.8237198891102935
 30
0.0
 11
2994.9701710343229024
 21
205.6594954053645097
 31
0.0
  0
LINE
  5
41E07
  8
0
 10
2994.9701710343229024
 20
205.6594954053645097
 30
0.0
 11
2994.8894238159227825
 21
205.6611302246645039
 31
0.0
  0
ARC
  5
41E08
  8
0
 10
2995.6244673291998879
 20
205.9132696548176114
 30
0.0
 40
0.7770863907236228
 50
184.1419586962144024
 51
198.9333285891732999
  0
LINE
  5
41E09
  8
0
 10
2994.8494105663949085
 20
205.8571423613032039
 30
0.0
 11
2994.8422212009240866
 21
207.7841751444541103
 31
0.0
  0
LINE
  5
41E0A
  8
0
 10
2994.8422212009240866
 20
207.7841751444541103
 30
0.0
 11
2994.8492045924199374
 21
207.8208294680289896
 31
0.0
  0
ARC
  5
41E0B
  8
0
 10
2994.1775838187299996
 20
205.92113765963839
 30
0.0
 40
0.8346563146255581
 50
341.7313426569169224
 51
355.6026660260540098
  0
LINE
  5
41E0C
  8
0
 10
2995.0097831730531652
 20
205.8571423613032039
 30
0.0
 11
2995.0169725385230777
 21
207.7841751444541103
 31
0.0
  0
LINE
  5
41E0D
  8
0
 10
2995.0169725385230777
 20
207.7841751444541103
 30
0.0
 11
2995.0099891470272269
 21
207.8208294680289896
 31
0.0
  0
LINE
  5
41E0E
  8
0
 10
3008.9352249488019879
 20
208.1472380119249976
 30
0.0
 11
3007.2210390497698427
 21
208.0574014989232978
 31
0.0
  0
ARC
  5
41E0F
  8
0
 10
3007.234898700713984
 20
207.7929431242750979
 30
0.0
 40
0.2648213017221509
 50
92.999994558573988
 51
180.0490848119221994
  0
LINE
  5
41E10
  8
0
 10
3006.9700774961697789
 20
207.7927162541232917
 30
0.0
 11
3006.9716941878700709
 21
203.9549218168232869
 31
0.0
  0
ARC
  5
41E11
  8
0
 10
3006.2115830709949478
 20
203.9549625113940863
 30
0.0
 40
0.7601111179652508
 50
321.7814725887387226
 51
359.9969325180139208
  0
ARC
  5
41E12
  8
0
 10
3006.2118280716749723
 20
203.9547695865529988
 30
0.0
 40
0.7597992761337108
 50
302.3179033800278717
 51
321.7814725887387226
  0
ARC
  5
41E13
  8
0
 10
3006.759703188918138
 20
203.0887161217449943
 30
0.0
 40
0.2650010692993669
 50
122.3179033800274027
 51
207.3471876954457969
  0
ARC
  5
41E14
  8
0
 10
2999.3889228377202016
 20
199.2766818393909034
 30
0.0
 40
8.0331920084401194
 50
23.9855535326621592
 51
27.3471876954450508
  0
ARC
  5
41E15
  8
0
 10
2999.4076966736502072
 20
199.2850348183754079
 30
0.0
 40
8.0126437926191283
 50
2.98463834958498
 51
23.9855535326621592
  0
LINE
  5
41E16
  8
0
 10
3007.4094715611699939
 20
199.7022388414233092
 30
0.0
 11
3007.4216941878707985
 21
197.4255090362701992
 31
0.0
  0
ARC
  5
41E17
  8
0
 10
3008.0310759573430914
 20
207.6414912426128012
 30
0.0
 40
0.4579095732034001
 50
94.5859670424403873
 51
144.9140626163421928
  0
LINE
  5
41E18
  8
0
 10
3007.6563727565280715
 20
207.9046996933317928
 30
0.0
 11
3007.0750175348371158
 21
207.1470627824787982
 31
0.0
  0
ARC
  5
41E19
  8
0
 10
3007.4719167684670538
 20
206.8428053282036103
 30
0.0
 40
0.5001015898176357
 50
142.5267261435170951
 51
161.4002597854853036
  0
ARC
  5
41E1A
  8
0
 10
3007.5067934722428618
 20
206.8310681966642051
 30
0.0
 40
0.5369002952703625
 50
161.4002597854853036
 51
177.3397593138085142
  0
LINE
  5
41E1B
  8
0
 10
3007.1272775514698878
 20
207.2151693974745967
 30
0.0
 11
3007.1272775561651542
 21
203.9549218168232869
 31
0.0
  0
ARC
  5
41E1C
  8
0
 10
3005.7611881252628336
 20
203.9549218148561067
 30
0.0
 40
1.3660894309018801
 50
326.3120613343000969
 51
0.0000000825091862
  0
ARC
  5
41E1D
  8
0
 10
3007.3081965528331239
 20
202.9236658878382116
 30
0.0
 40
0.4931372529592933
 50
146.3120613343000969
 51
210.2780916467426096
  0
ARC
  5
41E1E
  8
0
 10
3006.9632824791337953
 20
203.1471822861034866
 30
0.0
 40
0.4766760693600542
 50
214.1823867728303128
 51
249.1075228197416891
  0
ARC
  5
41E1F
  8
0
 10
3007.0235674394371017
 20
203.3051152098771865
 30
0.0
 40
0.6457236509765117
 50
249.1075228197416891
 51
257.8048317458477072
  0
ARC
  5
41E20
  8
0
 10
3006.6537973711251652
 20
201.5941623844869071
 30
0.0
 40
1.10473042557907
 50
48.0351521723737207
 51
77.8048317458477356
  0
ARC
  5
41E21
  8
0
 10
3006.9537536732477747
 20
201.9593843786736045
 30
0.0
 40
0.6329490500997208
 50
15.8408514316955902
 51
46.1174869118714312
  0
ARC
  5
41E22
  8
0
 10
2999.3925418799608451
 20
199.2784929241971099
 30
0.0
 40
8.6541508319152296
 50
0.0442325940952505
 51
19.2533142312591892
  0
ARC
  5
41E23
  8
0
 10
-52737622.7671260163187981
 20
400.8421286904861063
 30
0.0
 40
52740630.8142013102769852
 50
359.999778590911319
 51
359.9997810347986729
  0
ARC
  5
41E24
  8
0
 10
3006.4498918961908203
 20
196.1611168802344025
 30
0.0
 40
1.5947059974669351
 50
14.99737205347067
 51
52.4543913871389975
  0
ARC
  5
41E25
  8
0
 10
3005.5641308210761053
 20
196.0475027959961096
 30
0.0
 40
2.4825727126709252
 50
359.8408776901043211
 51
12.2390707180103995
  0
ARC
  5
41E26
  8
0
 10
3006.4072057372300151
 20
196.1035331118551994
 30
0.0
 40
1.666375456257108
 50
52.4972545434104774
 51
61.8512181984330169
  0
ARC
  5
41E27
  8
0
 10
3007.4767483233081293
 20
198.1025103240363876
 30
0.0
 40
0.6007441343811026
 50
211.7477955656673885
 51
241.8512181984330027
  0
LINE
  5
41E28
  8
0
 10
3006.9658920497631698
 20
197.7864100507487137
 30
0.0
 11
3006.9658922356770745
 21
197.6726835987753077
 31
0.0
  0
ARC
  5
41E29
  8
0
 10
3008.9948874303900084
 20
198.4686762370133124
 30
0.0
 40
2.1795462837724768
 50
201.4206954828761127
 51
205.8844902462419952
  0
ARC
  5
41E2A
  8
0
 10
3003.5264108295909864
 20
195.8151557530476907
 30
0.0
 40
3.8987270970744459
 50
2.4321334715585952
 51
25.8844902462427306
  0
LINE
  5
41E2B
  8
0
 10
3007.4216259051199813
 20
195.980602097329097
 30
0.0
 11
3007.4216636984529032
 21
181.9896038242046927
 31
0.0
  0
LINE
  5
41E2C
  8
0
 10
3007.4216650717808079
 20
181.4812015234930982
 30
0.0
 11
3007.4216771167098159
 21
177.0221986272306935
 31
0.0
  0
ARC
  5
41E2D
  8
0
 10
3004.0799325282168866
 20
177.0339151768351087
 30
0.0
 40
3.3417651282304139
 50
344.0699983318892805
 51
359.7991150806822134
  0
ARC
  5
41E2E
  8
0
 10
3001.9366746494288236
 20
177.6456517597245011
 30
0.0
 40
5.5706159491312821
 50
337.8447430273499776
 51
344.0699983318892805
  0
LINE
  5
41E2F
  8
0
 10
3007.0959861938022186
 20
175.5448741796795957
 30
0.0
 11
3007.1195545734699408
 21
175.4809777659233134
 31
0.0
  0
ARC
  5
41E30
  8
0
 10
3007.4703073894697809
 20
175.3030715308032939
 30
0.0
 40
0.3932914522675171
 50
108.5752167076438042
 51
153.1053039251345069
  0
ARC
  5
41E31
  8
0
 10
3007.043202999091136
 20
176.5740048171838907
 30
0.0
 40
0.9474880145771749
 50
288.5752167076439036
 51
327.6541430791335756
  0
ARC
  5
41E32
  8
0
 10
3006.380937069823176
 20
176.8642289847992117
 30
0.0
 40
1.6658500343115561
 50
331.4106318184875022
 51
358.9274354301143148
  0
ARC
  5
41E33
  8
0
 10
2983.782966790025057
 20
176.9372651081199024
 30
0.0
 40
24.2637522636118703
 50
359.7539000857088922
 51
0.0820275547885618
  0
LINE
  5
41E34
  8
0
 10
3008.0466941878521538
 20
176.9720023192234919
 30
0.0
 11
3008.046694187869889
 21
182.8301964288233137
 31
0.0
  0
ARC
  5
41E35
  8
0
 10
3007.2827344354318484
 20
182.8299838761022045
 30
0.0
 40
0.7639597820073089
 50
0.0159411192644652
 51
16.5630669486815094
  0
ARC
  5
41E36
  8
0
 10
3007.5306503658212023
 20
182.8267782104647097
 30
0.0
 40
0.5323770768979835
 50
24.525423855756241
 51
57.3523242966834275
  0
ARC
  5
41E37
  8
0
 10
3007.3102254994610121
 20
182.4984542082763141
 30
0.0
 40
0.9277788168292042
 50
56.8288064762897633
 51
69.2347565408905155
  0
ARC
  5
41E38
  8
0
 10
3007.8674873928648594
 20
183.7736545422635004
 30
0.0
 40
0.4672727784248075
 50
197.425565565603307
 51
240.7488818134110033
  0
LINE
  5
41E39
  8
0
 10
3008.0466939598541103
 20
196.0406081835120062
 30
0.0
 11
3008.0466814877700017
 21
189.8344845488232977
 31
0.0
  0
ARC
  5
41E3A
  8
0
 10
3006.0776861628978622
 20
189.834488505797907
 30
0.0
 40
1.968995324875831
 50
326.1329487798092259
 51
359.9998848560259148
  0
ARC
  5
41E3B
  8
0
 10
3008.4677371555721948
 20
188.2304351745972895
 30
0.0
 40
0.9094297370136351
 50
146.1329487798091122
 51
189.2122661060950009
  0
LINE
  5
41E3C
  8
0
 10
3007.5700372301571406
 20
188.0848422816513903
 30
0.0
 11
3007.5631071790699025
 21
184.7467428387232928
 31
0.0
  0
ARC
  5
41E3D
  8
0
 10
3008.4543361907130929
 20
184.751773268852503
 30
0.0
 40
0.8912432083453328
 50
180.323395391097705
 51
213.683617625095394
  0
ARC
  5
41E3E
  8
0
 10
3006.0570610883519294
 20
183.153979644572388
 30
0.0
 40
1.9897067013532279
 50
0.4928204927587786
 51
33.6836176250954509
  0
LINE
  5
41E3F
  8
0
 10
3008.046694187869889
 20
183.1710935778233136
 30
0.0
 11
3008.046694187869889
 21
182.8301964288233137
 31
0.0
  0
ARC
  5
41E40
  8
0
 10
3034.645660111223151
 20
183.8954129216240858
 30
0.0
 40
26.6089316266440292
 50
180.4382502811263862
 51
181.4000418949352991
  0
ARC
  5
41E41
  8
0
 10
2992.5728010923780857
 20
183.5735951185783961
 30
0.0
 40
15.4651581759645094
 50
0.4382502811264627
 51
7.4725771901602203
  0
ARC
  5
41E42
  8
0
 10
3017.330178563383015
 20
186.820911743337092
 30
0.0
 40
9.5042792326610748
 50
181.8978966084955005
 51
187.4725771901593987
  0
ARC
  5
41E43
  8
0
 10
2962.0198030084388847
 20
191.3695165146212105
 30
0.0
 40
46.0687368827978716
 50
353.9401229254708028
 51
357.0589181946203894
  0
ARC
  5
41E44
  8
0
 10
3242.6558685217560196
 20
184.0520483115930119
 30
0.0
 40
234.6802976863843924
 50
178.6101362867127875
 51
178.7904877431284092
  0
ARC
  5
41E45
  8
0
 10
2997.0113673134201235
 20
185.6506865584674983
 30
0.0
 40
10.8356183254726908
 50
4.6559876206463171
 51
12.9819399805726103
  0
ARC
  5
41E46
  8
0
 10
2992.7243701296988547
 20
187.7947582252452037
 30
0.0
 40
15.1397585162956503
 50
348.5520500405808093
 51
355.2089220941517169
  0
ARC
  5
41E47
  8
0
 10
3007.4775805448080064
 20
181.2168898248671098
 30
0.0
 40
0.5692894683566687
 50
1.4245849169616911
 51
41.7861428215686885
  0
ARC
  5
41E48
  8
0
 10
3007.2380243275720204
 20
181.0028060779320924
 30
0.0
 40
0.8905666569624154
 50
41.7861428215686885
 51
65.4617694094396967
  0
ARC
  5
41E49
  8
0
 10
3007.771971223744913
 20
182.1723769102434005
 30
0.0
 40
0.3951219599764589
 50
195.2922728326743993
 51
245.4617694094397109
  0
LINE
  5
41E4A
  8
0
 10
3007.390839348271129
 20
182.0681662737725048
 30
0.0
 11
3007.3830474737151235
 21
182.0070395221993067
 31
0.0
  0
ARC
  5
41E4B
  8
0
 10
3017.300063461820173
 20
182.8194372852640868
 30
0.0
 40
9.9502354561527966
 50
184.6831742467568915
 51
186.3290182910760961
  0
ARC
  5
41E4C
  8
0
 10
3003.6713937971831001
 20
181.4282064252448095
 30
0.0
 40
3.7506456928790088
 50
0.8095930023763326
 51
4.5010341521468096
  0
ARC
  5
41E4D
  8
0
 10
3006.1272085737978159
 20
197.0393276460966092
 30
0.0
 40
1.9194741942202009
 50
345.9957879035234782
 51
359.883976546830695
  0
LINE
  5
41E4E
  8
0
 10
3007.220745583984808
 20
208.0573859557769083
 30
0.0
 11
3002.7327773893098311
 21
207.8334125461526014
 31
0.0
  0
ARC
  5
41E4F
  8
0
 10
3002.9463741008221405
 20
207.3844518642578976
 30
0.0
 40
0.497181304009286
 50
92.8479452625547736
 51
115.4431506918769941
  0
ARC
  5
41E50
  8
0
 10
3002.9480570931368675
 20
207.3809143688899042
 30
0.0
 40
0.5010987440677825
 50
115.4431506918769941
 51
142.5304506880663951
  0
LINE
  5
41E51
  8
0
 10
3002.5503466637601377
 20
207.6857526303842008
 30
0.0
 11
3001.9842169126300178
 21
206.9471455234499899
 31
0.0
  0
ARC
  5
41E52
  8
0
 10
3002.3845728639689696
 20
206.640279514489805
 30
0.0
 40
0.5044319926682289
 50
142.5304506880671056
 51
177.4083931080270133
  0
LINE
  5
41E53
  8
0
 10
3002.9216713708419775
 20
207.8810191047205933
 30
0.0
 11
3002.553130732469981
 21
207.8686334038233099
 31
0.0
  0
LINE
  5
41E54
  8
0
 10
3002.553130732469981
 20
207.8686334038233099
 30
0.0
 11
3001.9067524499700994
 21
207.8351792338233111
 31
0.0
  0
ARC
  5
41E55
  8
0
 10
3001.9082843575201878
 20
207.8055807780503983
 30
0.0
 40
0.0296380722194114
 50
92.9627758831542934
 51
180.6193300760025124
  0
LINE
  5
41E56
  8
0
 10
3001.8786147948299003
 20
207.8379318730268892
 30
0.0
 11
3001.8787647398821719
 21
203.2404646321942039
 31
0.0
  0
LINE
  5
41E57
  8
0
 10
3001.8787647398821719
 20
203.2404646321942039
 30
0.0
 11
3001.8808883347378469
 21
138.1288939168817933
 31
0.0
  0
ARC
  5
41E58
  8
0
 10
3001.838822359986807
 20
203.2848925675193072
 30
0.0
 40
4.5532131901952306
 50
89.4992618396238839
 51
94.8255306786387706
  0
LINE
  5
41E59
  8
0
 10
3001.455797567170066
 20
207.8219667749193889
 30
0.0
 11
3001.455797567170066
 21
138.1288939168233014
 31
0.0
  0
LINE
  5
41E5A
  8
0
 10
3001.8806734890699772
 20
202.895078030060489
 30
0.0
 11
3001.8787760045652249
 21
202.895078030060489
 31
0.0
  0
LINE
  5
41E5B
  8
0
 10
3001.8806734890699772
 20
202.895078030060489
 30
0.0
 11
3004.2046980966129013
 21
202.895078030060489
 31
0.0
  0
LINE
  5
41E5C
  8
0
 10
3001.8787647398821719
 20
203.2404646321942039
 30
0.0
 11
3004.2014442984168454
 21
203.2404646321942039
 31
0.0
  0
ARC
  5
41E5D
  8
0
 10
2989.3327935365828125
 20
741.3483094583292541
 30
0.0
 40
538.313226141532823
 50
271.5827574975918992
 51
271.8400839536964213
  0
ARC
  5
41E5E
  8
0
 10
3007.2577538372261188
 20
141.9240564329550125
 30
0.0
 40
61.0474129177478204
 50
90.6897874498139487
 51
92.866627780664686
  0
ARC
  5
41E5F
  8
0
 10
3003.7346971779797968
 20
190.539501410802103
 30
0.0
 40
1.8556071054450509
 50
180.5627399631173091
 51
220.7411327494467059
  0
ARC
  5
41E60
  8
0
 10
3000.9250688890560923
 20
188.1193283528978952
 30
0.0
 40
1.8526605159828431
 50
358.3234826565415005
 51
40.741132749446642
  0
LINE
  5
41E61
  8
0
 10
3002.7769363456700376
 20
188.0651258565233093
 30
0.0
 11
3002.7769257709551312
 21
184.777769923902099
 31
0.0
  0
ARC
  5
41E62
  8
0
 10
3000.775804979753957
 20
184.7779938446350059
 30
0.0
 40
2.0011317090674741
 50
320.9004056996017766
 51
359.9899717393046785
  0
ARC
  5
41E63
  8
0
 10
3003.8862545285728629
 20
182.2502366349528984
 30
0.0
 40
2.0069168069620811
 50
140.9004056996018051
 51
179.3976063524910955
  0
ARC
  5
41E64
  8
0
 10
3009.4459505747968251
 20
52.3686905156708988
 30
0.0
 40
135.6158335864606101
 50
90.8552712793672868
 51
92.8187012820341124
  0
ARC
  5
41E65
  8
0
 10
3002.4322581415740387
 20
181.8250456284042116
 30
0.0
 40
3.2182132828973651
 50
63.5921362236280885
 51
83.8516889200329842
  0
ARC
  5
41E66
  8
0
 10
3008.8656052250289576
 20
194.7804743273952965
 30
0.0
 40
11.2466091311815397
 50
243.5921362236281027
 51
250.4462690193626031
  0
ARC
  5
41E67
  8
0
 10
3008.3925370168658446
 20
193.448541800082495
 30
0.0
 40
9.8331602333117178
 50
250.4462690193626031
 51
257.8919810503973054
  0
ARC
  5
41E68
  8
0
 10
3006.7295632307618689
 20
185.6967555695080989
 30
0.0
 40
1.9050033492818179
 50
257.8919810503973054
 51
281.8617285522828979
  0
ARC
  5
41E69
  8
0
 10
3007.0329099376408521
 20
184.2524917607935038
 30
0.0
 40
0.4292265457856313
 50
281.8617285522828979
 51
334.928361991519921
  0
ARC
  5
41E6A
  8
0
 10
3006.9873707984129396
 20
187.638978632946106
 30
0.0
 40
0.4357105756754019
 50
318.3415791099128
 51
355.4267888599534899
  0
ARC
  5
41E6B
  8
0
 10
3006.7762065007800629
 20
187.8268444508387915
 30
0.0
 40
0.7183480221104577
 50
276.6616684079231732
 51
318.3415791099128
  0
ARC
  5
41E6C
  8
0
 10
3000.5534185804099252
 20
464.0664344465599811
 30
0.0
 40
277.0248728098397919
 50
270.4598849488847918
 51
271.304378610162189
  0
ARC
  5
41E6D
  8
0
 10
3003.3560523196979375
 20
228.6610766411160114
 30
0.0
 40
42.8693393289296409
 50
269.2259761160324842
 51
272.6849308482562719
  0
ARC
  5
41E6E
  8
0
 10
3006.5262304217671954
 20
167.4979626345908912
 30
0.0
 40
18.3776094212305701
 50
89.0261486490603744
 51
93.625236442802759
  0
ARC
  5
41E6F
  8
0
 10
3006.7971632408298319
 20
185.2124480686985919
 30
0.0
 40
0.6617666341352182
 50
19.3222064106768805
 51
86.4119638116904696
  0
LINE
  5
41E70
  8
0
 10
3007.4216941878707985
 20
175.7053979108198973
 30
0.0
 11
3007.4216941878707985
 21
159.9197967346518965
 31
0.0
  0
ARC
  5
41E71
  8
0
 10
3007.4333916744399176
 20
160.5493149989318908
 30
0.0
 40
0.5391763418626625
 50
209.8809360125638079
 51
244.6078812698438867
  0
ARC
  5
41E72
  8
0
 10
3006.4109846873629976
 20
158.6024902136514072
 30
0.0
 40
1.6603704901644429
 50
52.5026102362554212
 51
61.5415360744728588
  0
ARC
  5
41E73
  8
0
 10
3006.2591105037067791
 20
158.5616482748110059
 30
0.0
 40
1.787783001813527
 50
359.1444268583804842
 51
49.4362650408817927
  0
LINE
  5
41E74
  8
0
 10
3008.046694187869889
 20
158.5349530751232976
 30
0.0
 11
3008.046694187869889
 21
152.3358423165232978
 31
0.0
  0
ARC
  5
41E75
  8
0
 10
3006.0492441784449511
 20
152.3367515383463058
 30
0.0
 40
1.997450216359721
 50
342.1963547355998116
 51
359.9739194626852736
  0
ARC
  5
41E76
  8
0
 10
3008.0437851204551407
 20
151.6962345189780876
 30
0.0
 40
0.0974138893648865
 50
162.1963547355981916
 51
207.0760621756975013
  0
ARC
  5
41E77
  8
0
 10
3007.4690307737791954
 20
151.537259418143492
 30
0.0
 40
0.5012998000026965
 50
317.9837555398495965
 51
13.2190997779771493
  0
ARC
  5
41E78
  8
0
 10
3007.25821568138781
 20
151.7232365661178903
 30
0.0
 40
0.7824136294592892
 50
295.5349930757321886
 51
318.1986535945508763
  0
ARC
  5
41E79
  8
0
 10
3007.9793769244829491
 20
150.5533143750849092
 30
0.0
 40
0.6021686677007163
 50
129.606853528176714
 51
151.3457806872245897
  0
ARC
  5
41E7A
  8
0
 10
3008.5769448601040494
 20
150.7002954593966138
 30
0.0
 40
1.0140842956725249
 50
161.1409349714647874
 51
178.7363731975202938
  0
ARC
  5
41E7B
  8
0
 10
3008.5857162474180768
 20
150.7001019799187986
 30
0.0
 40
1.022857816614086
 50
178.7363731975202938
 51
186.7921938537006099
  0
ARC
  5
41E7C
  8
0
 10
3007.3623406792307833
 20
150.5543923188525071
 30
0.0
 40
0.2091645395807562
 50
359.04970375303418
 51
6.7921938537014679
  0
LINE
  5
41E7D
  8
0
 10
3007.5714764500698948
 20
150.5509233170232903
 30
0.0
 11
3007.5717102036860524
 21
147.4242381751232926
 31
0.0
  0
LINE
  5
41E7E
  8
0
 10
3007.5846933407710821
 20
150.9095738324884906
 30
0.0
 11
3007.5846933407710821
 21
150.6175973745233136
 31
0.0
  0
ARC
  5
41E7F
  8
0
 10
3007.774937325917108
 20
150.6175973745233136
 30
0.0
 40
0.1902439851466653
 50
180.0
 51
188.563307533345494
  0
ARC
  5
41E80
  8
0
 10
3015.5967842981958711
 20
151.7954172899100911
 30
0.0
 40
8.1002724181450105
 50
188.563307533345494
 51
191.2089938213050004
  0
ARC
  5
41E81
  8
0
 10
2996.101130626720078
 20
147.931993564166504
 30
0.0
 40
11.7744994035081696
 50
5.5510542517761019
 51
11.2089938213050697
  0
ARC
  5
41E82
  8
0
 10
3007.2167121381908146
 20
150.1529053559602005
 30
0.0
 40
0.7423290765593114
 50
18.6090791826305484
 51
60.28330893085203
  0
ARC
  5
41E83
  8
0
 10
3007.5798451137329721
 20
150.2751771671956931
 30
0.0
 40
0.3591633764385353
 50
350.3099942553550932
 51
18.6090791826305484
  0
LINE
  5
41E84
  8
0
 10
3007.9338842503020715
 20
150.2147237078062005
 30
0.0
 11
3007.820412319370007
 21
149.0709724101232894
 31
0.0
  0
LINE
  5
41E85
  8
0
 10
3007.8237342718948639
 20
148.9175292039774945
 30
0.0
 11
3007.56376660454589
 21
147.2371894822751131
 31
0.0
  0
ARC
  5
41E86
  8
0
 10
3007.3142016639280882
 20
147.4231770278618114
 30
0.0
 40
0.2572769745194915
 50
353.9309079228444261
 51
0.23631895661482
  0
ARC
  5
41E87
  8
0
 10
3008.7597618578120091
 20
147.269479869930592
 30
0.0
 40
1.196431074057795
 50
173.9309079228443977
 51
182.2198973301148044
  0
ARC
  5
41E88
  8
0
 10
3008.4392178297662213
 20
147.2570543281318862
 30
0.0
 40
0.875646305084267
 50
182.2198973301148044
 51
192.7478740084835067
  0
ARC
  5
41E89
  8
0
 10
3008.6112426940408113
 20
147.2959728710002878
 30
0.0
 40
1.052018658099102
 50
192.7478740084835067
 51
212.6037753572352074
  0
ARC
  5
41E8A
  8
0
 10
3005.9617805279608547
 20
145.6013251347567063
 30
0.0
 40
2.093053792488031
 50
5.6827496545433407
 51
32.6037753572351932
  0
ARC
  5
41E8B
  8
0
 10
2993.6174579698072193
 20
145.5303736478340966
 30
0.0
 40
14.4297720413857693
 50
0.4995730979360506
 51
1.104731079234583
  0
ARC
  5
41E8C
  8
0
 10
2956.8501976221941732
 20
144.8213690800768916
 30
0.0
 40
51.2038678283157083
 50
1.104731079234583
 51
2.169780980213027
  0
ARC
  5
41E8D
  8
0
 10
2987.0452801746669138
 20
145.9653984315935134
 30
0.0
 40
20.9871205925889583
 50
2.169780980213027
 51
8.0862665784872974
  0
ARC
  5
41E8E
  8
0
 10
3004.1664216786211909
 20
139.3461943279257014
 30
0.0
 40
3.8803695869449579
 50
341.7148033721516072
 51
357.2081814762115073
  0
ARC
  5
41E8F
  8
0
 10
3003.5980730754517936
 20
139.3739098618580101
 30
0.0
 40
4.449393563193758
 50
357.2081814762115073
 51
1.0676500115001351
  0
LINE
  5
41E90
  8
0
 10
3008.046694187869889
 20
139.4568150989233004
 30
0.0
 11
3008.0466815075142222
 21
145.6561880558589905
 31
0.0
  0
ARC
  5
41E91
  8
0
 10
3006.6579539418548848
 20
138.5575729996751875
 30
0.0
 40
1.3887943260451909
 50
0.5056422475606263
 51
12.2381063375708194
  0
LINE
  5
41E92
  8
0
 10
3008.046694186671175
 20
138.5698291200232859
 30
0.0
 11
3008.046694187869889
 21
138.1288939168233014
 31
0.0
  0
ARC
  5
41E93
  8
0
 10
3004.1665271827378092
 20
139.4974798223379082
 30
0.0
 40
3.2850892120258162
 50
338.4100982524591927
 51
359.6112539684081071
  0
LINE
  5
41E94
  8
0
 10
3007.4515407807698466
 20
139.4751913622233133
 30
0.0
 11
3007.4508004473700566
 21
153.8680926890702096
 31
0.0
  0
ARC
  5
41E95
  8
0
 10
3007.4743819875238842
 20
153.1783607618791905
 30
0.0
 40
0.5853572667386276
 50
117.998776492088993
 51
150.3059787960860092
  0
ARC
  5
41E96
  8
0
 10
3006.5708083730291946
 20
154.8778231201154085
 30
0.0
 40
1.339381048948568
 50
297.9987764920890072
 51
311.0725376091738212
  0
ARC
  5
41E97
  8
0
 10
3006.2927539042298122
 20
155.1968715147775981
 30
0.0
 40
1.7625904129227841
 50
311.0725376091738212
 51
354.321272874345027
  0
LINE
  5
41E98
  8
0
 10
3006.96589195767001
 20
153.4683280346233119
 30
0.0
 11
3006.9658919264929864
 21
153.5820553565121998
 31
0.0
  0
ARC
  5
41E99
  8
0
 10
3011.2929982859709526
 20
151.8404148050331059
 30
0.0
 40
4.6644572306747358
 50
153.0519481846530141
 51
158.0754399258044032
  0
ARC
  5
41E9A
  8
0
 10
3004.0242328898721098
 20
155.3203298999744106
 30
0.0
 40
3.397516506744787
 50
336.2918841135758043
 51
359.5114804517626794
  0
LINE
  5
41E9B
  8
0
 10
3007.4216259021268343
 20
155.2913620923411884
 30
0.0
 11
3007.4216688557171437
 21
158.4758531116715972
 31
0.0
  0
ARC
  5
41E9C
  8
0
 10
3004.1249808586640029
 20
158.4540237477440883
 30
0.0
 40
3.2967110824307571
 50
0.3624940271333173
 51
12.7951486684366191
  0
ARC
  5
41E9D
  8
0
 10
3004.0413620762610662
 20
158.4350334719501916
 30
0.0
 40
3.3824591514772662
 50
12.7951486684374096
 51
27.7788960091875694
  0
ARC
  5
41E9E
  8
0
 10
3008.0778061416708624
 20
160.5613093187639038
 30
0.0
 40
1.179769434414331
 50
199.5270517436671867
 51
207.7788960091876049
  0
LINE
  5
41E9F
  8
0
 10
3006.9658925834769434
 20
160.1669691642227065
 30
0.0
 11
3006.9658920538540769
 21
160.280697738920594
 31
0.0
  0
LINE
  5
41EA0
  8
0
 10
3008.046694187869889
 20
176.851288634123307
 30
0.0
 11
3008.046694187869889
 21
175.322423284123289
 31
0.0
  0
ARC
  5
41EA1
  8
0
 10
3032.7169769558918233
 20
174.8727325134985904
 30
0.0
 40
24.6743935326076098
 50
178.9557267229704109
 51
179.5805891564397996
  0
ARC
  5
41EA2
  8
0
 10
2984.5250858594749843
 20
175.2255082832494963
 30
0.0
 40
23.5187887465558916
 50
354.754470248024802
 51
359.580589156439828
  0
ARC
  5
41EA3
  8
0
 10
2950.9007279153329364
 20
178.3125072222069036
 30
0.0
 40
57.2845555763627701
 50
353.6437260670454066
 51
354.754470248024802
  0
ARC
  5
41EA4
  8
0
 10
3008.1039455861659917
 20
171.9662968005902997
 30
0.0
 40
0.2708402191370888
 50
179.1095394590923036
 51
185.5312928152764016
  0
ARC
  5
41EA5
  8
0
 10
2979.1999295951050044
 20
168.4470042664368918
 30
0.0
 40
28.8467212521894893
 50
0.6424135000005152
 51
6.9552877379851221
  0
LINE
  5
41EA6
  8
0
 10
3008.0448376462300075
 20
168.770433584338889
 30
0.0
 11
3008.0458786203412274
 21
168.2390744892360033
 31
0.0
  0
ARC
  5
41EA7
  8
0
 10
825.3020152289714133
 20
191.1029052746874868
 30
0.0
 40
2182.8636072670387875
 50
359.3865447038140246
 51
359.3998594517676111
  0
ARC
  5
41EA8
  8
0
 10
2985.4882422314149153
 20
167.9733077210291867
 30
0.0
 40
22.5535569237911098
 50
354.3063563669181235
 51
359.3865447038140246
  0
ARC
  5
41EA9
  8
0
 10
3007.6000868880219059
 20
175.5755515027944966
 30
0.0
 40
0.44770700132487
 50
315.7785948253459765
 51
354.8331402353354065
  0
ARC
  5
41EAA
  8
0
 10
3007.3961298251788321
 20
175.7740393871928859
 30
0.0
 40
0.7323048293847969
 50
291.5110744455059262
 51
315.7785948253459765
  0
ARC
  5
41EAB
  8
0
 10
3007.8239461137191029
 20
174.6885797748485061
 30
0.0
 40
0.4344210796317957
 50
111.5110744455061962
 51
139.6030897901923993
  0
ARC
  5
41EAC
  8
0
 10
3007.7304320479661328
 20
174.7681577878142036
 30
0.0
 40
0.311630442199422
 50
139.6030897901923993
 51
172.1873738506716904
  0
ARC
  5
41EAD
  8
0
 10
3006.9266575589208514
 20
175.2388083341986089
 30
0.0
 40
1.118857026133468
 50
342.6725524776746283
 51
357.8191090182397147
  0
ARC
  5
41EAE
  8
0
 10
3003.7403917794968038
 20
176.2328943164226871
 30
0.0
 40
4.4565952658978008
 50
333.1362404815334912
 51
342.6725524776746283
  0
ARC
  5
41EAF
  8
0
 10
3008.7466641357291337
 20
173.5883589189907923
 30
0.0
 40
1.2083019700195361
 50
148.533627411342394
 51
166.278819606021699
  0
ARC
  5
41EB0
  8
0
 10
3008.585337639230147
 20
173.676919515265098
 30
0.0
 40
1.03167956181156
 50
168.9325762500519943
 51
186.1589161362155096
  0
LINE
  5
41EB1
  8
0
 10
3007.559612777935854
 20
173.5662342534471065
 30
0.0
 11
3007.5617346676121997
 21
170.3872018895357883
 31
0.0
  0
ARC
  5
41EB2
  8
0
 10
3008.4614513149449522
 20
170.254740241451799
 30
0.0
 40
0.9094152702157414
 50
171.6247405419385075
 51
199.9367233040941869
  0
ARC
  5
41EB3
  8
0
 10
3009.250897992937098
 20
170.5410883773735975
 30
0.0
 40
1.7491898306406859
 50
199.9367233040935048
 51
214.7438180169083921
  0
ARC
  5
41EB4
  8
0
 10
3005.9839555470080086
 20
168.572484687365602
 30
0.0
 40
2.071655227992605
 50
5.891283692766204
 51
27.973159343604479
  0
ARC
  5
41EB5
  8
0
 10
2980.421246460220118
 20
175.379245677299906
 30
0.0
 40
27.5957714390179696
 50
349.5778793645346809
 51
351.3626454050605048
  0
ARC
  5
41EB6
  8
0
 10
3113.9158680239770547
 20
155.1010496527100031
 30
0.0
 40
107.4302231711397013
 50
170.9829268190939899
 51
171.3626454050605048
  0
ARC
  5
41EB7
  8
0
 10
3007.6353693426958671
 20
171.9666927493032063
 30
0.0
 40
0.1801588419518426
 50
350.9829268190932225
 51
8.9793487468980935
  0
ARC
  5
41EB8
  8
0
 10
3220.7340199532332008
 20
205.6394733330153031
 30
0.0
 40
215.5624911933871033
 50
188.5969837432542136
 51
188.9793487468971875
  0
ARC
  5
41EB9
  8
0
 10
3006.0560170061057761
 20
173.1840377298653948
 30
0.0
 40
1.5549891013991191
 50
8.5969837432542313
 51
15.0574785525242003
  0
ARC
  5
41EBA
  8
0
 10
3007.3881983335909354
 20
168.2704787644281907
 30
0.0
 40
0.6699424430275248
 50
330.5722107708617727
 51
348.5519774505386863
  0
ARC
  5
41EBB
  8
0
 10
3007.3520556302210025
 20
168.2908672328316015
 30
0.0
 40
0.7114392459249637
 50
296.6927676645294127
 51
330.5722107708617727
  0
ARC
  5
41EBC
  8
0
 10
3008.0638558288801505
 20
166.875164911600308
 30
0.0
 40
0.8731340673526659
 50
116.6927676645292991
 51
125.1051703429490942
  0
ARC
  5
41EBD
  8
0
 10
3007.7582828186400548
 20
167.3098679366345038
 30
0.0
 40
0.3417758223231024
 50
125.1051703429490942
 51
170.004974192326813
  0
ARC
  5
41EBE
  8
0
 10
3007.648787896524027
 20
166.246451604386408
 30
0.0
 40
0.2272292418464218
 50
181.9790189103090938
 51
226.4543165454531106
  0
ARC
  5
41EBF
  8
0
 10
3007.7614420142299423
 20
166.2925749938771958
 30
0.0
 40
0.3419293128052598
 50
218.0664149426303027
 51
247.3977026023663086
  0
ARC
  5
41EC0
  8
0
 10
3007.2632336887149904
 20
165.2119657586522123
 30
0.0
 40
0.8483358879546219
 50
38.1312797003322927
 51
64.3820259571354541
  0
ARC
  5
41EC1
  8
0
 10
3007.5108613391030303
 20
165.4044101551328083
 30
0.0
 40
0.5347268816762916
 50
358.0771290189621823
 51
38.2946959155208475
  0
LINE
  5
41EC2
  8
0
 10
3008.0452871169459286
 20
165.3864678597240072
 30
0.0
 11
3008.0466748602561893
 21
164.9304758398814101
 31
0.0
  0
ARC
  5
41EC3
  8
0
 10
3006.0698135483480655
 20
164.937843800339806
 30
0.0
 40
1.976875042424032
 50
347.5087449168278795
 51
359.7864538697746752
  0
ARC
  5
41EC4
  8
0
 10
3005.9932393235180825
 20
164.9548076359405115
 30
0.0
 40
2.0553057993164008
 50
327.025101837642012
 51
347.5087449168278795
  0
ARC
  5
41EC5
  8
0
 10
3008.5681733983310551
 20
163.2842292987191115
 30
0.0
 40
1.0140780916997341
 50
147.0251018376420973
 51
184.3605677308748909
  0
ARC
  5
41EC6
  8
0
 10
3007.1965442143259679
 20
163.1796377105002875
 30
0.0
 40
0.3615330520259949
 50
357.6405168671872161
 51
4.3605677308749851
  0
ARC
  5
41EC7
  8
0
 10
3008.5367510851870065
 20
163.0743198003025043
 30
0.0
 40
0.983148400827571
 50
174.7222449196237903
 51
200.5155355398649988
  0
ARC
  5
41EC8
  8
0
 10
3008.666974129494065
 20
163.1293995566344108
 30
0.0
 40
1.1244313936281629
 50
200.8186346167040881
 51
215.414136534523891
  0
ARC
  5
41EC9
  8
0
 10
3006.1474240510651725
 20
161.4594435050979087
 30
0.0
 40
1.899258022271725
 50
359.9545875544935143
 51
32.4248231466731198
  0
LINE
  5
41ECA
  8
0
 10
3008.046681476770118
 20
161.4579381596232963
 30
0.0
 11
3008.046694187869889
 21
158.5349530751232976
 31
0.0
  0
ARC
  5
41ECB
  8
0
 10
3003.8448523087458852
 20
176.018697332399995
 30
0.0
 40
1.96851367327857
 50
183.8555194987158927
 51
219.0624848238362858
  0
ARC
  5
41ECC
  8
0
 10
3000.6217396471911343
 20
173.4357071025312962
 30
0.0
 40
2.1619689276019889
 50
355.4638003617696995
 51
38.3862921307523024
  0
LINE
  5
41ECD
  8
0
 10
3002.7769363456700376
 20
173.2647192819729867
 30
0.0
 11
3002.7769257709551312
 21
169.9773633493518048
 31
0.0
  0
ARC
  5
41ECE
  8
0
 10
3000.7758886716969755
 20
169.9775402520940872
 30
0.0
 40
2.001037107077404
 50
320.8999391622314761
 51
359.9949347363426
  0
ARC
  5
41ECF
  8
0
 10
3003.8862545285728629
 20
167.4498300604026042
 30
0.0
 40
2.0069168069620811
 50
140.9004056996018051
 51
179.3976063524910955
  0
ARC
  5
41ED0
  8
0
 10
3009.4459505747968251
 20
37.5682839411205904
 30
0.0
 40
135.6158335864606101
 50
90.8552712793672868
 51
92.8187017471593236
  0
ARC
  5
41ED1
  8
0
 10
3002.4322581415740387
 20
167.024639053853889
 30
0.0
 40
3.2182132828973651
 50
63.5921362236280885
 51
83.8518696465875735
  0
ARC
  5
41ED2
  8
0
 10
3008.8656052250289576
 20
179.9800677528450024
 30
0.0
 40
11.2466091311815397
 50
243.5921362236281027
 51
250.4462690193626031
  0
ARC
  5
41ED3
  8
0
 10
3008.3925370168658446
 20
178.6481352255322008
 30
0.0
 40
9.8331602333117178
 50
250.4462690193626031
 51
257.8919810503973054
  0
ARC
  5
41ED4
  8
0
 10
3006.7295632307618689
 20
170.8963489949578047
 30
0.0
 40
1.9050033492818179
 50
257.8919810503973054
 51
281.8617285522828979
  0
ARC
  5
41ED5
  8
0
 10
3007.0329099376408521
 20
169.4520851862432096
 30
0.0
 40
0.4292265457856313
 50
281.8617285522828979
 51
334.928361991519921
  0
ARC
  5
41ED6
  8
0
 10
3006.9873707984129396
 20
172.8385720583958118
 30
0.0
 40
0.4357105756754019
 50
318.3415791099128
 51
355.4267888599534899
  0
ARC
  5
41ED7
  8
0
 10
3006.7762065007800629
 20
173.0264378762884974
 30
0.0
 40
0.7183480221104577
 50
276.6616684079231732
 51
318.3415791099128
  0
ARC
  5
41ED8
  8
0
 10
3000.5534185804099252
 20
449.2660278720096017
 30
0.0
 40
277.0248728098397919
 50
270.4598849488847918
 51
271.304378610162189
  0
ARC
  5
41ED9
  8
0
 10
3003.3560523196979375
 20
213.8606700665656888
 30
0.0
 40
42.8693393289296409
 50
269.2259761160324842
 51
272.6849308482562719
  0
ARC
  5
41EDA
  8
0
 10
3006.5262304217671954
 20
152.6975560600405117
 30
0.0
 40
18.3776094212305701
 50
89.0261486490603744
 51
93.625236442802759
  0
ARC
  5
41EDB
  8
0
 10
3006.7971632408298319
 20
170.4120414941482977
 30
0.0
 40
0.6617666341352182
 50
19.3222064106768805
 51
86.4119638116904696
  0
ARC
  5
41EDC
  8
0
 10
3003.7346971779797968
 20
152.9086804216908035
 30
0.0
 40
1.8556071054450509
 50
182.1600370452545974
 51
220.7411327494467059
  0
ARC
  5
41EDD
  8
0
 10
3000.9250688890560923
 20
150.4885073637867094
 30
0.0
 40
1.8526605159828431
 50
358.3234826565415005
 51
40.741132749446642
  0
LINE
  5
41EDE
  8
0
 10
3002.7769363456700376
 20
150.4343048674120098
 30
0.0
 11
3002.7769257709551312
 21
147.1469489347907995
 31
0.0
  0
ARC
  5
41EDF
  8
0
 10
3000.775804979753957
 20
147.1471728555235927
 30
0.0
 40
2.0011317090674741
 50
320.9004056996017766
 51
359.9899717393046785
  0
ARC
  5
41EE0
  8
0
 10
3003.8862545285728629
 20
144.6194156458417126
 30
0.0
 40
2.0069168069620278
 50
140.9004056996012082
 51
177.9088376861510028
  0
ARC
  5
41EE1
  8
0
 10
3009.4459505747968251
 20
14.7378695265596296
 30
0.0
 40
135.6158335864606101
 50
90.8428765358091113
 51
92.8187012820341124
  0
ARC
  5
41EE2
  8
0
 10
3002.4322581415740387
 20
144.1942246392929121
 30
0.0
 40
3.2182132828973651
 50
63.5921362236280885
 51
83.8516889200329842
  0
ARC
  5
41EE3
  8
0
 10
3008.8656052250289576
 20
157.1496533382839971
 30
0.0
 40
11.2466091311815397
 50
243.5921362236281027
 51
250.4462690193626031
  0
ARC
  5
41EE4
  8
0
 10
3008.3925370168658446
 20
155.8177208109711955
 30
0.0
 40
9.8331602333117178
 50
250.4462690193626031
 51
257.8919810503973054
  0
ARC
  5
41EE5
  8
0
 10
3006.7295632307618689
 20
148.0659345803967994
 30
0.0
 40
1.9050033492818179
 50
257.8919810503973054
 51
281.8617285522828979
  0
ARC
  5
41EE6
  8
0
 10
3007.0329099376408521
 20
146.6216707716822043
 30
0.0
 40
0.4292265457856313
 50
281.8617285522828979
 51
347.0253664519364065
  0
ARC
  5
41EE7
  8
0
 10
3006.8037466395921911
 20
150.1246311768645967
 30
0.0
 40
0.651261535112485
 50
321.4251560473107929
 51
353.6374035722614053
  0
ARC
  5
41EE8
  8
0
 10
3006.7762065007800629
 20
150.1960234617274921
 30
0.0
 40
0.7183480221104577
 50
276.6616684079231732
 51
318.3415791099128
  0
ARC
  5
41EE9
  8
0
 10
3000.5534185804099252
 20
426.4356134574487101
 30
0.0
 40
277.0248728098397919
 50
270.4598849488847918
 51
271.304378610162189
  0
ARC
  5
41EEA
  8
0
 10
3006.6318470867208816
 20
147.4332587750303105
 30
0.0
 40
0.8193477871754117
 50
359.2899695632456769
 51
85.7220769656760666
  0
ARC
  5
41EEB
  8
0
 10
3001.2761096675321824
 20
144.4014028827924108
 30
0.0
 40
0.1798311159883892
 50
274.2031743610078252
 51
1.4497251606000059
  0
LINE
  5
41EEC
  8
0
 10
3001.2892901106702084
 20
144.2220554373232915
 30
0.0
 11
3001.0636708413398992
 21
144.2102241704203891
 31
0.0
  0
ARC
  5
41EED
  8
0
 10
3001.0924491938908432
 20
144.159983874156012
 30
0.0
 40
0.05789888551818
 50
119.8046917243896985
 51
182.4099739416365082
  0
LINE
  5
41EEE
  8
0
 10
3001.0346015184700263
 20
144.1575492504233011
 30
0.0
 11
3001.034601518870204
 21
143.8108902372399882
 31
0.0
  0
ARC
  5
41EEF
  8
0
 10
3001.4287724529108345
 20
143.8106443776327978
 30
0.0
 40
0.3941709387635398
 50
180.0088701540628904
 51
202.7782796402339898
  0
ARC
  5
41EF0
  8
0
 10
3041.3159678756710491
 20
160.5598874296701126
 30
0.0
 40
43.6553024716954994
 50
202.7782796402339898
 51
203.9369816737442989
  0
ARC
  5
41EF1
  8
0
 10
3000.5505913070160204
 20
142.5783887684237925
 30
0.0
 40
0.9056885554598011
 50
1.8699241135135329
 51
17.2889688974501503
  0
ARC
  5
41EF2
  8
0
 10
3007.2787184404501204
 20
138.3725639976418904
 30
0.0
 40
0.2479227939150697
 50
280.5266743933970019
 51
303.6750941205020808
  0
LINE
  5
41EF3
  8
0
 10
3007.4161873488501442
 20
138.1662438314785959
 30
0.0
 11
3007.516058501471889
 21
138.2477912992607116
 31
0.0
  0
ARC
  5
41EF4
  8
0
 10
3007.4706876993491278
 20
138.299779059303404
 30
0.0
 40
0.0690017164972352
 50
311.1118815397337016
 51
328.4538715599126135
  0
ARC
  5
41EF5
  8
0
 10
3007.5164738339949508
 20
138.271670550128789
 30
0.0
 40
0.0152759460149231
 50
328.4538715599401257
 51
38.2306395828726622
  0
ARC
  5
41EF6
  8
0
 10
3007.5120996526011368
 20
138.2638181962601038
 30
0.0
 40
0.0238240296340263
 50
46.5846325177483891
 51
78.4058185511682808
  0
ARC
  5
41EF7
  8
0
 10
3007.5013192269539104
 20
138.2107590297092088
 30
0.0
 40
0.077967260717566
 50
78.4817235394527017
 51
89.3449069680252137
  0
ARC
  5
41EF8
  8
0
 10
3007.3596676339620899
 20
152.4933667283220018
 30
0.0
 40
14.20536072254286
 50
269.4412560784459174
 51
270.5749414154332726
  0
ARC
  5
41EF9
  8
0
 10
3007.2273679314189394
 20
138.3256363183492965
 30
0.0
 40
0.0374759244653581
 50
204.9964399699694866
 51
260.4343500767510022
  0
ARC
  5
41EFA
  8
0
 10
3007.8431193168421487
 20
125.2339669839823983
 30
0.0
 40
13.0919651814211395
 50
92.8445954495927168
 51
93.4157204758899553
  0
ARC
  5
41EFB
  8
0
 10
3007.1205592464880283
 20
138.0381704245276069
 30
0.0
 40
0.2706739310070664
 50
102.2568637436590961
 51
124.8489952193785939
  0
LINE
  5
41EFC
  8
0
 10
3006.9658919542698641
 20
138.2603019298232994
 30
0.0
 11
3006.9658919542698641
 21
138.1799122421845141
 31
0.0
  0
LINE
  5
41EFD
  8
0
 10
3006.9658919542698641
 20
138.1799122421845141
 30
0.0
 11
3007.0122007885361199
 21
138.1560261181305975
 31
0.0
  0
ARC
  5
41EFE
  8
0
 10
3007.0707216334340046
 20
138.269482453757206
 30
0.0
 40
0.1276598189776157
 50
242.7152896122724997
 51
266.083817751802485
  0
LINE
  5
41EFF
  8
0
 10
3007.0620028421699317
 20
138.1421207167232978
 30
0.0
 11
3007.1491602412261273
 21
138.1288939168233014
 31
0.0
  0
LINE
  5
41F00
  8
0
 10
2984.0556166028700318
 20
138.1288939168233014
 30
0.0
 11
2984.0578627047370901
 21
138.3310941281760904
 31
0.0
  0
ARC
  5
41F01
  8
0
 10
2984.8755328070128598
 20
138.2588474149567901
 30
0.0
 40
0.8208556412226373
 50
161.332965072953499
 51
174.9506410449752138
  0
LINE
  5
41F02
  8
0
 10
2984.0978586171700044
 20
138.5215770063232981
 30
0.0
 11
2984.1782048173417934
 21
138.5215883035837976
 31
0.0
  0
ARC
  5
41F03
  8
0
 10
2983.1122748792718085
 20
138.2019559463892904
 30
0.0
 40
1.112821403747392
 50
6.3686073038642848
 51
16.6920133790750995
  0
LINE
  5
41F04
  8
0
 10
2984.2182288890699056
 20
138.3253950198233042
 30
0.0
 11
2984.2204863609849781
 21
138.1288939168233014
 31
0.0
  0
LINE
  5
41F05
  8
0
 10
2984.0978586171700044
 20
138.5215770063232981
 30
0.0
 11
2984.0978573779530052
 21
138.1288939168233014
 31
0.0
  0
LINE
  5
41F06
  8
0
 10
2984.1782048173417934
 20
138.5215883035837976
 30
0.0
 11
2984.1782048301270152
 21
138.1288939168233014
 31
0.0
  0
LINE
  5
41F07
  8
0
 10
2989.0728487613678226
 20
138.1288939168233014
 30
0.0
 11
2989.0750948632348809
 21
138.3310941281760904
 31
0.0
  0
ARC
  5
41F08
  8
0
 10
2989.8927649655111054
 20
138.2588474149567901
 30
0.0
 40
0.8208556412226373
 50
161.332965072953499
 51
174.9506410449752138
  0
LINE
  5
41F09
  8
0
 10
2989.1150907756677952
 20
138.5215770063232981
 30
0.0
 11
2989.1954369758400389
 21
138.5215883035837976
 31
0.0
  0
ARC
  5
41F0A
  8
0
 10
2988.129507037770054
 20
138.2019559463892904
 30
0.0
 40
1.112821403747392
 50
6.3686073038642848
 51
16.6920133790750995
  0
LINE
  5
41F0B
  8
0
 10
2989.2354610475681511
 20
138.3253950198233042
 30
0.0
 11
2989.2377185194832236
 21
138.1288939168233014
 31
0.0
  0
LINE
  5
41F0C
  8
0
 10
2989.1150907756677952
 20
138.5215770063232981
 30
0.0
 11
2989.115089536450796
 21
138.1288939168233014
 31
0.0
  0
LINE
  5
41F0D
  8
0
 10
2989.1954369758400389
 20
138.5215883035837976
 30
0.0
 11
2989.1954369886238965
 21
138.1288939168233014
 31
0.0
  0
LINE
  5
41F0E
  8
0
 10
2994.0519165804239492
 20
138.1288939168233014
 30
0.0
 11
2994.054162682290098
 21
138.3310941281760904
 31
0.0
  0
ARC
  5
41F0F
  8
0
 10
2994.8718327845658678
 20
138.2588474149567901
 30
0.0
 40
0.8208556412226373
 50
161.332965072953499
 51
174.9506410449752138
  0
LINE
  5
41F10
  8
0
 10
2994.0941585947230124
 20
138.5215770063232981
 30
0.0
 11
2994.1745047948948013
 21
138.5215883035837976
 31
0.0
  0
ARC
  5
41F11
  8
0
 10
2993.1085748568261806
 20
138.2019559463892904
 30
0.0
 40
1.112821403747392
 50
6.3686073038642848
 51
16.6920133790750995
  0
LINE
  5
41F12
  8
0
 10
2994.214528866623823
 20
138.3253950198233042
 30
0.0
 11
2994.216786338537986
 21
138.1288939168233014
 31
0.0
  0
LINE
  5
41F13
  8
0
 10
2994.0941585947230124
 20
138.5215770063232981
 30
0.0
 11
2994.0941573555069226
 21
138.1288939168233014
 31
0.0
  0
LINE
  5
41F14
  8
0
 10
2994.1745047948948013
 20
138.5215883035837976
 30
0.0
 11
2994.1745048076800231
 21
138.1288939168233014
 31
0.0
  0
LINE
  5
41F15
  8
0
 10
2999.0519001212351213
 20
138.1288939168233014
 30
0.0
 11
2999.0541462231021796
 21
138.3310941281760904
 31
0.0
  0
ARC
  5
41F16
  8
0
 10
2999.8718163253770399
 20
138.2588474149567901
 30
0.0
 40
0.8208556412226373
 50
161.332965072953499
 51
174.9506410449752138
  0
LINE
  5
41F17
  8
0
 10
2999.094142135535094
 20
138.5215770063232981
 30
0.0
 11
2999.1744883357059734
 21
138.5215883035837976
 31
0.0
  0
ARC
  5
41F18
  8
0
 10
2998.108558397636898
 20
138.2019559463892904
 30
0.0
 40
1.112821403747392
 50
6.3686073038642848
 51
16.6920133790750995
  0
LINE
  5
41F19
  8
0
 10
2999.2145124074340856
 20
138.3253950198233042
 30
0.0
 11
2999.2167698793491581
 21
138.1288939168233014
 31
0.0
  0
LINE
  5
41F1A
  8
0
 10
2999.094142135535094
 20
138.5215770063232981
 30
0.0
 11
2999.0941408963180947
 21
138.1288939168233014
 31
0.0
  0
LINE
  5
41F1B
  8
0
 10
2999.1744883357059734
 20
138.5215883035837976
 30
0.0
 11
2999.1744883484911952
 21
138.1288939168233014
 31
0.0
  0
ARC
  5
41F1C
  8
0
 10
2993.1839969213001496
 20
188.7872756431449943
 30
0.0
 40
0.0373272267208724
 50
2.4848436193301922
 51
177.5120801888081985
  0
LINE
  5
41F1D
  8
0
 10
2993.146711049453188
 20
188.789497767924189
 30
0.0
 11
2993.146711049453188
 21
138.1288939168233014
 31
0.0
  0
LINE
  5
41F1E
  8
0
 10
2993.2217105069589707
 20
188.7889210837296901
 30
0.0
 11
2993.2217105069589707
 21
138.1288939168233014
 31
0.0
  0
LINE
  5
41F1F
  8
0
 10
2986.1256734606308783
 20
164.5832873287114069
 30
0.0
 11
2975.2016789132471786
 21
164.5832873287114069
 31
0.0
  0
LINE
  5
41F20
  8
0
 10
2986.2060381801038602
 20
164.5832873287114069
 30
0.0
 11
3000.8007280861188519
 21
164.5832873287114069
 31
0.0
  0
LINE
  5
41F21
  8
0
 10
2986.1256719125308337
 20
164.5032358226162046
 30
0.0
 11
2975.2016488109979946
 21
164.5032358226162046
 31
0.0
  0
LINE
  5
41F22
  8
0
 10
2986.2060381801038602
 20
164.5032358226162046
 30
0.0
 11
3000.8007280861188519
 21
164.5032358226162046
 31
0.0
  0
LINE
  5
41F23
  8
0
 10
2986.1256719125308337
 20
164.5032358226162046
 30
0.0
 11
2986.1256719125308337
 21
138.1288939168233014
 31
0.0
  0
LINE
  5
41F24
  8
0
 10
2986.1256719125308337
 20
164.5832778848134126
 30
0.0
 11
2986.1256719125308337
 21
176.6052208218139015
 31
0.0
  0
LINE
  5
41F25
  8
0
 10
2986.1256719125308337
 20
176.7250662286946863
 30
0.0
 11
2986.1256719125308337
 21
190.2118776609283941
 31
0.0
  0
LINE
  5
41F26
  8
0
 10
2986.2060381801038602
 20
164.5032358226162046
 30
0.0
 11
2986.2060381801038602
 21
138.1288939168233014
 31
0.0
  0
LINE
  5
41F27
  8
0
 10
2986.2060381801038602
 20
164.5832873287114069
 30
0.0
 11
2986.2060381801038602
 21
176.569664134290889
 31
0.0
  0
LINE
  5
41F28
  8
0
 10
2986.2060381801038602
 20
176.6854119347962921
 30
0.0
 11
2986.2060381801038602
 21
190.2118816147078064
 31
0.0
  0
LINE
  5
41F29
  8
0
 10
2986.0857084258959731
 20
176.6854119347962921
 30
0.0
 11
2975.2062297478460096
 21
176.6854119347962921
 31
0.0
  0
LINE
  5
41F2A
  8
0
 10
2986.2060381801038602
 20
176.6854119347962921
 30
0.0
 11
3000.8007280860479113
 21
176.6854119347962921
 31
0.0
  0
LINE
  5
41F2B
  8
0
 10
2986.1256766649921701
 20
176.6052208218139015
 30
0.0
 11
2975.2061995930989724
 21
176.6052208218139015
 31
0.0
  0
LINE
  5
41F2C
  8
0
 10
2986.2435232269717744
 20
176.6052208218139015
 30
0.0
 11
3000.8007280860479113
 21
176.6052208218139015
 31
0.0
  0
ARC
  5
41F2D
  8
0
 10
2986.0850696123061425
 20
176.7260204214030921
 30
0.0
 40
0.0406135108959056
 50
270.8532995625409967
 51
359.3810652183643128
  0
ARC
  5
41F2E
  8
0
 10
2986.2464352045358282
 20
176.564496945081487
 30
0.0
 40
0.0407261516385887
 50
90.6055983721924605
 51
172.7108691311821929
  0
LINE
  5
41F2F
  8
0
 10
2986.1256719125308337
 20
190.2117533885663931
 30
0.0
 11
2986.2060381801038602
 21
190.211694666817607
 31
0.0
  0
ARC
  5
41F30
  8
0
 10
2977.7528345045298011
 20
119.2126424131777043
 30
0.0
 40
88.5828121267245763
 50
88.3354350134399908
 51
89.5746474431735464
  0
LINE
  5
41F31
  8
0
 10
2980.3259927264371072
 20
207.7580740347108872
 30
0.0
 11
2982.0823381859518122
 21
207.7574276776682893
 31
0.0
  0
LINE
  5
41F32
  8
0
 10
2982.2568552724978872
 20
207.7573634532029985
 30
0.0
 11
2985.0823432259280708
 21
207.7563236383832077
 31
0.0
  0
LINE
  5
41F33
  8
0
 10
2985.2568506546372191
 20
207.7562594174721085
 30
0.0
 11
2988.4623422734271116
 21
207.7550797565621963
 31
0.0
  0
LINE
  5
41F34
  8
0
 10
2988.6368511988798673
 20
207.7550155351003127
 30
0.0
 11
2991.2123474034910942
 21
207.7540677203631105
 31
0.0
  0
LINE
  5
41F35
  8
0
 10
2991.3868460671728826
 20
207.7540035026777048
 30
0.0
 11
2994.8423385094720288
 21
207.7527318383455111
 31
0.0
  0
ARC
  5
41F36
  8
0
 10
2995.0298410938230518
 20
207.7216169861027879
 30
0.0
 40
0.0310668855572628
 50
90.8817797550510704
 51
114.7301370066826962
  0
ARC
  5
41F37
  8
0
 10
2996.2859837693781628
 20
126.1071422945467049
 30
0.0
 40
81.6552077606684747
 50
88.9177274641392756
 51
90.8817797550510704
  0
ARC
  5
41F38
  8
0
 10
2997.8276953623972076
 20
207.7160332611188096
 30
0.0
 40
0.0317554970580666
 50
62.4757071402517212
 51
88.9177274641392756
  0
ARC
  5
41F39
  8
0
 10
2998.0313076059987907
 20
207.7177146931298921
 30
0.0
 40
0.0296141744207084
 50
90.4976466545397642
 51
119.2866847373127968
  0
ARC
  5
41F3A
  8
0
 10
2999.0829828292698949
 20
86.6377558122634355
 30
0.0
 40
121.1141402847687942
 50
89.0921365730274744
 51
90.4976466545397642
  0
ARC
  5
41F3B
  8
0
 10
3001.0005869216879546
 20
207.648717111424304
 30
0.0
 40
0.0879862518397921
 50
1.145166229888136
 51
89.0921365730274744
  0
LINE
  5
41F3C
  8
0
 10
3001.0885555998697782
 20
207.6504755686233068
 30
0.0
 11
3001.0826413920699451
 21
207.3407957234232981
 31
0.0
  0
LINE
  5
41F3D
  8
0
 10
2978.3258616486700703
 20
203.2543258272997946
 30
0.0
 11
3000.800728085891933
 21
203.2543258272997946
 31
0.0
  0
LINE
  5
41F3E
  8
0
 10
2978.3258616486700703
 20
202.9390258882615115
 30
0.0
 11
3000.8007280858942067
 21
202.9390258882615115
 31
0.0
  0
LINE
  5
41F40
  8
0
 10
3006.6929659171541971
 20
148.2503238182893028
 30
0.0
 11
3002.776929320274121
 21
148.2503238182893028
 31
0.0
  0
ENDSEC
  0
EOF
