  0
SECTION
  2
HEADER
  9
$ACADVER
  1
AC1009
  9
$INSBASE
 10
298.79701267572369
 20
2.4279194426999982
 30
0.0
  9
$EXTMIN
 10
264.79701267572369
 20
2.4265309751465329
 30
0.0
  9
$EXTMAX
 10
298.80361272286672
 20
6.5998194427000012
 30
0.0
  9
$LIMMIN
 10
0.0
 20
0.0
  9
$LIMMAX
 10
11.692913385800001
 20
8.2677165353999982
  9
$ORTHOMODE
 70
     0
  9
$REGENMODE
 70
     1
  9
$FILLMODE
 70
     1
  9
$QTEXTMODE
 70
     0
  9
$MIRRTEXT
 70
     0
  9
$DRAGMODE
 70
     2
  9
$LTSCALE
 40
0.6431102362
  9
$OSMODE
 70
  3071
  9
$ATTMODE
 70
     1
  9
$TEXTSIZE
 40
0.2
  9
$TRACEWID
 40
0.05
  9
$TEXTSTYLE
  7
STANDARD
  9
$CLAYER
  8
0
  9
$CELTYPE
  6
BYLAYER
  9
$CECOLOR
 62
   256
  9
$DIMSCALE
 40
1.0
  9
$DIMASZ
 40
0.1875
  9
$DIMEXO
 40
0.0625
  9
$DIMDLI
 40
0.4443307087
  9
$DIMRND
 40
0.0
  9
$DIMDLE
 40
0.0
  9
$DIMEXE
 40
0.125
  9
$DIMTP
 40
0.01
  9
$DIMTM
 40
0.01
  9
$DIMTXT
 40
1.0
  9
$DIMCEN
 40
0.1052362205
  9
$DIMTSZ
 40
0.0
  9
$DIMTOL
 70
     1
  9
$DIMLIM
 70
     0
  9
$DIMTIH
 70
     1
  9
$DIMTOH
 70
     1
  9
$DIMSE1
 70
     0
  9
$DIMSE2
 70
     0
  9
$DIMTAD
 70
     0
  9
$DIMZIN
 70
     0
  9
$DIMBLK
  1

  9
$DIMASO
 70
     1
  9
$DIMSHO
 70
     1
  9
$DIMPOST
  1
\X
  9
$DIMAPOST
  1

  9
$DIMALT
 70
     1
  9
$DIMALTD
 70
     2
  9
$DIMALTF
 40
25.399999999999999
  9
$DIMLFAC
 40
1.0
  9
$DIMTOFL
 70
     0
  9
$DIMTVP
 40
0.0
  9
$DIMTIX
 70
     0
  9
$DIMSOXD
 70
     0
  9
$DIMSAH
 70
     0
  9
$DIMBLK1
  1

  9
$DIMBLK2
  1

  9
$DIMSTYLE
  2
STANDARD
  9
$DIMCLRD
 70
     0
  9
$DIMCLRE
 70
     0
  9
$DIMCLRT
 70
     0
  9
$DIMTFAC
 40
1.0
  9
$DIMGAP
 40
0.09
  9
$LUNITS
 70
     2
  9
$LUPREC
 70
     4
  9
$SKETCHINC
 40
0.1
  9
$FILLETRAD
 40
0.0
  9
$AUNITS
 70
     0
  9
$AUPREC
 70
     0
  9
$MENU
  1
.
  9
$ELEVATION
 40
0.0
  9
$PELEVATION
 40
0.0
  9
$THICKNESS
 40
0.0
  9
$LIMCHECK
 70
     0
  9
$BLIPMODE
 70
     0
  9
$CHAMFERA
 40
0.0
  9
$CHAMFERB
 40
0.0
  9
$SKPOLY
 70
     0
  9
$TDCREATE
 40
2458162.620810023
  9
$TDUPDATE
 40
2458170.7348801498
  9
$TDINDWG
 40
0.0158168403
  9
$TDUSRTIMER
 40
0.0158168403
  9
$USRTIMER
 70
     1
  9
$ANGBASE
 50
0.0
  9
$ANGDIR
 70
     0
  9
$PDMODE
 70
     0
  9
$PDSIZE
 40
0.3125
  9
$PLINEWID
 40
0.0
  9
$COORDS
 70
     1
  9
$SPLFRAME
 70
     0
  9
$SPLINETYPE
 70
     6
  9
$SPLINESEGS
 70
     8
  9
$ATTDIA
 70
     1
  9
$ATTREQ
 70
     1
  9
$HANDLING
 70
     1
  9
$HANDSEED
  5
1DB7
  9
$SURFTAB1
 70
     6
  9
$SURFTAB2
 70
     6
  9
$SURFTYPE
 70
     6
  9
$SURFU
 70
     6
  9
$SURFV
 70
     6
  9
$UCSNAME
  2

  9
$UCSORG
 10
0.0
 20
0.0
 30
0.0
  9
$UCSXDIR
 10
1.0
 20
0.0
 30
0.0
  9
$UCSYDIR
 10
0.0
 20
1.0
 30
0.0
  9
$PUCSNAME
  2

  9
$PUCSORG
 10
0.0
 20
0.0
 30
0.0
  9
$PUCSXDIR
 10
1.0
 20
0.0
 30
0.0
  9
$PUCSYDIR
 10
0.0
 20
1.0
 30
0.0
  9
$USERI1
 70
     0
  9
$USERI2
 70
     0
  9
$USERI3
 70
     0
  9
$USERI4
 70
     0
  9
$USERI5
 70
     0
  9
$USERR1
 40
0.0
  9
$USERR2
 40
0.0
  9
$USERR3
 40
0.0
  9
$USERR4
 40
0.0
  9
$USERR5
 40
0.0
  9
$WORLDVIEW
 70
     1
  9
$SHADEDGE
 70
     3
  9
$SHADEDIF
 70
    70
  9
$TILEMODE
 70
     1
  9
$MAXACTVP
 70
    64
  9
$PLIMCHECK
 70
     0
  9
$PEXTMIN
 10
1.0000000000000000E+020
 20
1.0000000000000000E+020
 30
1.0000000000000000E+020
  9
$PEXTMAX
 10
-1.0000000000000000E+020
 20
-1.0000000000000000E+020
 30
-1.0000000000000000E+020
  9
$PLIMMIN
 10
0.0
 20
0.0
  9
$PLIMMAX
 10
12.0
 20
9.0
  9
$UNITMODE
 70
     0
  9
$VISRETAIN
 70
     1
  9
$PLINEGEN
 70
     0
  9
$PSLTSCALE
 70
     1
  0
ENDSEC
  0
SECTION
  2
TABLES
  0
TABLE
  2
VPORT
 70
     1
  0
VPORT
  2
*ACTIVE
 70
     0
 10
0.0
 20
0.0
 11
1.0
 21
1.0
 12
0.0
 22
0.0
 13
0.0
 23
0.0
 14
1.0
 24
1.0
 15
0.0
 25
0.0
 16
0.0
 26
0.0
 36
96.343441585130122
 17
281.8003126992952
 27
4.513176838112658
 37
0.0
 40
34.271966005813631
 41
2.0983240223463682
 42
50.0
 43
0.0
 44
0.0
 50
0.0
 51
0.0
 71
     0
 72
   100
 73
     1
 74
     1
 75
     0
 76
     0
 77
     0
 78
     0
  0
ENDTAB
  0
TABLE
  2
LTYPE
 70
     2
  0
LTYPE
  2
CONTINUOUS
 70
     0
  3
Solid line
 72
    65
 73
     0
 40
0.0
  0
LTYPE
  2
PHANTOM2
 70
     0
  3
___ _ _ ___ _ _ ___ _ _ ___ _ _
 72
    65
 73
     6
 40
1.25
 49
0.625
 49
-0.125
 49
0.125
 49
-0.125
 49
0.125
 49
-0.125
  0
ENDTAB
  0
TABLE
  2
LAYER
 70
     2
  0
LAYER
  2
0
 70
     0
 62
   255
  6
CONTINUOUS
  0
LAYER
  2
DEFPOINTS
 70
     0
 62
     7
  6
CONTINUOUS
  0
ENDTAB
  0
TABLE
  2
STYLE
 70
     1
  0
STYLE
  2
STANDARD
 70
     0
 40
0.0
 41
0.8
 50
0.0
 71
     0
 42
0.2
  3
txt
  4

  0
ENDTAB
  0
TABLE
  2
VIEW
 70
     0
  0
ENDTAB
  0
TABLE
  2
UCS
 70
     0
  0
ENDTAB
  0
TABLE
  2
APPID
 70
     9
  0
APPID
  2
ACAD
 70
     0
  0
APPID
  2
ACAD_MLEADERVER
 70
     0
  0
APPID
  2
ACAD_EXEMPT_FROM_CAD_STANDARDS
 70
     0
  0
APPID
  2
ACAD_DSTYLE_DIMJAG
 70
     0
  0
APPID
  2
ACAD_DSTYLE_DIMTALN
 70
     0
  0
APPID
  2
ACAD_NAV_VCDISPLAY
 70
     0
  0
APPID
  2
ACAECLAYERSTANDARD
 70
     0
  0
APPID
  2
ACCMTRANSPARENCY
 70
     0
  0
APPID
  2
ACDBATTR
 70
     0
  0
ENDTAB
  0
TABLE
  2
DIMSTYLE
 70
     1
  0
DIMSTYLE
  2
STANDARD
 70
     0
  3

  4

  5

  6

  7

 40
1.0
 41
0.1875
 42
0.0625
 43
0.38
 44
0.125
 45
0.0
 46
0.0
 47
0.01
 48
0.01
140
0.15625
141
0.09
142
0.0
143
25.399999999999999
144
1.0
145
0.0
146
1.0
147
0.09
 71
     1
 72
     0
 73
     1
 74
     1
 75
     0
 76
     0
 77
     0
 78
     4
170
     0
171
     2
172
     0
173
     0
174
     0
175
     0
176
     0
177
     0
178
     0
  0
ENDTAB
  0
ENDSEC
  0
SECTION
  2
BLOCKS
  0
BLOCK
  8
0
  2
$MODEL_SPACE
 70
     0
 10
0.0
 20
0.0
 30
0.0
  3
$MODEL_SPACE
  1

  0
ENDBLK
  5
21
  8
0
  0
BLOCK
 67
     1
  8
0
  2
$PAPER_SPACE
 70
     0
 10
0.0
 20
0.0
 30
0.0
  3
$PAPER_SPACE
  1

  0
ENDBLK
  5
1D
 67
     1
  8
0
  0
ENDSEC
  0
SECTION
  2
ENTITIES
  0
LINE
  5
1A4B
  8
0
 10
264.79701267572369
 20
5.2248198832999977
 30
0.0
 11
264.79701267572369
 21
2.4279194426999999
 31
0.0
  0
LINE
  5
1A4C
  8
0
 10
264.84771446502373
 20
5.4110124844999996
 30
0.0
 11
265.5107641555237
 21
6.5381969585000004
 31
0.0
  0
LINE
  5
1A4D
  8
0
 10
265.28774001752367
 20
5.2272601468
 30
0.0
 11
265.26005025062381
 21
5.2866410434999986
 31
0.0
  0
LINE
  5
1A4E
  8
0
 10
274.4965089832238
 20
5.0598194426999976
 30
0.0
 11
274.40413294012382
 21
4.8998194426999984
 31
0.0
  0
LINE
  5
1A4F
  8
0
 10
273.30655341122372
 20
4.8998194426999984
 30
0.0
 11
273.21417736812373
 21
5.0598194426999976
 31
0.0
  0
LINE
  5
1A50
  8
0
 10
269.48023197682369
 20
3.6197834372000002
 30
0.0
 11
270.78553884718917
 21
2.8951732022699921
 31
0.0
  0
LINE
  5
1A51
  8
0
 10
269.48181481862377
 20
3.5753690148999961
 30
0.0
 11
270.78650472892372
 21
2.8481023429999981
 31
0.0
  0
LINE
  5
1A52
  8
0
 10
269.4849819567238
 20
3.5253186694999998
 30
0.0
 11
270.7882875264238
 21
2.793483408799998
 31
0.0
  0
LINE
  5
1A53
  8
0
 10
264.79701267572369
 20
2.4279194426999999
 30
0.0
 11
264.95201267572372
 21
2.4279194426999999
 31
0.0
  0
LINE
  5
1A54
  8
0
 10
266.2601040747237
 20
4.3498194427000012
 30
0.0
 11
267.71201267572371
 21
4.3498194427000012
 31
0.0
  0
LINE
  5
1A55
  8
0
 10
298.64701267572372
 20
4.7748194426999984
 30
0.0
 11
298.40743686502373
 21
4.7748194426999984
 31
0.0
  0
LINE
  5
1A56
  8
0
 10
284.18762658922373
 20
4.7748194426999984
 30
0.0
 11
283.52305976212369
 21
4.7748194426999984
 31
0.0
  0
LINE
  5
1A57
  8
0
 10
274.18762658922373
 20
4.7748194426999984
 30
0.0
 11
273.52305976212369
 21
4.7748194426999984
 31
0.0
  0
LINE
  5
1A58
  8
0
 10
283.21417736812373
 20
5.0598194426999976
 30
0.0
 11
274.4965089832238
 21
5.0598194426999976
 31
0.0
  0
LINE
  5
1A59
  8
0
 10
273.21417736812373
 20
5.0598194426999976
 30
0.0
 11
269.53973683622371
 21
5.0598194426999976
 31
0.0
  0
LINE
  5
1A5A
  8
0
 10
268.01461185562368
 20
5.0598194426999976
 30
0.0
 11
265.5505692758237
 21
5.0598194426999976
 31
0.0
  0
LINE
  5
1A5B
  8
0
 10
284.49650898322369
 20
5.0598194426999976
 30
0.0
 11
298.73701267572369
 21
5.0598194426999976
 31
0.0
  0
LINE
  5
1A5C
  8
0
 10
284.49650898322369
 20
5.0598194426999976
 30
0.0
 11
284.40413294012382
 21
4.8998194426999984
 31
0.0
  0
LINE
  5
1A5D
  8
0
 10
283.30655341122372
 20
4.8998194426999984
 30
0.0
 11
283.21417736812373
 21
5.0598194426999976
 31
0.0
  0
LINE
  5
1A5E
  8
0
 10
298.79701267572369
 20
6.5998194427000012
 30
0.0
 11
265.61850593242377
 21
6.5998194427000012
 31
0.0
  0
LINE
  5
1A5F
  8
0
 10
295.02055700132371
 20
2.8448838762999999
 30
0.0
 11
296.32683955082371
 21
3.575930669399999
 31
0.0
  0
LINE
  5
1A60
  8
0
 10
295.02523389622371
 20
2.896014834899999
 30
0.0
 11
296.32769280652371
 21
3.6201346022999998
 31
0.0
  0
LINE
  5
1A61
  8
0
 10
298.24242155132367
 20
5.0598194426999976
 30
0.0
 11
298.2582585807238
 21
4.9091401731999991
 31
0.0
  0
LINE
  5
1A62
  8
0
 10
298.79701267572369
 20
4.9248194426999996
 30
0.0
 11
298.79701267572369
 21
6.5998194427000012
 31
0.0
  0
ARC
  5
1A63
  8
0
 10
-126.1768412589762
 20
5.2248243538999981
 30
0.0
 40
391.13885393300001
 50
359.59029329049991
 51
359.99999934509998
  0
ARC
  5
1A64
  8
0
 10
266.2601040747237
 20
3.0456778370999991
 30
0.0
 40
1.304141605499999
 50
90.0
 51
179.6818491164
  0
ARC
  5
1A65
  8
0
 10
265.16424188692372
 20
5.2248198832000003
 30
0.0
 40
0.3672292112
 50
149.53445508040031
 51
180.0
  0
ARC
  5
1A66
  8
0
 10
265.5505692758237
 20
5.3498194427000012
 30
0.0
 40
0.29
 50
205.00000000010061
 51
270.0
  0
ARC
  5
1A67
  8
0
 10
265.1095433345925
 20
5.224806908733524
 30
0.0
 40
0.1475306594392605
 50
88.262047176603446
 51
179.99496116794651
  0
ARC
  5
1A68
  8
0
 10
265.12435893261511
 20
5.2225683050951526
 30
0.0
 40
0.1500581540177043
 50
25.276438783755111
 51
93.951662834206616
  0
ARC
  5
1A69
  8
0
 10
268.0143804304044
 20
4.911707058834204
 30
0.0
 40
0.1481125646663553
 50
20.06058472744181
 51
89.910475564561381
  0
ARC
  5
1A6A
  8
0
 10
268.54383333425289
 20
5.1031524961647232
 30
0.0
 40
0.4148908657938318
 50
199.81490524659171
 51
269.03756731554671
  0
ARC
  5
1A6B
  8
0
 10
269.00808494862048
 20
5.0953554536982164
 30
0.0
 40
0.4146381520421668
 50
269.09768431578033
 51
340.99947412475649
  0
ARC
  5
1A6C
  8
0
 10
269.53955435652898
 20
4.9123689217022539
 30
0.0
 40
0.1474506339129983
 50
89.929092749593039
 51
161.00627738761261
  0
ARC
  5
1A6D
  8
0
 10
265.61850593242377
 20
6.4748194427000012
 30
0.0
 40
0.125
 50
90.0
 51
149.53445508199979
  0
ARC
  5
1A6E
  8
0
 10
273.52305976212369
 20
5.0248194426999984
 30
0.0
 40
0.25
 50
209.99999999999949
 51
270.0
  0
ARC
  5
1A6F
  8
0
 10
274.18762658922373
 20
5.0248194426999984
 30
0.0
 40
0.25
 50
270.0
 51
330.00000000000051
  0
ARC
  5
1A70
  8
0
 10
283.52305976212369
 20
5.0248194426999984
 30
0.0
 40
0.25
 50
209.99999999999949
 51
270.0
  0
ARC
  5
1A71
  8
0
 10
284.18762658922373
 20
5.0248194426999984
 30
0.0
 40
0.25
 50
270.0
 51
330.00000000000051
  0
ARC
  5
1A72
  8
0
 10
298.64701267572372
 20
4.9248194425999978
 30
0.0
 40
0.15
 50
269.99999999909778
 51
0.0
  0
ARC
  5
1A73
  8
0
 10
298.40743686502373
 20
4.9248194426999996
 30
0.0
 40
0.15
 50
185.9999999999996
 51
270.0
  0
ARC
  5
1A74
  8
0
 10
298.73701267572369
 20
5.1198194426999999
 30
0.0
 40
0.06
 50
270.0
 51
0.0
  0
LINE
  5
1A75
  8
0
 10
273.28087158252367
 20
2.5207107054999991
 30
0.0
 11
274.82115569670532
 21
2.4850829826408241
 31
0.0
  0
LINE
  5
1A76
  8
0
 10
268.53686448322372
 20
4.688320161800001
 30
0.0
 11
269.00155533952369
 21
4.6807687180999986
 31
0.0
  0
ARC
  5
1A77
  8
0
 10
267.56382957172741
 20
2.6265661223776622
 30
0.0
 40
1.7296127422958081
 50
53.773262119863183
 51
85.085207679722345
  0
ARC
  5
1A78
  8
0
 10
272.41226244183918
 20
9.8876882702831761
 30
0.0
 40
7.0034789908664381
 50
236.88389514832741
 51
245.2931811712854
  0
ARC
  5
1A79
  8
0
 10
271.8712396845977
 20
5.0612094875036826
 30
0.0
 40
2.5130393838789198
 50
244.47320067225129
 51
262.42544606531129
  0
ARC
  5
1A7A
  8
0
 10
271.45541689041409
 20
1.8243296206897719
 30
0.0
 40
0.7505478815828632
 50
53.532964751992481
 51
83.530796748190241
  0
ARC
  5
1A7B
  8
0
 10
297.82781217892261
 20
4.911151833897855
 30
0.0
 40
0.1488375410134881
 50
92.738171026852896
 51
168.8185355740853
  0
ARC
  5
1A7C
  8
0
 10
296.05255935426447
 20
5.2503325749878602
 30
0.0
 40
1.658530173144009
 50
292.72557000626273
 51
349.21614046721152
  0
ARC
  5
1A7D
  8
0
 10
294.34676047073498
 20
1.8232204978244171
 30
0.0
 40
0.7509370302521055
 50
96.306060696388556
 51
126.36470584342921
  0
ARC
  5
1A7E
  8
0
 10
294.20661924580492
 20
4.158892515546162
 30
0.0
 40
1.590324229803636
 50
272.07776822421249
 51
300.84039786437972
  0
ARC
  5
1A7F
  8
0
 10
1538.1909219088029
 20
-2210.2888805667221
 30
0.0
 40
2538.3464290206089
 50
119.29080273465691
 51
119.3245100052126
  0
ARC
  5
1A80
  8
0
 10
298.7463553109431
 20
-0.5895708265760913
 30
0.0
 40
4.7741344618375052
 50
115.47019951341071
 51
120.48920387935971
  0
LINE
  5
1A81
  8
0
 10
271.90151267532372
 20
2.4279194426999999
 30
0.0
 11
272.90151267492382
 21
2.4279194426999999
 31
0.0
  0
LINE
  5
1A82
  8
0
 10
274.9015126778238
 20
2.4279194426999999
 30
0.0
 11
288.3176323982679
 21
2.4279194426043471
 31
0.0
  0
LINE
  5
1A83
  8
0
 10
292.90151268032378
 20
2.4279194426999999
 30
0.0
 11
293.9015126763237
 21
2.4279194426999999
 31
0.0
  0
ARC
  5
1A84
  8
0
 10
273.26408297835928
 20
1.7674846673559561
 30
0.0
 40
0.7534131149428989
 50
88.723149666765309
 51
118.7662273033349
  0
ARC
  5
1A85
  8
0
 10
274.42795222476519
 20
1.844468245946755
 30
0.0
 40
0.7514484690873498
 50
50.935353235025538
 51
89.134954025151444
  0
ARC
  5
1A86
  8
0
 10
276.34218938083671
 20
1.8001843456153539
 30
0.0
 40
0.7669728236486864
 50
89.885691960184332
 51
125.06926279416589
  0
ARC
  5
1A87
  8
0
 10
282.04400974525691
 20
1.76225735442391
 30
0.0
 40
0.7555887539766361
 50
61.761369296644581
 51
89.80755895973553
  0
LINE
  5
1A88
  8
0
 10
282.94813833579752
 20
5.0598194426999976
 30
0.0
 11
282.95026869362368
 21
4.154070072399997
 31
0.0
  0
LINE
  5
1A89
  8
0
 10
282.95026869362368
 20
4.154070072399997
 30
0.0
 11
282.92013377483829
 21
4.0135953812975362
 31
0.0
  0
LINE
  5
1A8A
  8
0
 10
282.92013377483829
 20
4.0135953812975362
 30
0.0
 11
282.87771245511499
 21
4.0137317512265946
 31
0.0
  0
LINE
  5
1A8B
  8
0
 10
282.87771245511499
 20
4.0137317512265946
 30
0.0
 11
282.84830944702372
 21
4.1418787764999978
 31
0.0
  0
LINE
  5
1A8C
  8
0
 10
282.84830944702372
 20
4.1418787764999978
 30
0.0
 11
282.84500163932461
 21
5.0598194426999976
 31
0.0
  0
LINE
  5
1A8D
  8
0
 10
272.45024381107203
 20
3.6763123489382412
 30
0.0
 11
272.4502783161625
 21
2.4279194426999999
 31
0.0
  0
LINE
  5
1A8E
  8
0
 10
272.3483553513982
 20
2.4279194426999999
 30
0.0
 11
272.34846700292712
 21
3.7032866172496819
 31
0.0
  0
ARC
  5
1A8F
  8
0
 10
272.94683114829252
 20
3.6095999121007489
 30
0.0
 40
0.5010484335037198
 50
148.87305023675401
 51
172.34859252747069
  0
ARC
  5
1A90
  8
0
 10
271.90752889635309
 20
3.6629950109859708
 30
0.0
 40
0.4427751431192829
 50
5.221017883883464
 51
28.03113985954985
  0
LINE
  5
1A91
  8
0
 10
272.29836310932382
 20
3.8710777957999989
 30
0.0
 11
272.51792164792369
 21
3.8686098987999999
 31
0.0
  0
LINE
  5
1A92
  8
0
 10
275.450051110922
 20
3.6375545559382418
 30
0.0
 11
275.45008454476232
 21
2.4279194426999999
 31
0.0
  0
LINE
  5
1A93
  8
0
 10
275.34816604428443
 20
2.4279194426999999
 30
0.0
 11
275.34827430277699
 21
3.6645288242496838
 31
0.0
  0
ARC
  5
1A94
  8
0
 10
275.94663844814249
 20
3.5708421191007509
 30
0.0
 40
0.5010484335037198
 50
148.87305023675401
 51
172.34859252747069
  0
ARC
  5
1A95
  8
0
 10
274.90733619620312
 20
3.6242372179859732
 30
0.0
 40
0.4427751431192829
 50
5.221017883883464
 51
28.03113985954985
  0
LINE
  5
1A96
  8
0
 10
275.29817040917368
 20
3.8323200028000008
 30
0.0
 11
275.51772894777372
 21
3.8298521058000019
 31
0.0
  0
LINE
  5
1A97
  8
0
 10
278.44983682862198
 20
3.6098259834382431
 30
0.0
 11
278.4498694960555
 21
2.4279194426999999
 31
0.0
  0
LINE
  5
1A98
  8
0
 10
278.34795418947158
 20
2.4279194426999999
 30
0.0
 11
278.34806002047708
 21
3.6368002517496851
 31
0.0
  0
ARC
  5
1A99
  8
0
 10
278.94642416584247
 20
3.5431135466007522
 30
0.0
 40
0.5010484335037198
 50
148.87305023675401
 51
172.34859252747069
  0
ARC
  5
1A9A
  8
0
 10
277.9071219139031
 20
3.596508645485974
 30
0.0
 40
0.4427751431192829
 50
5.221017883883464
 51
28.03113985954985
  0
LINE
  5
1A9B
  8
0
 10
278.29795612687371
 20
3.8045914303000021
 30
0.0
 11
278.5175146654737
 21
3.8021235332999992
 31
0.0
  0
LINE
  5
1A9C
  8
0
 10
281.44958406422199
 20
3.5952155118382421
 30
0.0
 11
281.44961632782781
 21
2.4279194426999999
 31
0.0
  0
LINE
  5
1A9D
  8
0
 10
281.34770270413969
 20
2.4279194426999999
 30
0.0
 11
281.34780725607709
 21
3.6221897801496841
 31
0.0
  0
ARC
  5
1A9E
  8
0
 10
281.94617140144248
 20
3.5285030750007511
 30
0.0
 40
0.5010484335037198
 50
148.87305023675401
 51
172.34859252747069
  0
ARC
  5
1A9F
  8
0
 10
280.90686914950311
 20
3.5818981738859721
 30
0.0
 40
0.4427751431192829
 50
5.221017883883464
 51
28.03113985954985
  0
LINE
  5
1AA0
  8
0
 10
281.29770336247373
 20
3.7899809587000011
 30
0.0
 11
281.51726190107382
 21
3.7875130617000021
 31
0.0
  0
LINE
  5
1AA1
  8
0
 10
284.44931138362199
 20
3.5952463648882409
 30
0.0
 11
284.44934364808051
 21
2.4279194426999999
 31
0.0
  0
LINE
  5
1AA2
  8
0
 10
284.34743002083871
 20
2.4279194426999999
 30
0.0
 11
284.34753457547708
 21
3.6222206331996829
 31
0.0
  0
ARC
  5
1AA3
  8
0
 10
284.94589872084248
 20
3.5285339280507499
 30
0.0
 40
0.5010484335037198
 50
148.87305023675401
 51
172.34859252747069
  0
ARC
  5
1AA4
  8
0
 10
283.90659646890322
 20
3.5819290269359718
 30
0.0
 40
0.4427751431192829
 50
5.221017883883464
 51
28.03113985954985
  0
LINE
  5
1AA5
  8
0
 10
284.29743068187372
 20
3.7900118117499999
 30
0.0
 11
284.5169892204737
 21
3.787543914750001
 31
0.0
  0
LINE
  5
1AA6
  8
0
 10
287.44905146212199
 20
3.6099125565882431
 30
0.0
 11
287.44908413194833
 21
2.4279194426999999
 31
0.0
  0
LINE
  5
1AA7
  8
0
 10
287.34716881539259
 20
2.4279194426999999
 30
0.0
 11
287.34727465397702
 21
3.6368868248996851
 31
0.0
  0
ARC
  5
1AA8
  8
0
 10
287.94563879934248
 20
3.5432001197507521
 30
0.0
 40
0.5010484335037198
 50
148.87305023675401
 51
172.34859252747069
  0
ARC
  5
1AA9
  8
0
 10
286.90633654740321
 20
3.5965952186359731
 30
0.0
 40
0.4427751431192829
 50
5.221017883883464
 51
28.03113985954985
  0
LINE
  5
1AAA
  8
0
 10
287.29717076037372
 20
3.8046780034500021
 30
0.0
 11
287.5167292989737
 21
3.8022101064499991
 31
0.0
  0
LINE
  5
1AAB
  8
0
 10
290.44883535062201
 20
3.6376874846882412
 30
0.0
 11
290.44886846387351
 21
2.439651263935358
 31
0.0
  0
LINE
  5
1AAC
  8
0
 10
290.34695115841771
 20
2.4380408022686568
 30
0.0
 11
290.34705854247699
 21
3.6646617529996819
 31
0.0
  0
ARC
  5
1AAD
  8
0
 10
290.94542268784249
 20
3.5709750478507489
 30
0.0
 40
0.5010484335037198
 50
148.87305023675401
 51
172.34859252747069
  0
ARC
  5
1AAE
  8
0
 10
289.90612043590318
 20
3.6243701467359708
 30
0.0
 40
0.4427751431192829
 50
5.221017883883464
 51
28.03113985954985
  0
LINE
  5
1AAF
  8
0
 10
290.29695464887368
 20
3.8324529315499989
 30
0.0
 11
290.51651318747372
 21
3.8299850345499999
 31
0.0
  0
LINE
  5
1AB0
  8
0
 10
293.44868173702201
 20
3.6761440940382411
 30
0.0
 11
293.44871623746201
 21
2.4279194426999999
 31
0.0
  0
LINE
  5
1AB1
  8
0
 10
293.34679329207808
 20
2.4279194426999999
 30
0.0
 11
293.346904928877
 21
3.7031183623496822
 31
0.0
  0
ARC
  5
1AB2
  8
0
 10
293.9452690742425
 20
3.6094316572007492
 30
0.0
 40
0.5010484335037198
 50
148.87305023675401
 51
172.34859252747069
  0
ARC
  5
1AB3
  8
0
 10
292.90596682230313
 20
3.6628267560859711
 30
0.0
 40
0.4427751431192829
 50
5.221017883883464
 51
28.03113985954985
  0
LINE
  5
1AB4
  8
0
 10
293.2968010352738
 20
3.8709095408999992
 30
0.0
 11
293.51635957387367
 21
3.8684416438999998
 31
0.0
  0
ARC
  5
1AB5
  8
0
 10
288.84077525384589
 20
100.9813705727116
 30
0.0
 40
98.554839597565135
 50
269.69586457052708
 51
272.24681424513608
  0
ARC
  5
1AB6
  8
0
 10
292.5387802553085
 20
1.7680944560832379
 30
0.0
 40
0.7529567267136743
 50
61.200628218654977
 51
91.282493628187254
  0
LINE
  5
1AB7
  8
0
 10
271.90401895721021
 20
2.4279194426999999
 30
0.0
 11
271.8905374542237
 21
2.5910917250999979
 31
0.0
  0
LINE
  5
1AB8
  8
0
 10
272.90103567722372
 20
2.427919188599998
 30
0.0
 11
272.89105613352382
 21
2.5697349056999998
 31
0.0
  0
LINE
  5
1AB9
  8
0
 10
274.90401895712381
 20
2.4279194426999999
 30
0.0
 11
274.79932953140741
 21
3.6918564496340851
 31
0.0
  0
LINE
  5
1ABA
  8
0
 10
275.90103167999638
 20
2.4279194426999999
 30
0.0
 11
275.82781227524748
 21
3.6803353485431649
 31
0.0
  0
LINE
  5
1ABB
  8
0
 10
282.4040189571237
 20
2.4279194426999999
 30
0.0
 11
282.30267338133308
 21
3.6436654651206459
 31
0.0
  0
LINE
  5
1ABC
  8
0
 10
283.40103648394029
 20
2.4279194426999999
 30
0.0
 11
283.32985421117007
 21
3.6435358682855372
 31
0.0
  0
LINE
  5
1ABD
  8
0
 10
292.9040189571931
 20
2.4279194426999999
 30
0.0
 11
292.79741365472933
 21
3.7156802318382911
 31
0.0
  0
LINE
  5
1ABE
  8
0
 10
293.90094941242978
 20
2.4279194426778239
 30
0.0
 11
293.82479423757047
 21
3.7314686705133222
 31
0.0
  0
ARC
  5
1ABF
  8
0
 10
291.49122706185091
 20
1.9298161970596519
 30
0.0
 40
1.4956645198753471
 50
19.452872640296022
 51
50.040671717253673
  0
ARC
  5
1AC0
  8
0
 10
1673.31855392941
 20
1649.0866900236299
 30
0.0
 40
2148.5212027256071
 50
229.98022798623819
 51
230.00612881195281
  0
ARC
  5
1AC1
  8
0
 10
295.3224765416133
 20
1.9224092824753081
 30
0.0
 40
1.5082038535254501
 50
130.08941369551241
 51
160.4169033680331
  0
ARC
  5
1AC2
  8
0
 10
-337.43493502128058
 20
756.39987004754107
 30
0.0
 40
983.1837203434302
 50
309.9853833757864
 51
310.04683542804833
  0
ARC
  5
1AC3
  8
0
 10
269.70960566248942
 20
5.3451142032275287
 30
0.0
 40
1.573755144103014
 50
198.39233595898881
 51
270.71332191500818
  0
ARC
  5
1AC4
  8
0
 10
282.90174293568498
 20
681.07841631582608
 30
0.0
 40
677.43501572783032
 50
268.88582849363888
 51
269.10717244448063
  0
ARC
  5
1AC5
  8
0
 10
282.90174293568498
 20
681.07841631582608
 30
0.0
 40
677.43501572783032
 50
269.11674299617988
 51
269.36092775091731
  0
ARC
  5
1AC6
  8
0
 10
282.90174293568498
 20
681.07841631582608
 30
0.0
 40
677.43501572783032
 50
269.37046493859953
 51
269.61464170164999
  0
ARC
  5
1AC7
  8
0
 10
282.90174293568498
 20
681.07841631582608
 30
0.0
 40
677.43501572783032
 50
269.62421723236571
 51
269.86834266042888
  0
ARC
  5
1AC8
  8
0
 10
282.90174293568498
 20
681.07841631582608
 30
0.0
 40
677.43501572783032
 50
269.87796268060669
 51
270.12205583143361
  0
ARC
  5
1AC9
  8
0
 10
282.90174293568498
 20
681.07841631582608
 30
0.0
 40
677.43501572783032
 50
270.13167689264287
 51
270.37578862636121
  0
ARC
  5
1ACA
  8
0
 10
282.90174293568498
 20
681.07841631582608
 30
0.0
 40
677.43501572783032
 50
270.38536747571573
 51
270.6295299252842
  0
ARC
  5
1ACB
  8
0
 10
282.90174293568498
 20
681.07841631582608
 30
0.0
 40
677.43501572783032
 50
270.63907300713799
 51
270.88325846520303
  0
ARC
  5
1ACC
  8
0
 10
282.90174293568498
 20
681.07841631582608
 30
0.0
 40
677.43501572783032
 50
270.89284860398749
 51
271.11445702368428
  0
ARC
  5
1ACD
  8
0
 10
296.0626500448758
 20
5.4356730461547063
 30
0.0
 40
1.6641940919233249
 50
270.51687846055592
 51
343.20993782408738
  0
ARC
  5
1ACE
  8
0
 10
297.8062630462436
 20
4.9049925939803121
 30
0.0
 40
0.1584441742190544
 50
102.2665666597734
 51
161.62323379318661
  0
ARC
  5
1ACF
  8
0
 10
283.14704097748302
 20
459.5555480731245
 30
0.0
 40
457.03903115453443
 50
269.14708378060482
 51
269.39836232343202
  0
ARC
  5
1AD0
  8
0
 10
283.14704097748302
 20
459.5555480731245
 30
0.0
 40
457.03903115453443
 50
269.41113778096098
 51
269.77443000246399
  0
ARC
  5
1AD1
  8
0
 10
283.14704097748302
 20
459.5555480731245
 30
0.0
 40
457.03903115453443
 50
269.78720496342891
 51
269.86203872120882
  0
ARC
  5
1AD2
  8
0
 10
283.7600648008106
 20
1.765405546867421
 30
0.0
 40
0.7535401831151855
 50
90.193942239393877
 51
118.4537823754906
  0
ARC
  5
1AD3
  8
0
 10
287.88836418850951
 20
1149.225846126712
 30
0.0
 40
1146.7143450922049
 50
269.79360091954601
 51
269.82307672354187
  0
ARC
  5
1AD4
  8
0
 10
287.88836418850951
 20
1149.225846126712
 30
0.0
 40
1146.7143450922049
 50
269.82816836697788
 51
269.97295944523859
  0
ARC
  5
1AD5
  8
0
 10
287.88836418850951
 20
1149.225846126712
 30
0.0
 40
1146.7143450922049
 50
269.97805118032522
 51
270.12284414785762
  0
ARC
  5
1AD6
  8
0
 10
287.88836418850951
 20
1149.225846126712
 30
0.0
 40
1146.7143450922049
 50
270.12793603972102
 51
270.23151742683569
  0
ARC
  5
1AD7
  8
0
 10
302.71191607863801
 20
1415.8660062228539
 30
0.0
 40
1413.6103935667011
 50
268.74362336248657
 51
268.76922459110688
  0
ARC
  5
1AD8
  8
0
 10
302.71191607863801
 20
1415.8660062228539
 30
0.0
 40
1413.6103935667011
 50
268.77335591813898
 51
268.86577502925149
  0
ARC
  5
1AD9
  8
0
 10
271.76291916417438
 20
4.6043697992180501
 30
0.0
 40
2.0094428399773991
 50
240.92769179345109
 51
268.68716090340052
  0
ARC
  5
1ADA
  8
0
 10
267.39399796556393
 20
0.0157250623544574
 30
0.0
 40
4.1267474214948958
 50
59.607350937155701
 51
65.772074846954865
  0
ARC
  5
1ADB
  8
0
 10
252.18054453373571
 20
-35.31950121263398
 30
0.0
 40
42.56929507858284
 50
66.01947855818365
 51
66.598100649518472
  0
ARC
  5
1ADC
  8
0
 10
292.58153335782163
 20
45.13056481630035
 30
0.0
 40
47.586208018284047
 50
240.4158299309816
 51
240.96378791603331
  0
ARC
  5
1ADD
  8
0
 10
269.6775568869391
 20
5.1634899703296258
 30
0.0
 40
1.5050019990309249
 50
246.91624033594189
 51
257.18206517102601
  0
ARC
  5
1ADE
  8
0
 10
271.78565394586519
 20
4.7467490222079842
 30
0.0
 40
2.1044151747169071
 50
241.62462539998961
 51
268.03649005394971
  0
ARC
  5
1ADF
  8
0
 10
878.91749580368639
 20
34594.687348142746
 30
0.0
 40
34597.372579693802
 50
268.99437422376798
 51
268.995425698703
  0
ARC
  5
1AE0
  8
0
 10
878.91749580368639
 20
34594.687348142746
 30
0.0
 40
34597.372579693802
 50
268.99559447759492
 51
268.99888895197728
  0
ARC
  5
1AE1
  8
0
 10
267.15771317537599
 20
-0.4397125830435354
 30
0.0
 40
4.6769222274324189
 50
60.225263930448023
 51
65.647937658514721
  0
ARC
  5
1AE2
  8
0
 10
269.59226758923091
 20
6.1880415733390999
 30
0.0
 40
2.4204369168426441
 50
257.9316440104551
 51
273.24310552681033
  0
ARC
  5
1AE3
  8
0
 10
294.02710751781092
 20
4.6719719085708578
 30
0.0
 40
2.079709728293635
 50
268.46943032011302
 51
298.5344193587182
  0
ARC
  5
1AE4
  8
0
 10
294.03801106504272
 20
4.6917856050897671
 30
0.0
 40
2.0492441478440209
 50
268.86779350537478
 51
298.79974264069591
  0
ARC
  5
1AE5
  8
0
 10
298.17671205171098
 20
0.4827189326938868
 30
0.0
 40
3.6041810400329441
 50
113.79087549320209
 51
120.88121426653341
  0
ARC
  5
1AE6
  8
0
 10
299.21546542014681
 20
-1.425586056272178
 30
0.0
 40
5.8137072444571363
 50
115.3848369896519
 51
119.78341179421621
  0
ARC
  5
1AE7
  8
0
 10
295.9628254773877
 20
5.5592375832001242
 30
0.0
 40
1.962886472384775
 50
285.65307632647711
 51
292.78275208998718
  0
ARC
  5
1AE8
  8
0
 10
295.91781661377792
 20
5.749106479941088
 30
0.0
 40
2.1267048919863232
 50
284.67140009716462
 51
292.24116433356738
  0
ARC
  5
1AE9
  8
0
 10
297.28759855066988
 20
2.5038336479554189
 30
0.0
 40
1.3676715270399229
 50
114.3851681766054
 51
124.82660488286081
  0
ARC
  5
1AEA
  8
0
 10
166.8199350642752
 20
6511.8457329041266
 30
0.0
 40
6509.4432496541203
 50
271.12877708770242
 51
271.13787050216712
  0
ARC
  5
1AEB
  8
0
 10
296.05166691554922
 20
5.3546627263971711
 30
0.0
 40
1.668908279528234
 50
271.18874874238088
 51
293.7251667690382
  0
ATTDEF
  5
1CA4
  8
DEFPOINTS
 10
298.79294605619998
 20
2.4349351204445879
 30
0.0
 40
0.001
  1
VIKRELL
  3

  2
MATERIAL
 70
     0
1001
ACDBATTR
1070
     0
1070
     1
  0
ATTDEF
  5
1CA5
  8
DEFPOINTS
 10
298.79294605619998
 20
2.4366017871112531
 30
0.0
 40
0.001
  1
SHOWER BASE
  3

  2
PRODUCT
 70
     0
1001
ACDBATTR
1070
     0
1070
     1
  0
ATTDEF
  5
1CA6
  8
DEFPOINTS
 10
298.79294605619998
 20
2.4382684537779191
 30
0.0
 40
0.001
  1
GUARD+
  3

  2
TRADENAME
 70
     0
1001
ACDBATTR
1070
     0
1070
     1
  0
ATTDEF
  5
1CA7
  8
DEFPOINTS
 10
298.79294605619998
 20
2.4399351204445838
 30
0.0
 40
0.001
  1
72331100
  3

  2
MODELNUMBER
 70
     0
1001
ACDBATTR
1070
     0
1070
     1
  0
ENDSEC
  0
EOF
