  0
SECTION
  2
HEADER
  9
$ACADVER
  1
AC1009
  9
$INSBASE
 10
199.44546601737369
 20
68.243917665400005
 30
0.0
  9
$EXTMIN
 10
169.4454660173237
 20
34.243917665399998
 30
0.0
  9
$EXTMAX
 10
229.44546601742371
 20
68.250462321117197
 30
0.0
  9
$LIMMIN
 10
0.0
 20
0.0
  9
$LIMMAX
 10
11.692913385800001
 20
8.2677165353999982
  9
$ORTHOMODE
 70
     0
  9
$REGENMODE
 70
     1
  9
$FILLMODE
 70
     1
  9
$QTEXTMODE
 70
     0
  9
$MIRRTEXT
 70
     0
  9
$DRAGMODE
 70
     2
  9
$LTSCALE
 40
0.6431102362
  9
$OSMODE
 70
  3071
  9
$ATTMODE
 70
     1
  9
$TEXTSIZE
 40
0.2
  9
$TRACEWID
 40
0.05
  9
$TEXTSTYLE
  7
STANDARD
  9
$CLAYER
  8
0
  9
$CELTYPE
  6
BYLAYER
  9
$CECOLOR
 62
   256
  9
$DIMSCALE
 40
1.0
  9
$DIMASZ
 40
0.1875
  9
$DIMEXO
 40
0.0625
  9
$DIMDLI
 40
0.4443307087
  9
$DIMRND
 40
0.0
  9
$DIMDLE
 40
0.0
  9
$DIMEXE
 40
0.125
  9
$DIMTP
 40
0.01
  9
$DIMTM
 40
0.01
  9
$DIMTXT
 40
1.0
  9
$DIMCEN
 40
0.1052362205
  9
$DIMTSZ
 40
0.0
  9
$DIMTOL
 70
     1
  9
$DIMLIM
 70
     0
  9
$DIMTIH
 70
     1
  9
$DIMTOH
 70
     1
  9
$DIMSE1
 70
     0
  9
$DIMSE2
 70
     0
  9
$DIMTAD
 70
     0
  9
$DIMZIN
 70
     0
  9
$DIMBLK
  1

  9
$DIMASO
 70
     1
  9
$DIMSHO
 70
     1
  9
$DIMPOST
  1
\X
  9
$DIMAPOST
  1

  9
$DIMALT
 70
     1
  9
$DIMALTD
 70
     2
  9
$DIMALTF
 40
25.399999999999999
  9
$DIMLFAC
 40
1.0
  9
$DIMTOFL
 70
     0
  9
$DIMTVP
 40
0.0
  9
$DIMTIX
 70
     0
  9
$DIMSOXD
 70
     0
  9
$DIMSAH
 70
     0
  9
$DIMBLK1
  1

  9
$DIMBLK2
  1

  9
$DIMSTYLE
  2
STANDARD
  9
$DIMCLRD
 70
     0
  9
$DIMCLRE
 70
     0
  9
$DIMCLRT
 70
     0
  9
$DIMTFAC
 40
1.0
  9
$DIMGAP
 40
0.09
  9
$LUNITS
 70
     2
  9
$LUPREC
 70
     4
  9
$SKETCHINC
 40
0.1
  9
$FILLETRAD
 40
0.0
  9
$AUNITS
 70
     0
  9
$AUPREC
 70
     0
  9
$MENU
  1
.
  9
$ELEVATION
 40
0.0
  9
$PELEVATION
 40
0.0
  9
$THICKNESS
 40
0.0
  9
$LIMCHECK
 70
     0
  9
$BLIPMODE
 70
     0
  9
$CHAMFERA
 40
0.0
  9
$CHAMFERB
 40
0.0
  9
$SKPOLY
 70
     0
  9
$TDCREATE
 40
2458162.620810023
  9
$TDUPDATE
 40
2458170.7347343629
  9
$TDINDWG
 40
0.0168969907
  9
$TDUSRTIMER
 40
0.0168969907
  9
$USRTIMER
 70
     1
  9
$ANGBASE
 50
0.0
  9
$ANGDIR
 70
     0
  9
$PDMODE
 70
     0
  9
$PDSIZE
 40
0.3125
  9
$PLINEWID
 40
0.0
  9
$COORDS
 70
     1
  9
$SPLFRAME
 70
     0
  9
$SPLINETYPE
 70
     6
  9
$SPLINESEGS
 70
     8
  9
$ATTDIA
 70
     1
  9
$ATTREQ
 70
     1
  9
$HANDLING
 70
     1
  9
$HANDSEED
  5
1DB8
  9
$SURFTAB1
 70
     6
  9
$SURFTAB2
 70
     6
  9
$SURFTYPE
 70
     6
  9
$SURFU
 70
     6
  9
$SURFV
 70
     6
  9
$UCSNAME
  2

  9
$UCSORG
 10
0.0
 20
0.0
 30
0.0
  9
$UCSXDIR
 10
1.0
 20
0.0
 30
0.0
  9
$UCSYDIR
 10
0.0
 20
1.0
 30
0.0
  9
$PUCSNAME
  2

  9
$PUCSORG
 10
0.0
 20
0.0
 30
0.0
  9
$PUCSXDIR
 10
1.0
 20
0.0
 30
0.0
  9
$PUCSYDIR
 10
0.0
 20
1.0
 30
0.0
  9
$USERI1
 70
     0
  9
$USERI2
 70
     0
  9
$USERI3
 70
     0
  9
$USERI4
 70
     0
  9
$USERI5
 70
     0
  9
$USERR1
 40
0.0
  9
$USERR2
 40
0.0
  9
$USERR3
 40
0.0
  9
$USERR4
 40
0.0
  9
$USERR5
 40
0.0
  9
$WORLDVIEW
 70
     1
  9
$SHADEDGE
 70
     3
  9
$SHADEDIF
 70
    70
  9
$TILEMODE
 70
     1
  9
$MAXACTVP
 70
    64
  9
$PLIMCHECK
 70
     0
  9
$PEXTMIN
 10
1.0000000000000000E+020
 20
1.0000000000000000E+020
 30
1.0000000000000000E+020
  9
$PEXTMAX
 10
-1.0000000000000000E+020
 20
-1.0000000000000000E+020
 30
-1.0000000000000000E+020
  9
$PLIMMIN
 10
0.0
 20
0.0
  9
$PLIMMAX
 10
12.0
 20
9.0
  9
$UNITMODE
 70
     0
  9
$VISRETAIN
 70
     1
  9
$PLINEGEN
 70
     0
  9
$PSLTSCALE
 70
     1
  0
ENDSEC
  0
SECTION
  2
TABLES
  0
TABLE
  2
VPORT
 70
     1
  0
VPORT
  2
*ACTIVE
 70
     0
 10
0.0
 20
0.0
 11
1.0
 21
1.0
 12
0.0
 22
0.0
 13
0.0
 23
0.0
 14
1.0
 24
1.0
 15
0.0
 25
0.0
 16
-0.0000000000000568
 26
0.0
 36
193.93415113118689
 17
199.44546601737369
 27
51.247189993258587
 37
0.0
 40
68.984585788496986
 41
2.0983240223463682
 42
50.0
 43
0.0
 44
0.0
 50
0.0
 51
0.0
 71
     0
 72
   100
 73
     1
 74
     1
 75
     0
 76
     0
 77
     0
 78
     0
  0
ENDTAB
  0
TABLE
  2
LTYPE
 70
     2
  0
LTYPE
  2
CONTINUOUS
 70
     0
  3
Solid line
 72
    65
 73
     0
 40
0.0
  0
LTYPE
  2
PHANTOM2
 70
     0
  3
___ _ _ ___ _ _ ___ _ _ ___ _ _
 72
    65
 73
     6
 40
1.25
 49
0.625
 49
-0.125
 49
0.125
 49
-0.125
 49
0.125
 49
-0.125
  0
ENDTAB
  0
TABLE
  2
LAYER
 70
     2
  0
LAYER
  2
0
 70
     0
 62
   255
  6
CONTINUOUS
  0
LAYER
  2
DEFPOINTS
 70
     0
 62
     7
  6
CONTINUOUS
  0
ENDTAB
  0
TABLE
  2
STYLE
 70
     1
  0
STYLE
  2
STANDARD
 70
     0
 40
0.0
 41
0.8
 50
0.0
 71
     0
 42
0.2
  3
txt
  4

  0
ENDTAB
  0
TABLE
  2
VIEW
 70
     0
  0
ENDTAB
  0
TABLE
  2
UCS
 70
     0
  0
ENDTAB
  0
TABLE
  2
APPID
 70
     9
  0
APPID
  2
ACAD
 70
     0
  0
APPID
  2
ACAD_MLEADERVER
 70
     0
  0
APPID
  2
ACAD_EXEMPT_FROM_CAD_STANDARDS
 70
     0
  0
APPID
  2
ACAD_DSTYLE_DIMJAG
 70
     0
  0
APPID
  2
ACAD_DSTYLE_DIMTALN
 70
     0
  0
APPID
  2
ACAD_NAV_VCDISPLAY
 70
     0
  0
APPID
  2
ACAECLAYERSTANDARD
 70
     0
  0
APPID
  2
ACCMTRANSPARENCY
 70
     0
  0
APPID
  2
ACDBATTR
 70
     0
  0
ENDTAB
  0
TABLE
  2
DIMSTYLE
 70
     1
  0
DIMSTYLE
  2
STANDARD
 70
     0
  3

  4

  5

  6

  7

 40
1.0
 41
0.1875
 42
0.0625
 43
0.38
 44
0.125
 45
0.0
 46
0.0
 47
0.01
 48
0.01
140
0.15625
141
0.09
142
0.0
143
25.399999999999999
144
1.0
145
0.0
146
1.0
147
0.09
 71
     1
 72
     0
 73
     1
 74
     1
 75
     0
 76
     0
 77
     0
 78
     4
170
     0
171
     2
172
     0
173
     0
174
     0
175
     0
176
     0
177
     0
178
     0
  0
ENDTAB
  0
ENDSEC
  0
SECTION
  2
BLOCKS
  0
BLOCK
  8
0
  2
$MODEL_SPACE
 70
     0
 10
0.0
 20
0.0
 30
0.0
  3
$MODEL_SPACE
  1

  0
ENDBLK
  5
21
  8
0
  0
BLOCK
 67
     1
  8
0
  2
$PAPER_SPACE
 70
     0
 10
0.0
 20
0.0
 30
0.0
  3
$PAPER_SPACE
  1

  0
ENDBLK
  5
1D
 67
     1
  8
0
  0
ENDSEC
  0
SECTION
  2
ENTITIES
  0
LINE
  5
1AEC
  8
0
 10
169.4869800711237
 20
34.294619454700012
 30
0.0
 11
169.4454660173237
 21
34.957669145300009
 31
0.0
  0
LINE
  5
1AED
  8
0
 10
169.60723367062371
 20
34.442951010000009
 30
0.0
 11
169.5736072355237
 21
35.009383434600011
 31
0.0
  0
LINE
  5
1AEE
  8
0
 10
169.4454660173237
 20
67.993917665400005
 30
0.0
 11
169.4454660173237
 21
34.957669145300002
 31
0.0
  0
LINE
  5
1AEF
  8
0
 10
169.57248814052369
 20
67.978917665400019
 30
0.0
 11
169.5736072355237
 21
35.009383434600011
 31
0.0
  0
LINE
  5
1AF0
  8
0
 10
229.39744997472371
 20
34.243917665400012
 30
0.0
 11
169.49348206002369
 21
34.243917665400012
 31
0.0
  0
LINE
  5
1AF1
  8
0
 10
169.5136436812237
 20
34.957669145300009
 30
0.0
 11
169.4454660173237
 21
34.957669145300009
 31
0.0
  0
LINE
  5
1AF2
  8
0
 10
169.57348224832791
 20
38.69161741210231
 30
0.0
 11
170.4098927634237
 21
38.738005543900002
 31
0.0
  0
LINE
  5
1AF3
  8
0
 10
183.85799378487371
 20
68.119035709200006
 30
0.0
 11
183.85799378487371
 21
67.823191388600009
 31
0.0
  0
LINE
  5
1AF4
  8
0
 10
184.00088797657369
 20
67.849204686800022
 30
0.0
 11
184.00088797657369
 21
68.119035709200006
 31
0.0
  0
LINE
  5
1AF5
  8
0
 10
184.8900440582737
 20
68.119035709200006
 30
0.0
 11
184.8900440582737
 21
67.849204339699995
 31
0.0
  0
LINE
  5
1AF6
  8
0
 10
185.03293824987369
 20
67.823191388600009
 30
0.0
 11
185.03293824987369
 21
68.119035709200006
 31
0.0
  0
LINE
  5
1AF7
  8
0
 10
183.89220232787369
 20
67.8006144565
 30
0.0
 11
184.99872970687369
 21
67.8006144565
 31
0.0
  0
LINE
  5
1AF8
  8
0
 10
184.78179088277369
 20
67.829596851199994
 30
0.0
 11
184.10914115197369
 21
67.829596851199994
 31
0.0
  0
LINE
  5
1AF9
  8
0
 10
229.17828543503859
 20
68.118917665400005
 30
0.0
 11
169.71264659972371
 21
68.118917665400005
 31
0.0
  0
LINE
  5
1AFA
  8
0
 10
169.6956591087237
 20
68.243917665400005
 30
0.0
 11
229.19527292602379
 21
68.243917665400005
 31
0.0
  0
ARC
  5
1AFB
  8
0
 10
172.1926454163609
 20
65.496713579060582
 30
0.0
 40
1.44817522040369
 50
90.149958725557909
 51
179.86835994324341
  0
ARC
  5
1AFC
  8
0
 10
169.71849321808159
 20
67.970872753793032
 30
0.0
 40
0.2739980297458821
 50
94.780389141447117
 51
175.17537465489031
  0
CIRCLE
  5
1AFD
  8
0
 10
199.4454660173237
 20
52.3484176654
 30
0.0
 40
2.1947918114
  0
CIRCLE
  5
1AFE
  8
0
 10
199.4454660173237
 20
52.3484176654
 30
0.0
 40
1.627832913
  0
ARC
  5
1AFF
  8
0
 10
5860.9727885659704
 20
52.355859108493689
 30
0.0
 40
5690.243495773625
 50
179.86764945852201
 51
180.13246192556849
  0
ARC
  5
1B00
  8
0
 10
169.7155462173715
 20
34.298162937092563
 30
0.0
 40
0.2285936120708244
 50
180.8881906879478
 51
193.72724073053459
  0
ARC
  5
1B01
  8
0
 10
169.71256943881031
 20
67.978836364771979
 30
0.0
 40
0.1400813218792711
 50
89.968439797345766
 51
179.96674657937089
  0
ARC
  5
1B02
  8
0
 10
169.51617256903029
 20
35.015358358907989
 30
0.0
 40
0.0577446156424427
 50
267.48996678536543
 51
354.06088741908951
  0
ARC
  5
1B03
  8
0
 10
170.3686638275943
 20
34.497068341621137
 30
0.0
 40
0.7633508823116441
 50
184.06536237007541
 51
199.36777602174271
  0
ARC
  5
1B04
  8
0
 10
183.88605897835379
 20
67.828510899630942
 30
0.0
 40
0.0285648784818133
 50
190.73259470297941
 51
282.41943096379413
  0
ARC
  5
1B05
  8
0
 10
185.00491642575139
 20
67.828445185747341
 30
0.0
 40
0.0285100861382275
 50
257.46704885633011
 51
349.38092717565252
  0
ARC
  5
1B06
  8
0
 10
184.0259892923759
 20
67.849204641183633
 30
0.0
 40
0.0251013158021773
 50
179.9998958769425
 51
262.09852112323722
  0
ARC
  5
1B07
  8
0
 10
184.1023507725132
 20
67.225293042197109
 30
0.0
 40
0.6043419585206965
 50
89.356211718109506
 51
97.588912246419952
  0
ARC
  5
1B08
  8
0
 10
184.78861421303529
 20
67.225835280002201
 30
0.0
 40
0.6038001264417822
 50
82.407388613129868
 51
90.647492987399076
  0
ARC
  5
1B09
  8
0
 10
184.8649728145501
 20
67.849178451471431
 30
0.0
 40
0.0250712570895142
 50
277.84171465611752
 51
0.0591628291822319
  0
LINE
  5
1B0A
  8
0
 10
198.85799378482369
 20
68.119035709200006
 30
0.0
 11
198.85799378482369
 21
67.823191388600009
 31
0.0
  0
LINE
  5
1B0B
  8
0
 10
199.0008879765237
 20
67.849204686800022
 30
0.0
 11
199.0008879765237
 21
68.119035709200006
 31
0.0
  0
LINE
  5
1B0C
  8
0
 10
199.89004405822371
 20
68.119035709200006
 30
0.0
 11
199.89004405822371
 21
67.849204339699995
 31
0.0
  0
LINE
  5
1B0D
  8
0
 10
200.0329382498237
 20
67.823191388600009
 30
0.0
 11
200.0329382498237
 21
68.119035709200006
 31
0.0
  0
LINE
  5
1B0E
  8
0
 10
198.8922023278237
 20
67.8006144565
 30
0.0
 11
199.9987297068237
 21
67.8006144565
 31
0.0
  0
LINE
  5
1B0F
  8
0
 10
199.7817908827237
 20
67.829596851199994
 30
0.0
 11
199.10914115192369
 21
67.829596851199994
 31
0.0
  0
ARC
  5
1B10
  8
0
 10
198.88605897830379
 20
67.828510899630942
 30
0.0
 40
0.0285648784818133
 50
190.7325947029793
 51
282.41943096379413
  0
ARC
  5
1B11
  8
0
 10
200.0049164257014
 20
67.828445185747341
 30
0.0
 40
0.0285100861382275
 50
257.46704885633011
 51
349.38092717565252
  0
ARC
  5
1B12
  8
0
 10
199.0259892923259
 20
67.849204641183633
 30
0.0
 40
0.0251013158021773
 50
179.9998958769425
 51
262.09852112323722
  0
ARC
  5
1B13
  8
0
 10
199.10235077246321
 20
67.225293042197109
 30
0.0
 40
0.6043419585206965
 50
89.356211718109506
 51
97.588912246419952
  0
ARC
  5
1B14
  8
0
 10
199.78861421298521
 20
67.225835280002201
 30
0.0
 40
0.6038001264417822
 50
82.407388613129868
 51
90.647492987399076
  0
ARC
  5
1B15
  8
0
 10
199.86497281450011
 20
67.849178451471431
 30
0.0
 40
0.0250712570895142
 50
277.84171465611752
 51
0.0591628291822319
  0
LINE
  5
1B16
  8
0
 10
169.5730062559625
 20
52.714775932900011
 30
0.0
 11
169.9116001825237
 21
52.714775932900011
 31
0.0
  0
LINE
  5
1B17
  8
0
 10
169.8855868843238
 20
52.857670124600013
 30
0.0
 11
169.5730014056611
 21
52.857670124600013
 31
0.0
  0
LINE
  5
1B18
  8
0
 10
169.5729712247639
 20
53.746826206300021
 30
0.0
 11
169.88558723142381
 21
53.746826206300021
 31
0.0
  0
LINE
  5
1B19
  8
0
 10
169.9116001825237
 20
53.889720397900007
 30
0.0
 11
169.57296637446251
 21
53.889720397900007
 31
0.0
  0
LINE
  5
1B1A
  8
0
 10
169.93417711462371
 20
52.748984475900002
 30
0.0
 11
169.93417711462371
 21
53.855511854900008
 31
0.0
  0
LINE
  5
1B1B
  8
0
 10
169.90519471992371
 20
53.638573030800011
 30
0.0
 11
169.90519471992371
 21
52.965923300000007
 31
0.0
  0
ARC
  5
1B1C
  8
0
 10
169.90628067149279
 20
52.742841126380071
 30
0.0
 40
0.0285648784818133
 50
280.7325947029791
 51
12.419430963791781
  0
ARC
  5
1B1D
  8
0
 10
169.90634638537639
 20
53.861698573777652
 30
0.0
 40
0.0285100861382275
 50
347.4670488563296
 51
79.380927175654378
  0
ARC
  5
1B1E
  8
0
 10
169.8855869299401
 20
52.882771440402152
 30
0.0
 40
0.0251013158021773
 50
269.99989587694228
 51
352.09852112323648
  0
ARC
  5
1B1F
  8
0
 10
170.5094985289266
 20
52.959132920539489
 30
0.0
 40
0.6043419585206965
 50
179.3562117181074
 51
187.5889122464219
  0
ARC
  5
1B20
  8
0
 10
170.50895629112151
 20
53.64539636106155
 30
0.0
 40
0.6038001264417822
 50
172.407388613129
 51
180.6474929874002
  0
ARC
  5
1B21
  8
0
 10
169.88561311965231
 20
53.721754962576419
 30
0.0
 40
0.0250712570895142
 50
7.8417146561200441
 51
90.059162829181204
  0
LINE
  5
1B22
  8
0
 10
169.5733456890257
 20
42.714775932900011
 30
0.0
 11
169.9116001825237
 21
42.714775932900011
 31
0.0
  0
LINE
  5
1B23
  8
0
 10
169.8855868843238
 20
42.857670124600013
 30
0.0
 11
169.5733408387245
 21
42.857670124600013
 31
0.0
  0
LINE
  5
1B24
  8
0
 10
169.57331065782719
 20
43.746826206300021
 30
0.0
 11
169.88563900787869
 21
43.746826206300021
 31
0.0
  0
LINE
  5
1B25
  8
0
 10
169.9116001825237
 20
43.889720397900007
 30
0.0
 11
169.57330580752591
 21
43.889720397900007
 31
0.0
  0
LINE
  5
1B26
  8
0
 10
169.93417711462371
 20
42.748984475900002
 30
0.0
 11
169.93417711462371
 21
43.855511854900001
 31
0.0
  0
LINE
  5
1B27
  8
0
 10
169.90519471992371
 20
43.638573030800011
 30
0.0
 11
169.90519471992371
 21
42.965923300000007
 31
0.0
  0
ARC
  5
1B28
  8
0
 10
169.90628067149279
 20
42.742841126380057
 30
0.0
 40
0.0285648784818133
 50
280.7325947029791
 51
12.419430963791781
  0
ARC
  5
1B29
  8
0
 10
169.90634638537639
 20
43.861698573777637
 30
0.0
 40
0.0285100861382275
 50
347.4670488563296
 51
79.380927175654378
  0
ARC
  5
1B2A
  8
0
 10
169.8855869299401
 20
42.882771440402138
 30
0.0
 40
0.0251013158021773
 50
269.99989587694228
 51
352.09852112323648
  0
ARC
  5
1B2B
  8
0
 10
170.5094985289266
 20
42.959132920539489
 30
0.0
 40
0.6043419585206965
 50
179.3562117181074
 51
187.5889122464219
  0
ARC
  5
1B2C
  8
0
 10
170.50895629112151
 20
43.64539636106155
 30
0.0
 40
0.6038001264417822
 50
172.407388613129
 51
180.6474929874002
  0
ARC
  5
1B2D
  8
0
 10
169.88561311965231
 20
43.721754962576419
 30
0.0
 40
0.0250712570895142
 50
7.8417146561200441
 51
90.059162829181204
  0
ARC
  5
1B2E
  8
0
 10
170.34925246004019
 20
39.134182715709109
 30
0.0
 40
0.4007912147953223
 50
278.70235667192082
 51
9.5410396778994571
  0
ARC
  5
1B2F
  8
0
 10
199.42994153894639
 20
-16985.607980187098
 30
0.0
 40
17052.574622537359
 50
89.908366054439242
 51
90.091528697444417
  0
ARC
  5
1B30
  8
0
 10
172.85169870954971
 20
39.896002575785552
 30
0.0
 40
2.2457944367621518
 50
200.57176423312379
 51
252.6875726287129
  0
LINE
  5
1B31
  8
0
 10
169.57351414371311
 20
37.751950988400012
 30
0.0
 11
229.3174178910343
 21
37.751950988400033
 31
0.0
  0
LINE
  5
1B32
  8
0
 10
169.5826834436053
 20
34.856496025200023
 30
0.0
 11
229.30824859114219
 21
34.856496025200023
 31
0.0
  0
LINE
  5
1B33
  8
0
 10
229.40395196362371
 20
34.294619454700012
 30
0.0
 11
229.44546601742371
 21
34.957669145300009
 31
0.0
  0
LINE
  5
1B34
  8
0
 10
229.28369836412369
 20
34.442951010000009
 30
0.0
 11
229.31732479922371
 21
35.009383434599997
 31
0.0
  0
LINE
  5
1B35
  8
0
 10
229.44546601742371
 20
67.993917665400005
 30
0.0
 11
229.44546601742371
 21
34.957669145300002
 31
0.0
  0
LINE
  5
1B36
  8
0
 10
229.31844389422369
 20
67.978917665400019
 30
0.0
 11
229.31732479922371
 21
35.009383434599997
 31
0.0
  0
LINE
  5
1B37
  8
0
 10
229.37728835352371
 20
34.957669145300009
 30
0.0
 11
229.44546601742371
 21
34.957669145300009
 31
0.0
  0
LINE
  5
1B38
  8
0
 10
229.31744978641959
 20
38.69161741210231
 30
0.0
 11
228.48103927132371
 21
38.738005543900002
 31
0.0
  0
ARC
  5
1B39
  8
0
 10
226.69837126115141
 20
65.496748745281025
 30
0.0
 40
1.448090497488365
 50
0.1302563529546344
 51
89.842487911127094
  0
ARC
  5
1B3A
  8
0
 10
229.1724388166659
 20
67.970872753793032
 30
0.0
 40
0.2739980297458821
 50
4.8246253451095891
 51
85.219610858549615
  0
ARC
  5
1B3B
  8
0
 10
-5462.081856531222
 20
52.355859108493689
 30
0.0
 40
5690.243495773625
 50
359.86753807443148
 51
0.132350541478027
  0
ARC
  5
1B3C
  8
0
 10
229.17538581737591
 20
34.298162937092563
 30
0.0
 40
0.2285936120708244
 50
346.27275926946521
 51
359.11180931205212
  0
ARC
  5
1B3D
  8
0
 10
229.17836259593719
 20
67.978836364771979
 30
0.0
 40
0.1400813218792711
 50
0.0332534206290346
 51
90.031560202654248
  0
ARC
  5
1B3E
  8
0
 10
229.37475946571709
 20
35.015358358907982
 30
0.0
 40
0.0577446156424427
 50
185.93911258091049
 51
272.51003321463457
  0
ARC
  5
1B3F
  8
0
 10
228.52226820715319
 20
34.497068341621137
 30
0.0
 40
0.7633508823116441
 50
340.63222397825712
 51
355.93463762992423
  0
LINE
  5
1B40
  8
0
 10
229.317925778785
 20
52.714775932899997
 30
0.0
 11
228.97933185222371
 21
52.714775932900011
 31
0.0
  0
LINE
  5
1B41
  8
0
 10
229.00534515042369
 20
52.857670124599998
 30
0.0
 11
229.31793062908631
 21
52.857670124599998
 31
0.0
  0
LINE
  5
1B42
  8
0
 10
229.31796080998359
 20
53.746826206300007
 30
0.0
 11
229.00534480332371
 21
53.746826206300007
 31
0.0
  0
LINE
  5
1B43
  8
0
 10
228.97933185222371
 20
53.889720397900007
 30
0.0
 11
229.3179656602849
 21
53.889720397900007
 31
0.0
  0
LINE
  5
1B44
  8
0
 10
228.9567549201237
 20
52.748984475900002
 30
0.0
 11
228.9567549201237
 21
53.855511854900001
 31
0.0
  0
LINE
  5
1B45
  8
0
 10
228.98573731482369
 20
53.638573030800003
 30
0.0
 11
228.98573731482369
 21
52.9659233
 31
0.0
  0
ARC
  5
1B46
  8
0
 10
228.98465136325461
 20
52.742841126380057
 30
0.0
 40
0.0285648784818133
 50
167.5805690362082
 51
259.26740529702101
  0
ARC
  5
1B47
  8
0
 10
228.98458564937101
 20
53.861698573777637
 30
0.0
 40
0.0285100861382275
 50
100.61907282434559
 51
192.5329511436702
  0
ARC
  5
1B48
  8
0
 10
229.0053451048073
 20
52.882771440402138
 30
0.0
 40
0.0251013158021773
 50
187.90147887676341
 51
270.00010412305772
  0
ARC
  5
1B49
  8
0
 10
228.38143350582081
 20
52.959132920539489
 30
0.0
 40
0.6043419585206965
 50
352.41108775357782
 51
0.6437882818925172
  0
ARC
  5
1B4A
  8
0
 10
228.3819757436259
 20
53.64539636106155
 30
0.0
 40
0.6038001264417822
 50
359.35250701259969
 51
7.5926113868707734
  0
ARC
  5
1B4B
  8
0
 10
229.0053189150951
 20
53.721754962576412
 30
0.0
 40
0.0250712570895142
 50
89.940837170818796
 51
172.1582853438797
  0
LINE
  5
1B4C
  8
0
 10
229.31758634572171
 20
42.714775932900011
 30
0.0
 11
228.97933185222371
 21
42.714775932900011
 31
0.0
  0
LINE
  5
1B4D
  8
0
 10
229.00534515042369
 20
42.857670124599998
 30
0.0
 11
229.31759119602299
 21
42.857670124599998
 31
0.0
  0
LINE
  5
1B4E
  8
0
 10
229.3176213769203
 20
43.746826206300007
 30
0.0
 11
229.0052930268688
 21
43.746826206300007
 31
0.0
  0
LINE
  5
1B4F
  8
0
 10
228.97933185222371
 20
43.8897203979
 30
0.0
 11
229.31762622722161
 21
43.8897203979
 31
0.0
  0
LINE
  5
1B50
  8
0
 10
228.9567549201237
 20
42.748984475900002
 30
0.0
 11
228.9567549201237
 21
43.855511854900001
 31
0.0
  0
LINE
  5
1B51
  8
0
 10
228.98573731482369
 20
43.638573030800003
 30
0.0
 11
228.98573731482369
 21
42.9659233
 31
0.0
  0
ARC
  5
1B52
  8
0
 10
228.98465136325461
 20
42.742841126380057
 30
0.0
 40
0.0285648784818133
 50
167.5805690362082
 51
259.26740529702101
  0
ARC
  5
1B53
  8
0
 10
228.98458564937101
 20
43.861698573777637
 30
0.0
 40
0.0285100861382275
 50
100.61907282434559
 51
192.5329511436702
  0
ARC
  5
1B54
  8
0
 10
229.0053451048073
 20
42.882771440402138
 30
0.0
 40
0.0251013158021773
 50
187.90147887676341
 51
270.00010412305772
  0
ARC
  5
1B55
  8
0
 10
228.38143350582081
 20
42.959132920539481
 30
0.0
 40
0.6043419585206965
 50
352.41108775357782
 51
0.6437882818925172
  0
ARC
  5
1B56
  8
0
 10
228.3819757436259
 20
43.645396361061543
 30
0.0
 40
0.6038001264417822
 50
359.35250701259969
 51
7.5926113868707734
  0
ARC
  5
1B57
  8
0
 10
229.0053189150951
 20
43.721754962576412
 30
0.0
 40
0.0250712570895142
 50
89.940837170818796
 51
172.1582853438797
  0
ARC
  5
1B58
  8
0
 10
228.54167957470719
 20
39.134182715709109
 30
0.0
 40
0.4007912147953223
 50
170.45896032210049
 51
261.29764332807918
  0
ARC
  5
1B59
  8
0
 10
226.03923332519781
 20
39.896002575785552
 30
0.0
 40
2.2457944367621518
 50
287.31242737128719
 51
339.42823576687613
  0
LINE
  5
1B65
  8
0
 10
213.85799378487371
 20
68.119035709200006
 30
0.0
 11
213.85799378487371
 21
67.823191388600009
 31
0.0
  0
LINE
  5
1B66
  8
0
 10
214.00088797657369
 20
67.849204686800022
 30
0.0
 11
214.00088797657369
 21
68.119035709200006
 31
0.0
  0
LINE
  5
1B67
  8
0
 10
214.8900440582737
 20
68.119035709200006
 30
0.0
 11
214.89004405827379
 21
67.849204339699995
 31
0.0
  0
LINE
  5
1B68
  8
0
 10
215.03293824987369
 20
67.823191388600009
 30
0.0
 11
215.03293824987369
 21
68.119035709200006
 31
0.0
  0
LINE
  5
1B69
  8
0
 10
213.8922023278738
 20
67.8006144565
 30
0.0
 11
214.99872970687369
 21
67.8006144565
 31
0.0
  0
LINE
  5
1B6A
  8
0
 10
214.78179088277369
 20
67.829596851199994
 30
0.0
 11
214.1091411519738
 21
67.829596851199994
 31
0.0
  0
ARC
  5
1B6B
  8
0
 10
213.88605897835379
 20
67.828510899630942
 30
0.0
 40
0.0285648784818133
 50
190.7325947029793
 51
282.41943096379413
  0
ARC
  5
1B6C
  8
0
 10
215.00491642575139
 20
67.828445185747341
 30
0.0
 40
0.0285100861382275
 50
257.46704885633011
 51
349.38092717565252
  0
ARC
  5
1B6D
  8
0
 10
214.0259892923759
 20
67.849204641183633
 30
0.0
 40
0.0251013158021773
 50
179.9998958769425
 51
262.09852112323722
  0
ARC
  5
1B6E
  8
0
 10
214.1023507725132
 20
67.225293042197109
 30
0.0
 40
0.6043419585206965
 50
89.356211718109506
 51
97.588912246419952
  0
ARC
  5
1B6F
  8
0
 10
214.78861421303529
 20
67.225835280002201
 30
0.0
 40
0.6038001264417822
 50
82.407388613129868
 51
90.647492987399076
  0
ARC
  5
1B70
  8
0
 10
214.8649728145501
 20
67.849178451471431
 30
0.0
 40
0.0250712570895142
 50
277.84171465611752
 51
0.0591628291822319
  0
ATTDEF
  5
1C63
  8
DEFPOINTS
 10
199.44256966882071
 20
68.244462321117169
 30
0.0
 40
0.001
  1
VIKRELL
  3

  2
MATERIAL
 70
     0
1001
ACDBATTR
1070
     0
1070
     1
  0
ATTDEF
  5
1C64
  8
DEFPOINTS
 10
199.44256966882071
 20
68.246128987783834
 30
0.0
 40
0.001
  1
SHOWER BASE
  3

  2
PRODUCT
 70
     0
1001
ACDBATTR
1070
     0
1070
     1
  0
ATTDEF
  5
1C65
  8
DEFPOINTS
 10
199.44256966882071
 20
68.247795654450499
 30
0.0
 40
0.001
  1
GUARD+
  3

  2
TRADENAME
 70
     0
1001
ACDBATTR
1070
     0
1070
     1
  0
ATTDEF
  5
1C66
  8
DEFPOINTS
 10
199.44256966882071
 20
68.249462321117164
 30
0.0
 40
0.001
  1
72331100
  3

  2
MODELNUMBER
 70
     0
1001
ACDBATTR
1070
     0
1070
     1
  0
ENDSEC
  0
EOF
