  0
SECTION
  2
HEADER
  9
$ACADVER
  1
AC1009
  9
$INSBASE
 10
-31.328769090600002
 20
98.888680918199995
 30
0.0
  9
$EXTMIN
 10
-61.328769090600012
 20
63.6471809182
 30
0.0
  9
$EXTMAX
 10
-1.3287690905999849
 20
98.888680918199995
 30
0.0
  9
$LIMMIN
 10
0.0
 20
0.0
  9
$LIMMAX
 10
22.0
 20
17.0
  9
$ORTHOMODE
 70
     0
  9
$REGENMODE
 70
     1
  9
$FILLMODE
 70
     1
  9
$QTEXTMODE
 70
     0
  9
$MIRRTEXT
 70
     0
  9
$DRAGMODE
 70
     2
  9
$LTSCALE
 40
1.2099999999999991
  9
$OSMODE
 70
    47
  9
$ATTMODE
 70
     1
  9
$TEXTSIZE
 40
0.2
  9
$TRACEWID
 40
0.05
  9
$TEXTSTYLE
  7
STANDARD
  9
$CLAYER
  8
0
  9
$CELTYPE
  6
BYLAYER
  9
$CECOLOR
 62
   256
  9
$DIMSCALE
 40
1.0
  9
$DIMASZ
 40
0.1875
  9
$DIMEXO
 40
0.0625
  9
$DIMDLI
 40
0.8359999999999999
  9
$DIMRND
 40
0.0
  9
$DIMDLE
 40
0.0
  9
$DIMEXE
 40
0.125
  9
$DIMTP
 40
0.0
  9
$DIMTM
 40
0.0
  9
$DIMTXT
 40
2.0
  9
$DIMCEN
 40
0.198
  9
$DIMTSZ
 40
0.0
  9
$DIMTOL
 70
     0
  9
$DIMLIM
 70
     0
  9
$DIMTIH
 70
     1
  9
$DIMTOH
 70
     1
  9
$DIMSE1
 70
     0
  9
$DIMSE2
 70
     0
  9
$DIMTAD
 70
     0
  9
$DIMZIN
 70
     0
  9
$DIMBLK
  1

  9
$DIMASO
 70
     1
  9
$DIMSHO
 70
     1
  9
$DIMPOST
  1
\X
  9
$DIMAPOST
  1

  9
$DIMALT
 70
     1
  9
$DIMALTD
 70
     4
  9
$DIMALTF
 40
25.399999999999999
  9
$DIMLFAC
 40
1.0
  9
$DIMTOFL
 70
     0
  9
$DIMTVP
 40
0.0
  9
$DIMTIX
 70
     0
  9
$DIMSOXD
 70
     0
  9
$DIMSAH
 70
     0
  9
$DIMBLK1
  1

  9
$DIMBLK2
  1

  9
$DIMSTYLE
  2
STANDARD
  9
$DIMCLRD
 70
     0
  9
$DIMCLRE
 70
     0
  9
$DIMCLRT
 70
     0
  9
$DIMTFAC
 40
1.0
  9
$DIMGAP
 40
0.09
  9
$LUNITS
 70
     2
  9
$LUPREC
 70
     4
  9
$SKETCHINC
 40
0.1
  9
$FILLETRAD
 40
0.0
  9
$AUNITS
 70
     0
  9
$AUPREC
 70
     0
  9
$MENU
  1
.
  9
$ELEVATION
 40
0.0
  9
$PELEVATION
 40
0.0
  9
$THICKNESS
 40
0.0
  9
$LIMCHECK
 70
     0
  9
$BLIPMODE
 70
     0
  9
$CHAMFERA
 40
0.0
  9
$CHAMFERB
 40
0.0
  9
$SKPOLY
 70
     0
  9
$TDCREATE
 40
2458158.7050209031
  9
$TDUPDATE
 40
2458159.4750885302
  9
$TDINDWG
 40
0.0721861806
  9
$TDUSRTIMER
 40
0.0721861806
  9
$USRTIMER
 70
     1
  9
$ANGBASE
 50
0.0
  9
$ANGDIR
 70
     0
  9
$PDMODE
 70
     0
  9
$PDSIZE
 40
0.3125
  9
$PLINEWID
 40
0.0
  9
$COORDS
 70
     1
  9
$SPLFRAME
 70
     0
  9
$SPLINETYPE
 70
     6
  9
$SPLINESEGS
 70
     8
  9
$ATTDIA
 70
     1
  9
$ATTREQ
 70
     1
  9
$HANDLING
 70
     1
  9
$HANDSEED
  5
460B
  9
$SURFTAB1
 70
     6
  9
$SURFTAB2
 70
     6
  9
$SURFTYPE
 70
     6
  9
$SURFU
 70
     6
  9
$SURFV
 70
     6
  9
$UCSNAME
  2

  9
$UCSORG
 10
0.0
 20
0.0
 30
0.0
  9
$UCSXDIR
 10
1.0
 20
0.0
 30
0.0
  9
$UCSYDIR
 10
0.0
 20
1.0
 30
0.0
  9
$PUCSNAME
  2

  9
$PUCSORG
 10
0.0
 20
0.0
 30
0.0
  9
$PUCSXDIR
 10
1.0
 20
0.0
 30
0.0
  9
$PUCSYDIR
 10
0.0
 20
1.0
 30
0.0
  9
$USERI1
 70
     0
  9
$USERI2
 70
     0
  9
$USERI3
 70
     0
  9
$USERI4
 70
     0
  9
$USERI5
 70
     0
  9
$USERR1
 40
0.0
  9
$USERR2
 40
0.0
  9
$USERR3
 40
0.0
  9
$USERR4
 40
0.0
  9
$USERR5
 40
0.0
  9
$WORLDVIEW
 70
     1
  9
$SHADEDGE
 70
     3
  9
$SHADEDIF
 70
    70
  9
$TILEMODE
 70
     1
  9
$MAXACTVP
 70
    48
  9
$PLIMCHECK
 70
     0
  9
$PEXTMIN
 10
1.0000000000000000E+020
 20
1.0000000000000000E+020
 30
1.0000000000000000E+020
  9
$PEXTMAX
 10
-1.0000000000000000E+020
 20
-1.0000000000000000E+020
 30
-1.0000000000000000E+020
  9
$PLIMMIN
 10
0.0
 20
0.0
  9
$PLIMMAX
 10
12.0
 20
9.0
  9
$UNITMODE
 70
     0
  9
$VISRETAIN
 70
     1
  9
$PLINEGEN
 70
     0
  9
$PSLTSCALE
 70
     1
  0
ENDSEC
  0
SECTION
  2
TABLES
  0
TABLE
  2
VPORT
 70
     1
  0
VPORT
  2
*ACTIVE
 70
     0
 10
0.0
 20
0.0
 11
1.0
 21
1.0
 12
-31.441717220538209
 22
77.350250891540554
 13
0.0
 23
0.0
 14
1.0
 24
1.0
 15
0.0
 25
0.0
 16
0.0
 26
0.0
 36
1.0
 17
0.0
 27
0.0
 37
0.0
 40
56.729360792836907
 41
2.0329087048832268
 42
50.0
 43
0.0
 44
0.0
 50
0.0
 51
0.0
 71
     0
 72
   100
 73
     1
 74
     1
 75
     0
 76
     0
 77
     0
 78
     0
  0
ENDTAB
  0
TABLE
  2
LTYPE
 70
     3
  0
LTYPE
  2
CONTINUOUS
 70
     0
  3
Solid line
 72
    65
 73
     0
 40
0.0
  0
LTYPE
  2
PHANTOM2
 70
     0
  3
___ _ _ ___ _ _ ___ _ _ ___ _ _
 72
    65
 73
     6
 40
1.25
 49
0.625
 49
-0.125
 49
0.125
 49
-0.125
 49
0.125
 49
-0.125
  0
ENDTAB
  0
TABLE
  2
LAYER
 70
     2
  0
LAYER
  2
0
 70
     0
 62
     7
  6
CONTINUOUS
  0
LAYER
  2
DEFPOINTS
 70
     0
 62
     7
  6
CONTINUOUS
  0
ENDTAB
  0
TABLE
  2
STYLE
 70
     1
  0
STYLE
  2
STANDARD
 70
     0
 40
0.0
 41
0.8
 50
0.0
 71
     0
 42
0.2
  3
txt
  4

  0
ENDTAB
  0
TABLE
  2
VIEW
 70
     0
  0
ENDTAB
  0
TABLE
  2
UCS
 70
     0
  0
ENDTAB
  0
TABLE
  2
APPID
 70
     7
  0
APPID
  2
ACAD
 70
     0
  0
APPID
  2
ACAD_MLEADERVER
 70
     0
  0
APPID
  2
ACAD_NAV_VCDISPLAY
 70
     0
  0
APPID
  2
ACAD_DSTYLE_DIMJAG
 70
     0
  0
APPID
  2
ACAD_DSTYLE_DIMTALN
 70
     0
  0
APPID
  2
ACAD_EXEMPT_FROM_CAD_STANDARDS
 70
     0
  0
APPID
  2
ACDBATTR
 70
     0
  0
ENDTAB
  0
TABLE
  2
DIMSTYLE
 70
     2
  0
DIMSTYLE
  2
STANDARD
 70
     0
  3

  4

  5

  6

  7

 40
1.0
 41
0.1875
 42
0.0625
 43
0.38
 44
0.125
 45
0.0
 46
0.0
 47
1.5
 48
1.5
140
0.15625
141
0.09
142
0.0
143
25.399999999999999
144
1.0
145
0.0
146
1.0
147
0.09
 71
     0
 72
     0
 73
     1
 74
     1
 75
     0
 76
     0
 77
     0
 78
     4
170
     0
171
     2
172
     0
173
     0
174
     0
175
     0
176
     0
177
     0
178
     0
  0
ENDTAB
  0
ENDSEC
  0
SECTION
  2
BLOCKS
  0
BLOCK
  8
0
  2
$MODEL_SPACE
 70
     0
 10
0.0
 20
0.0
 30
0.0
  3
$MODEL_SPACE
  1

  0
ENDBLK
  5
21
  8
0
  0
BLOCK
 67
     1
  8
0
  2
$PAPER_SPACE
 70
     0
 10
0.0
 20
0.0
 30
0.0
  3
$PAPER_SPACE
  1

  0
ENDBLK
  5
1D
 67
     1
  8
0
  0
ENDSEC
  0
SECTION
  2
ENTITIES
  0
CIRCLE
  5
342E
  8
0
 10
-31.328769090600002
 20
82.993180918199997
 30
0.0
 40
2.2107000000000001
  0
CIRCLE
  5
342F
  8
0
 10
-31.328769090600002
 20
82.993180918199997
 30
0.0
 40
1.678299999999999
  0
LINE
  5
3430
  8
0
 10
-1.3287690905999849
 20
63.6471809182
 30
0.0
 11
-1.3287690905999849
 21
98.638721216300027
 31
0.0
  0
LINE
  5
3431
  8
0
 10
-19.328769090600002
 20
98.888680918199995
 30
0.0
 11
-61.078575999200041
 21
98.888680918199995
 31
0.0
  0
ARC
  5
3432
  8
0
 10
-61.078692854821611
 20
98.638604698108296
 30
0.0
 40
0.2500762473938609
 50
89.973226828838534
 51
179.98253696749509
  0
LINE
  5
3433
  8
0
 10
-61.328769090600012
 20
98.638680918199981
 30
0.0
 11
-61.328769090600012
 21
63.6471809182
 31
0.0
  0
LINE
  5
3434
  8
0
 10
-61.328769090600012
 20
63.6471809182
 30
0.0
 11
-61.287721786800013
 21
63.647897510699998
 31
0.0
  0
ARC
  5
3435
  8
0
 10
-61.288769090657652
 20
63.707888369683239
 30
0.0
 40
0.0600000000576446
 50
271.00015230622739
 51
0.0000000159994623
  0
LINE
  5
3436
  8
0
 10
-61.228769090599997
 20
63.707888369700001
 30
0.0
 11
-61.228769098240797
 21
91.070409925999996
 31
0.0
  0
ARC
  5
3437
  8
0
 10
-61.58924813140586
 20
91.048118117137278
 30
0.0
 40
0.3611676315701497
 50
3.538630787914677
 51
24.905188048334342
  0
ARC
  5
3438
  8
0
 10
-61.284048806108757
 20
91.189820518459641
 30
0.0
 40
0.0246766232172682
 50
24.905188048335042
 51
80.608438687440596
  0
LINE
  5
343A
  8
0
 10
-61.32876909050001
 20
91.216721105000005
 30
0.0
 11
-61.187817700390987
 21
91.209334155639596
 31
0.0
  0
ARC
  5
343B
  8
0
 10
-61.311789656473962
 20
91.296166152292898
 30
0.0
 40
0.0839951361241957
 50
284.23210553390641
 51
352.2545986576344
  0
LINE
  5
343C
  8
0
 10
-61.228560831700008
 20
91.284846010099983
 30
0.0
 11
-61.20901681032143
 21
92.347455802342751
 31
0.0
  0
LINE
  5
343D
  8
0
 10
-61.32876909050001
 20
91.216721105000005
 30
0.0
 11
-61.1988848855
 21
98.657782233700004
 31
0.0
  0
LINE
  5
343E
  8
0
 10
-61.309761148487858
 20
92.305685374698044
 30
0.0
 11
-61.26972918109999
 21
92.304986613799997
 31
0.0
  0
ARC
  5
343F
  8
0
 10
-61.268628513218538
 20
92.368043806694061
 30
0.0
 40
0.0630667982813814
 50
268.99999955917968
 51
340.94670008164752
  0
LINE
  5
3440
  8
0
 10
-61.2090168103
 20
92.347455802400006
 30
0.0
 11
-61.162934205050007
 21
94.987526489900006
 31
0.0
  0
LINE
  5
3441
  8
0
 10
-61.162934205050007
 20
94.987526489900006
 30
0.0
 11
-61.098728611700011
 21
98.665862468999975
 31
0.0
  0
ARC
  5
3442
  8
0
 10
-60.973747649800487
 20
98.663680918195027
 30
0.0
 40
0.1250000000049805
 50
89.999999999778538
 51
178.99999999988989
  0
ARC
  5
3443
  8
0
 10
-60.963920677072842
 20
98.653680918133645
 30
0.0
 40
0.2350000000663167
 50
90.000000006617185
 51
178.9999999872195
  0
LINE
  5
3444
  8
0
 10
-60.973747649800004
 20
98.788680918199987
 30
0.0
 11
-19.328769090600002
 21
98.788680918199987
 31
0.0
  0
LINE
  5
3445
  8
0
 10
-61.187817700399997
 20
91.209334155600004
 30
0.0
 11
-60.691524368949949
 21
91.183324524222925
 31
0.0
  0
LINE
  5
3446
  8
0
 10
-60.691524368949949
 20
91.183324524222925
 30
0.0
 11
-59.888975682086439
 21
91.141250997067203
 31
0.0
  0
ARC
  5
3447
  8
0
 10
-59.887391365803623
 20
91.171471679893614
 30
0.0
 40
0.030262183142967
 50
266.99902172834669
 51
356.52956480623089
  0
ARC
  5
3448
  8
0
 10
-59.890545769184143
 20
91.111292111693103
 30
0.0
 40
0.0299999997725443
 50
356.99999919759517
 51
86.999983892493319
  0
LINE
  5
3449
  8
0
 10
-59.857184678457372
 20
91.169639804312695
 30
0.0
 11
-59.816172127869152
 21
91.952205888798431
 31
0.0
  0
LINE
  5
344A
  8
0
 10
-59.816172127869152
 20
91.952205888798431
 30
0.0
 11
-59.652912722491173
 21
95.067380918368485
 31
0.0
  0
ARC
  5
344B
  8
0
 10
-57.388812632996121
 20
94.948724460603358
 30
0.0
 40
2.2672072181917722
 50
92.999999993663877
 51
176.99999999999599
  0
LINE
  5
344C
  8
0
 10
-57.50746909051071
 20
97.21282455011152
 30
0.0
 11
-53.361746334079669
 21
97.430092672839521
 31
0.0
  0
LINE
  5
344D
  8
0
 10
-53.361746334079669
 20
97.430092672839521
 30
0.0
 11
-19.328769090600002
 21
97.44248563829504
 31
0.0
  0
LINE
  5
344E
  8
0
 10
-59.860586874799992
 20
91.109722032200011
 30
0.0
 11
-59.868514451899998
 21
90.958454848399981
 31
0.0
  0
ARC
  5
344F
  8
0
 10
-58.989409820616032
 20
90.912382927389785
 30
0.0
 40
0.8803110669817225
 50
177.00000003073271
 51
187.21977007489389
  0
ARC
  5
3450
  8
0
 10
-62.718386592565039
 20
90.439996323764973
 30
0.0
 40
2.8784675736167742
 50
359.33797941842732
 51
7.2197700748939901
  0
ARC
  5
3451
  8
0
 10
3800.5421988509029
 20
45.800201508184863
 30
0.0
 40
3860.6400146291262
 50
179.3379794184273
 51
179.395952773516
  0
LINE
  5
3452
  8
0
 10
-59.88326909060001
 20
86.500680918200004
 30
0.0
 11
-59.88326909060001
 21
69.604757605999993
 31
0.0
  0
ARC
  5
3453
  8
0
 10
-54.633269090397683
 20
69.604757605999993
 30
0.0
 40
5.250000000202327
 50
180.0
 51
195.02572478066611
  0
LINE
  5
3454
  8
0
 10
-59.703769090599998
 20
68.243680918199999
 30
0.0
 11
-59.703769090599998
 21
65.191856723000001
 31
0.0
  0
ARC
  5
3455
  8
0
 10
-59.953769090603537
 20
65.191856722999972
 30
0.0
 40
0.2500000000035456
 50
272.00030440950877
 51
359.99999999999841
  0
LINE
  5
3456
  8
0
 10
-59.945042889
 20
64.942009062599993
 30
0.0
 11
-61.170863378998831
 21
64.899195947166504
 31
0.0
  0
ARC
  5
3457
  8
0
 10
-61.168769090640431
 20
64.839232508710893
 30
0.0
 40
0.0599999999595808
 50
92.000304385609837
 51
180.00000001039521
  0
LINE
  5
3458
  8
0
 10
-19.328769090600002
 20
64.888680918200009
 30
0.0
 11
-61.202752245204792
 21
64.888680918200009
 31
0.0
  0
LINE
  5
3459
  8
0
 10
-59.743668949735529
 20
68.402129949655773
 30
0.0
 11
-58.59141843239999
 21
68.405436565400009
 31
0.0
  0
LINE
  5
345A
  8
0
 10
-58.59141843239999
 20
68.405436565400009
 30
0.0
 11
-19.328769090600002
 21
68.3928936235707
 31
0.0
  0
ARC
  5
345B
  8
0
 10
-58.089171876314211
 20
70.241858828953212
 30
0.0
 40
1.9038599692720419
 50
199.5504411704961
 51
254.7045648316014
  0
ARC
  5
345C
  8
0
 10
-53.998485002792279
 20
86.500683877987768
 30
0.0
 40
5.8847840878089483
 50
144.3999149447867
 51
180.0000288178031
  0
ARC
  5
345D
  8
0
 10
-59.022421272657851
 20
90.097480260068167
 30
0.0
 40
0.2939601096649309
 50
324.39991494478738
 51
36.385254967626892
  0
ARC
  5
345E
  8
0
 10
-59.60992641537996
 20
89.4106148278278
 30
0.0
 40
1.192048221138267
 50
46.260659297740197
 51
80.321110225387514
  0
ARC
  5
345F
  8
0
 10
-59.131961007564193
 20
91.743620805024676
 30
0.0
 40
1.1907254456506799
 50
239.3134120887361
 51
256.5207066778234
  0
ARC
  5
3460
  8
0
 10
-59.638098123255858
 20
90.927843761427908
 30
0.0
 40
0.2316528454190744
 50
181.68437034280589
 51
244.0028288568291
  0
LINE
  5
3461
  8
0
 10
-60.590715174216228
 20
91.178039613211809
 30
0.0
 11
-60.571028622199997
 21
91.553681404000002
 31
0.0
  0
LINE
  5
3462
  8
0
 10
-60.571028622199997
 20
91.553681404000002
 30
0.0
 11
-60.396949078599988
 21
91.550642834200005
 31
0.0
  0
LINE
  5
3463
  8
0
 10
-60.396949078599988
 20
91.550642834200005
 30
0.0
 11
-60.370085315096269
 21
91.166473116971787
 31
0.0
  0
ARC
  5
3464
  8
0
 10
-60.689901954363833
 20
91.214282039859825
 30
0.0
 40
0.0310000000871649
 50
266.99999983699092
 51
356.99999997829661
  0
LINE
  5
3465
  8
0
 10
-60.65894443869999
 20
91.212659625199976
 30
0.0
 11
-60.63669254764509
 21
91.637250996902054
 31
0.0
  0
ARC
  5
3466
  8
0
 10
-60.606733661606647
 20
91.635680918203633
 30
0.0
 40
0.0299999999963739
 50
90.000000178273922
 51
176.99999997829659
  0
LINE
  5
3467
  8
0
 10
-60.606733661699991
 20
91.665680918199996
 30
0.0
 11
-60.384804519499987
 21
91.665680918890502
 31
0.0
  0
ARC
  5
3468
  8
0
 10
-60.384804519406657
 20
91.635680919027024
 30
0.0
 40
0.0299999998634917
 50
2.9999984317801851
 51
90.000000178268195
  0
LINE
  5
3469
  8
0
 10
-60.354845633457359
 20
91.637250996887175
 30
0.0
 11
-60.331524416614698
 21
91.192255437545526
 31
0.0
  0
ARC
  5
346A
  8
0
 10
-60.300554224525968
 20
91.193883498343126
 30
0.0
 40
0.031012955034532
 50
183.009191168386
 51
266.97782473328078
  0
ARC
  5
346B
  8
0
 10
-60.505010163784078
 20
102.66154208510061
 30
0.0
 40
12.315132840488349
 50
276.99391487387231
 51
280.18496416949313
  0
ARC
  5
346C
  8
0
 10
-58.325986052637901
 20
90.57522735209136
 30
0.0
 40
0.0347843011420388
 50
291.5800639101256
 51
88.944825839457735
  0
ARC
  5
346D
  8
0
 10
-62.349972716599993
 20
54.830194312545053
 30
0.0
 40
36.005451408545817
 50
83.582164540650339
 51
85.230855441670457
  0
ARC
  5
346E
  8
0
 10
-47.88025125924699
 20
191.58253899998829
 30
0.0
 40
101.5222776757916
 50
263.36249609099582
 51
263.50935105075177
  0
ARC
  5
346F
  8
0
 10
-59.591643162443283
 20
91.043708521313349
 30
0.0
 40
0.3038703102157636
 50
203.80998087589069
 51
265.6024647746479
  0
ARC
  5
3470
  8
0
 10
-59.526497679857613
 20
91.025196504934371
 30
0.0
 40
0.0505327909509037
 50
82.204553056606557
 51
262.20455306770361
  0
ARC
  5
3471
  8
0
 10
-58.277397014133513
 20
100.1492460136794
 30
0.0
 40
9.2596875790486148
 50
262.20455306770361
 51
269.67224043328258
  0
ARC
  5
3472
  8
0
 10
-58.330077545694678
 20
90.940241904999965
 30
0.0
 40
0.0505327908999973
 50
269.67224043328912
 51
89.672240438425334
  0
ARC
  5
3473
  8
0
 10
-58.277397015106757
 20
100.14924598803211
 30
0.0
 40
9.1586219715962152
 50
262.2045530517052
 51
269.67224043842532
  0
ARC
  5
3474
  8
0
 10
-58.10139399106879
 20
90.582864916226924
 30
0.0
 40
0.1788726449605506
 50
23.9990632681885
 51
91.054013294477784
  0
ARC
  5
3475
  8
0
 10
-58.277397978583842
 20
100.1492984123274
 30
0.0
 40
9.3891797816795997
 50
262.20460226879999
 51
271.05401329447778
  0
ARC
  5
3476
  8
0
 10
-59.517011339143707
 20
91.09449101529259
 30
0.0
 40
0.2499140408733651
 50
177.00179521850961
 51
262.20460226879919
  0
LINE
  5
3477
  8
0
 10
-59.766583291199993
 20
91.107562685900007
 30
0.0
 11
-59.584465643875248
 21
94.584658927978595
 31
0.0
  0
ARC
  5
3478
  8
0
 10
-56.883254331663949
 20
94.443179309682805
 30
0.0
 40
2.7049138684274898
 50
92.998497521610972
 51
177.00179521850961
  0
ARC
  5
3479
  8
0
 10
-59.20109533479998
 20
95.404114105800005
 30
0.0
 40
0.0554227201999996
 50
157.32214779819489
 51
335.00303083169513
  0
ARC
  5
347A
  8
0
 10
-56.658939042594817
 20
94.218850870060237
 30
0.0
 40
2.7494672156075728
 50
114.9969691650556
 51
155.0030308316951
  0
ARC
  5
347B
  8
0
 10
-57.844202278204321
 20
96.761007162362475
 30
0.0
 40
0.0554227202329323
 50
294.99696916506099
 51
112.67785319495179
  0
ARC
  5
347C
  8
0
 10
-57.04291317651861
 20
94.602825004033434
 30
0.0
 40
2.3575113700319479
 50
110.4232020027316
 51
159.57679801732181
  0
LINE
  5
347D
  8
0
 10
-57.02474775120001
 20
97.144389899000004
 30
0.0
 11
-53.54765136419956
 21
97.326494506759445
 31
0.0
  0
ARC
  5
347E
  8
0
 10
-53.534580583690797
 20
97.076921669248861
 30
0.0
 40
0.2499148785610524
 50
7.795694449053225
 51
92.997990377888854
  0
ARC
  5
347F
  8
0
 10
-62.588819749425248
 20
95.837338332148136
 30
0.0
 40
9.3886135671018653
 50
358.94574901818288
 51
7.795694449053225
  0
ARC
  5
3480
  8
0
 10
-53.02295768758416
 20
95.661305161212482
 30
0.0
 40
0.1788680588768693
 50
178.94574901818211
 51
246.00267041869839
  0
ARC
  5
3481
  8
0
 10
-53.107897355253151
 20
95.470503617860388
 30
0.0
 40
0.0299858998820299
 50
345.4983849718605
 51
66.002665608408023
  0
ARC
  5
3482
  8
0
 10
-59.607936488167176
 20
97.148486722243007
 30
0.0
 40
6.7431175077338983
 50
315.11632908266478
 51
345.5250115231579
  0
ARC
  5
3483
  8
0
 10
-59.420991247320039
 20
96.96229906368049
 30
0.0
 40
6.4792721604632071
 50
294.40129010574981
 51
315.11632908266478
  0
ARC
  5
3484
  8
0
 10
-60.105695031032042
 20
98.471629840160205
 30
0.0
 40
8.1366492039443798
 50
285.70597747131279
 51
294.40129010574981
  0
ARC
  5
3485
  8
0
 10
-57.911014153098279
 20
90.666929658398089
 30
0.0
 40
0.0292470871645738
 50
202.75676694706789
 51
285.70597747132632
  0
ARC
  5
3486
  8
0
 10
-58.091888774851732
 20
90.616994025430529
 30
0.0
 40
0.0360312291658367
 50
283.16113153413988
 51
90.483268327487465
  0
ARC
  5
3487
  8
0
 10
-58.19311394051045
 20
102.618026377058
 30
0.0
 40
11.965428017066341
 50
266.06230521201093
 51
270.48326150807623
  0
LINE
  5
3488
  8
0
 10
-58.083684811364719
 20
90.581909207370501
 30
0.0
 11
-58.327368856850001
 21
90.540470547599995
 31
0.0
  0
ARC
  5
3489
  8
0
 10
-59.575093046393697
 20
97.203407699762252
 30
0.0
 40
6.9572264743203087
 50
276.36254599722213
 51
312.02263704238408
  0
ARC
  5
348A
  8
0
 10
-58.95172181408347
 20
96.511633641678884
 30
0.0
 40
6.0260213193146619
 50
312.02263704238408
 51
317.9773629571103
  0
ARC
  5
348B
  8
0
 10
-59.643501042720573
 20
97.135009533288041
 30
0.0
 40
6.9572334344706341
 50
317.9773629571103
 51
353.65721262238873
  0
LINE
  5
348C
  8
0
 10
-54.91775753074986
 20
92.035020513249805
 30
0.0
 11
-54.396201229798422
 21
91.513464212397494
 31
0.0
  0
ARC
  5
348D
  8
0
 10
-54.311698014891157
 20
91.585296935496956
 30
0.0
 40
0.1109086716066233
 50
220.36650090710509
 51
297.17849992254889
  0
ARC
  5
348E
  8
0
 10
-54.733949994018417
 20
92.142712945098594
 30
0.0
 40
0.8087549483556537
 50
305.7845994444238
 51
322.59395245097681
  0
ARC
  5
348F
  8
0
 10
-54.580455674645769
 20
92.291388565274303
 30
0.0
 40
0.8053656347163039
 50
307.38038640978812
 51
324.27739089547879
  0
ARC
  5
3490
  8
0
 10
-54.025389779277539
 20
91.871612854155075
 30
0.0
 40
0.1109094056988721
 50
332.9451648605982
 51
49.630672257167276
  0
LINE
  5
3491
  8
0
 10
-53.953552411599802
 20
91.956113084199785
 30
0.0
 11
-54.475108685689939
 21
92.477669358305832
 31
0.0
  0
LINE
  5
3492
  8
0
 10
-53.200628029800001
 20
97.335017512300013
 30
0.0
 11
-52.918296751
 21
96.656402193399998
 31
0.0
  0
ARC
  5
3493
  8
0
 10
-53.349261668851781
 20
97.267997881202035
 30
0.0
 40
0.1630447472637006
 50
24.270845062317068
 51
83.932894892429886
  0
ARC
  5
3494
  8
0
 10
-52.072339830219747
 20
96.985501599538793
 30
0.0
 40
0.9077166578491961
 50
201.25733901836369
 51
218.52539328278209
  0
ARC
  5
3495
  8
0
 10
-52.516985449651969
 20
96.631492637986284
 30
0.0
 40
0.3393575532861023
 50
218.52539328278209
 51
270.38091302227917
  0
ARC
  5
3496
  8
0
 10
-53.485635024109598
 20
97.149929251401034
 30
0.0
 40
0.306333070985735
 50
3.3513877464460249
 51
66.144912895106046
  0
LINE
  5
3497
  8
0
 10
-53.179825848000007
 20
97.167837299500022
 30
0.0
 11
-53.050093927099987
 21
95.885257319600015
 31
0.0
  0
ARC
  5
3498
  8
0
 10
-53.014325822496922
 20
95.887179385131219
 30
0.0
 40
0.0358197102557113
 50
183.07593665861131
 51
337.03198607440328
  0
LINE
  5
3499
  8
0
 10
-52.97851005324997
 20
95.887710719349997
 30
0.0
 11
-52.875233983645067
 21
96.562050883005753
 31
0.0
  0
ARC
  5
349A
  8
0
 10
-57.159506678166771
 20
96.651430110056992
 30
0.0
 40
4.2501764769604113
 50
343.76246185608892
 51
349.6482253116547
  0
ARC
  5
349B
  8
0
 10
-53.05712924490382
 20
95.652651544828871
 30
0.0
 40
0.0359870582737098
 50
180.8709947151026
 51
307.1609647616682
  0
LINE
  5
349C
  8
0
 10
-53.093112145088732
 20
95.652104500515975
 30
0.0
 11
-53.122515987552291
 21
96.601249838594725
 31
0.0
  0
LINE
  5
349D
  8
0
 10
-52.514729353999989
 20
96.292142584200008
 30
0.0
 11
-50.842931395599997
 21
96.392712727299994
 31
0.0
  0
ARC
  5
349E
  8
0
 10
-50.935767703324409
 20
97.935949566137595
 30
0.0
 40
1.5460266882487419
 50
273.44258639031477
 51
299.54411423191613
  0
ARC
  5
349F
  8
0
 10
-49.34969782237593
 20
95.137609873378437
 30
0.0
 40
1.670543333268496
 50
96.453191245757424
 51
119.5441142319161
  0
ARC
  5
34A0
  8
0
 10
-47.793375084278637
 20
81.378006804313912
 30
0.0
 40
15.51788304468341
 50
90.30062335412093
 51
96.453191245757424
  0
LINE
  5
34A1
  8
0
 10
-47.874794984400012
 20
96.895676248800015
 30
0.0
 11
-19.32876909059998
 21
96.972582164198954
 31
0.0
  0
LINE
  5
34A2
  8
0
 10
-19.328769090600002
 20
98.888680918199995
 30
0.0
 11
-1.578962181999964
 21
98.888680918199995
 31
0.0
  0
ARC
  5
34A3
  8
0
 10
-1.578845326378393
 20
98.638604698108296
 30
0.0
 40
0.2500762473938609
 50
0.0174630325048796
 51
90.026773171161466
  0
LINE
  5
34A4
  8
0
 10
-1.3287690905999989
 20
98.638680918199981
 30
0.0
 11
-1.3287690905999989
 21
63.6471809182
 31
0.0
  0
LINE
  5
34A5
  8
0
 10
-1.3287690905999989
 20
63.6471809182
 30
0.0
 11
-1.369816394399999
 21
63.647897510699998
 31
0.0
  0
ARC
  5
34A6
  8
0
 10
-1.368769090542352
 20
63.707888369683239
 30
0.0
 40
0.0600000000576446
 50
179.99999998400051
 51
268.99984769377249
  0
LINE
  5
34A7
  8
0
 10
-1.4287690906000079
 20
63.707888369700001
 30
0.0
 11
-1.428769082959201
 21
91.070409925999996
 31
0.0
  0
ARC
  5
34A8
  8
0
 10
-1.068290049794137
 20
91.048118117137278
 30
0.0
 40
0.3611676315701497
 50
155.0948119516656
 51
176.46136921208529
  0
ARC
  5
34A9
  8
0
 10
-1.373489375091248
 20
91.189820518459641
 30
0.0
 40
0.0246766232172682
 50
99.391561312558565
 51
155.09481195166501
  0
LINE
  5
34AB
  8
0
 10
-1.3287690907000009
 20
91.216721105000005
 30
0.0
 11
-1.4697204808090101
 21
91.209334155639596
 31
0.0
  0
ARC
  5
34AC
  8
0
 10
-1.3457485247260419
 20
91.296166152292898
 30
0.0
 40
0.0839951361241957
 50
187.74540134236551
 51
255.7678944660951
  0
LINE
  5
34AD
  8
0
 10
-1.428977349499996
 20
91.284846010099983
 30
0.0
 11
-1.4485213708785749
 21
92.347455802342751
 31
0.0
  0
LINE
  5
34AE
  8
0
 10
-1.3287690907000009
 20
91.216721105000005
 30
0.0
 11
-1.4586532956999969
 21
98.657782233700004
 31
0.0
  0
LINE
  5
34AF
  8
0
 10
-1.347777032712139
 20
92.305685374698044
 30
0.0
 11
-1.3878090001000141
 21
92.304986613799997
 31
0.0
  0
ARC
  5
34B0
  8
0
 10
-1.3889096679814601
 20
92.368043806694061
 30
0.0
 40
0.0630667982813814
 50
199.05329991835251
 51
271.00000044082032
  0
LINE
  5
34B1
  8
0
 10
-1.4485213709000051
 20
92.347455802400006
 30
0.0
 11
-1.494603976149997
 21
94.987526489900006
 31
0.0
  0
LINE
  5
34B2
  8
0
 10
-1.494603976149997
 20
94.987526489900006
 30
0.0
 11
-1.5588095694999931
 21
98.665862468999975
 31
0.0
  0
ARC
  5
34B3
  8
0
 10
-1.6837905313995181
 20
98.663680918195027
 30
0.0
 40
0.1250000000049805
 50
1.0000000001100791
 51
90.000000000221448
  0
ARC
  5
34B4
  8
0
 10
-1.6936175041271551
 20
98.653680918133645
 30
0.0
 40
0.2350000000663167
 50
1.0000000127804951
 51
89.999999993382005
  0
LINE
  5
34B5
  8
0
 10
-1.683790531400001
 20
98.788680918199987
 30
0.0
 11
-19.328769090600002
 21
98.788680918199987
 31
0.0
  0
LINE
  5
34B6
  8
0
 10
-1.4697204808000011
 20
91.209334155600004
 30
0.0
 11
-1.9660138122500479
 21
91.183324524222925
 31
0.0
  0
LINE
  5
34B7
  8
0
 10
-1.9660138122500479
 20
91.183324524222925
 30
0.0
 11
-2.7685624991135649
 21
91.141250997067203
 31
0.0
  0
ARC
  5
34B8
  8
0
 10
-2.7701468153963811
 20
91.171471679893614
 30
0.0
 40
0.030262183142967
 50
183.47043519376899
 51
273.0009782716532
  0
ARC
  5
34B9
  8
0
 10
-2.7669924120158611
 20
91.111292111693103
 30
0.0
 40
0.0299999997725443
 50
93.000016107505886
 51
183.00000080240471
  0
LINE
  5
34BA
  8
0
 10
-2.8003535027426318
 20
91.169639804312695
 30
0.0
 11
-2.8413660533308529
 21
91.952205888798431
 31
0.0
  0
LINE
  5
34BB
  8
0
 10
-2.8413660533308529
 20
91.952205888798431
 30
0.0
 11
-3.0046254587088379
 21
95.067380918368485
 31
0.0
  0
ARC
  5
34BC
  8
0
 10
-5.2687255482038831
 20
94.948724460603358
 30
0.0
 40
2.2672072181917722
 50
3.0000000000039679
 51
87.000000006336137
  0
LINE
  5
34BD
  8
0
 10
-5.1500690906892936
 20
97.21282455011152
 30
0.0
 11
-9.295791847120336
 21
97.430092672839521
 31
0.0
  0
LINE
  5
34BE
  8
0
 10
-9.295791847120336
 20
97.430092672839521
 30
0.0
 11
-19.328769090600002
 21
97.44248563829504
 31
0.0
  0
LINE
  5
34BF
  8
0
 10
-2.796951306400012
 20
91.109722032200011
 30
0.0
 11
-2.7890237293000069
 21
90.958454848399981
 31
0.0
  0
ARC
  5
34C0
  8
0
 10
-3.6681283605839718
 20
90.912382927389785
 30
0.0
 40
0.8803110669817225
 50
352.78022992510603
 51
2.999999969267289
  0
ARC
  5
34C1
  8
0
 10
0.0608484113650345
 20
90.439996323764973
 30
0.0
 40
2.8784675736167742
 50
172.780229925106
 51
180.66202058157259
  0
ARC
  5
34C2
  8
0
 10
-3863.1997370321028
 20
45.800201508184863
 30
0.0
 40
3860.6400146291262
 50
0.6040472264839703
 51
0.6620205815726692
  0
LINE
  5
34C3
  8
0
 10
-2.7742690905999949
 20
86.500680918200004
 30
0.0
 11
-2.7742690905999949
 21
69.604757605999993
 31
0.0
  0
ARC
  5
34C4
  8
0
 10
-8.0242690908023295
 20
69.604757605999993
 30
0.0
 40
5.250000000202327
 50
344.97427521933389
 51
0.0
  0
LINE
  5
34C5
  8
0
 10
-2.9537690905999989
 20
68.243680918199999
 30
0.0
 11
-2.9537690905999989
 21
65.191856723000001
 31
0.0
  0
ARC
  5
34C6
  8
0
 10
-2.7037690905964609
 20
65.191856722999972
 30
0.0
 40
0.2500000000035456
 50
180.00000000000159
 51
267.99969559049123
  0
LINE
  5
34C7
  8
0
 10
-2.7124952921999981
 20
64.942009062599993
 30
0.0
 11
-1.4866748022011731
 21
64.899195947166504
 31
0.0
  0
ARC
  5
34C8
  8
0
 10
-1.4887690905595801
 20
64.839232508710893
 30
0.0
 40
0.0599999999595808
 50
359.99999998960482
 51
87.999695614390177
  0
LINE
  5
34C9
  8
0
 10
-19.328769090600002
 20
64.888680918200009
 30
0.0
 11
-1.4547859359952131
 21
64.888680918200009
 31
0.0
  0
LINE
  5
34CA
  8
0
 10
-2.9138692314644672
 20
68.402129949655773
 30
0.0
 11
-4.0661197488000136
 21
68.405436565400009
 31
0.0
  0
LINE
  5
34CB
  8
0
 10
-4.0661197488000136
 20
68.405436565400009
 30
0.0
 11
-19.328769090600002
 21
68.3928936235707
 31
0.0
  0
ARC
  5
34CC
  8
0
 10
-4.5683663048857941
 20
70.241858828953212
 30
0.0
 40
1.9038599692720419
 50
285.29543516839863
 51
340.44955882950393
  0
ARC
  5
34CD
  8
0
 10
-8.659053178407726
 20
86.500683877987768
 30
0.0
 40
5.8847840878089483
 50
359.99997118219682
 51
35.600085055212688
  0
ARC
  5
34CE
  8
0
 10
-3.6351169085421531
 20
90.097480260068167
 30
0.0
 40
0.2939601096649309
 50
143.61474503237309
 51
215.6000850552127
  0
ARC
  5
34CF
  8
0
 10
-3.047611765820045
 20
89.4106148278278
 30
0.0
 40
1.192048221138267
 50
99.6788897746125
 51
133.7393407022598
  0
ARC
  5
34D0
  8
0
 10
-3.5255771736358179
 20
91.743620805024676
 30
0.0
 40
1.1907254456506799
 50
283.47929332217592
 51
300.68658791126393
  0
ARC
  5
34D1
  8
0
 10
-3.0195129675892738
 20
90.927925819651591
 30
0.0
 40
0.2317585607728458
 50
296.00448001402589
 51
358.27785703350742
  0
LINE
  5
34D2
  8
0
 10
-2.0668230069837761
 20
91.178039613211809
 30
0.0
 11
-2.0865095590000009
 21
91.553681404000002
 31
0.0
  0
LINE
  5
34D3
  8
0
 10
-2.0865095590000009
 20
91.553681404000002
 30
0.0
 11
-2.260589102600016
 21
91.550642834200005
 31
0.0
  0
LINE
  5
34D4
  8
0
 10
-2.260589102600016
 20
91.550642834200005
 30
0.0
 11
-2.2874528661037292
 21
91.166473116971787
 31
0.0
  0
ARC
  5
34D5
  8
0
 10
-1.9676362268361709
 20
91.214282039859825
 30
0.0
 40
0.0310000000871649
 50
183.00000002170341
 51
273.00000016300828
  0
LINE
  5
34D6
  8
0
 10
-1.998593742500014
 20
91.212659625199976
 30
0.0
 11
-2.020845633554921
 21
91.637250996902054
 31
0.0
  0
ARC
  5
34D7
  8
0
 10
-2.05080451959335
 20
91.635680918203633
 30
0.0
 40
0.0299999999963739
 50
3.00000002170342
 51
89.999999821726078
  0
LINE
  5
34D8
  8
0
 10
-2.0508045195000131
 20
91.665680918199996
 30
0.0
 11
-2.27273366170001
 21
91.665680918890502
 31
0.0
  0
ARC
  5
34D9
  8
0
 10
-2.2727336617933469
 20
91.635680919027024
 30
0.0
 40
0.0299999998634917
 50
89.999999821731791
 51
177.0000015682198
  0
LINE
  5
34DA
  8
0
 10
-2.3026925477426459
 20
91.637250996887175
 30
0.0
 11
-2.3260137645853058
 21
91.192255437545526
 31
0.0
  0
ARC
  5
34DB
  8
0
 10
-2.3569839566740369
 20
91.193883498343126
 30
0.0
 40
0.031012955034532
 50
273.02217526671922
 51
356.99080883161321
  0
ARC
  5
34DC
  8
0
 10
-2.1525280174159258
 20
102.66154208510061
 30
0.0
 40
12.315132840488349
 50
259.81503583050602
 51
263.00608512612769
  0
ARC
  5
34DD
  8
0
 10
-4.3315521285621026
 20
90.57522735209136
 30
0.0
 40
0.0347843011420388
 50
91.055174160542265
 51
248.4199360898744
  0
ARC
  5
34DE
  8
0
 10
-0.3075654646000121
 20
54.830194312545053
 30
0.0
 40
36.005451408545817
 50
94.769144558329543
 51
96.417835459348851
  0
ARC
  5
34DF
  8
0
 10
-14.77728692195301
 20
191.58253899998829
 30
0.0
 40
101.5222776757916
 50
276.49064894924811
 51
276.63750390900339
  0
ARC
  5
34E0
  8
0
 10
-3.065964002079038
 20
91.043899780847624
 30
0.0
 40
0.3040663008819715
 50
274.40773225275649
 51
336.15172377746541
  0
ARC
  5
34E1
  8
0
 10
-3.1310405013423921
 20
91.025196504934371
 30
0.0
 40
0.0505327909509037
 50
277.79544693229718
 51
97.795446943393443
  0
ARC
  5
34E2
  8
0
 10
-4.3801411670664923
 20
100.1492460136794
 30
0.0
 40
9.2596875790486148
 50
270.32775956671662
 51
277.79544693229718
  0
ARC
  5
34E3
  8
0
 10
-4.327460635505326
 20
90.940241904999965
 30
0.0
 40
0.0505327908999973
 50
90.32775956157468
 51
270.32775956671088
  0
ARC
  5
34E4
  8
0
 10
-4.3801411660932468
 20
100.14924598803211
 30
0.0
 40
9.1586219715962152
 50
270.32775956157468
 51
277.79544694829468
  0
ARC
  5
34E5
  8
0
 10
-4.5561441901312154
 20
90.582864916226924
 30
0.0
 40
0.1788726449605506
 50
88.945986705522216
 51
156.00093673181149
  0
ARC
  5
34E6
  8
0
 10
-4.3801402026161549
 20
100.1492984123274
 30
0.0
 40
9.3891797816795997
 50
268.94598670552222
 51
277.79539773120001
  0
ARC
  5
34E7
  8
0
 10
-3.1405268420562971
 20
91.09449101529259
 30
0.0
 40
0.2499140408733651
 50
277.79539773120081
 51
2.9982047814903638
  0
LINE
  5
34E8
  8
0
 10
-2.8909548900000122
 20
91.107562685900007
 30
0.0
 11
-3.073072537324756
 21
94.584658927978595
 31
0.0
  0
ARC
  5
34E9
  8
0
 10
-5.7742838495360562
 20
94.443179309682805
 30
0.0
 40
2.7049138684274898
 50
2.9982047814903638
 51
87.001502478389028
  0
ARC
  5
34EA
  8
0
 10
-3.4564428464000172
 20
95.404114105800005
 30
0.0
 40
0.0554227201999996
 50
204.99696916830479
 51
22.67785220180507
  0
ARC
  5
34EB
  8
0
 10
-5.9985991386051811
 20
94.218850870060237
 30
0.0
 40
2.7494672156075728
 50
24.996969168305931
 51
65.003030834944411
  0
ARC
  5
34EC
  8
0
 10
-4.813335902995683
 20
96.761007162362475
 30
0.0
 40
0.0554227202329323
 50
67.322146805048163
 51
245.0030308349389
  0
ARC
  5
34ED
  8
0
 10
-5.614625004681395
 20
94.602825004033434
 30
0.0
 40
2.3575113700319479
 50
20.423201982678101
 51
69.576797997268386
  0
LINE
  5
34EE
  8
0
 10
-5.6327904299999938
 20
97.144389899000004
 30
0.0
 11
-9.1098868170004383
 21
97.326494506759445
 31
0.0
  0
ARC
  5
34EF
  8
0
 10
-9.1229575975092079
 20
97.076921669248861
 30
0.0
 40
0.2499148785610524
 50
87.002009622111174
 51
172.20430555094671
  0
ARC
  5
34F0
  8
0
 10
-0.0687184317747498
 20
95.837338332148136
 30
0.0
 40
9.3886135671018653
 50
172.20430555094671
 51
181.05425098181701
  0
ARC
  5
34F1
  8
0
 10
-9.6345804936158501
 20
95.661305161212482
 30
0.0
 40
0.1788680588768693
 50
293.99732958130079
 51
1.05425098181787
  0
ARC
  5
34F2
  8
0
 10
-9.5496408259468613
 20
95.470503617860388
 30
0.0
 40
0.0299858998820299
 50
113.99733439159191
 51
194.5016150281395
  0
ARC
  5
34F3
  8
0
 10
-3.0496016930328209
 20
97.148486722243007
 30
0.0
 40
6.7431175077338983
 50
194.4749884768421
 51
224.88367091733579
  0
ARC
  5
34F4
  8
0
 10
-3.236546933879958
 20
96.96229906368049
 30
0.0
 40
6.4792721604632071
 50
224.88367091733579
 51
245.5987098942494
  0
ARC
  5
34F5
  8
0
 10
-2.5518431501679628
 20
98.471629840160205
 30
0.0
 40
8.1366492039443798
 50
245.5987098942494
 51
254.29402252868721
  0
ARC
  5
34F6
  8
0
 10
-4.7465240281017262
 20
90.666929658398089
 30
0.0
 40
0.0292470871645738
 50
254.29402252867371
 51
337.24323305293211
  0
ARC
  5
34F7
  8
0
 10
-4.5656494063482791
 20
90.616994025430529
 30
0.0
 40
0.0360312291658367
 50
89.516731672512535
 51
256.83886846586012
  0
ARC
  5
34F8
  8
0
 10
-4.4644242406895609
 20
102.618026377058
 30
0.0
 40
11.965428017066341
 50
269.51673849192298
 51
273.93769478798907
  0
LINE
  5
34F9
  8
0
 10
-4.5738533698352848
 20
90.581909207370501
 30
0.0
 11
-4.3301693243500043
 21
90.540470547599995
 31
0.0
  0
ARC
  5
34FA
  8
0
 10
-3.0824451348063011
 20
97.203407699762252
 30
0.0
 40
6.9572264743203087
 50
227.9773629576159
 51
263.63745400277782
  0
ARC
  5
34FB
  8
0
 10
-3.7058163671165341
 20
96.511633641678884
 30
0.0
 40
6.0260213193146619
 50
222.02263704288961
 51
227.9773629576159
  0
ARC
  5
34FC
  8
0
 10
-3.014037138479432
 20
97.135009533288041
 30
0.0
 40
6.9572334344706341
 50
186.3427873776113
 51
222.02263704288961
  0
LINE
  5
34FD
  8
0
 10
-7.739780650450137
 20
92.035020513249805
 30
0.0
 11
-8.2613369514015833
 21
91.513464212397494
 31
0.0
  0
ARC
  5
34FE
  8
0
 10
-8.3458401663088413
 20
91.585296935496956
 30
0.0
 40
0.1109086716066233
 50
242.82150007745119
 51
319.63349909289479
  0
ARC
  5
34FF
  8
0
 10
-7.9235881871815881
 20
92.142712945098594
 30
0.0
 40
0.8087549483556537
 50
217.40604754902191
 51
234.2154005555754
  0
ARC
  5
3500
  8
0
 10
-8.0770825065542287
 20
92.291388565274303
 30
0.0
 40
0.8053656347163039
 50
215.72260910452121
 51
232.61961359021271
  0
ARC
  5
3501
  8
0
 10
-8.6321484019224588
 20
91.871612854155075
 30
0.0
 40
0.1109094056988721
 50
130.3693277428327
 51
207.05483513940169
  0
LINE
  5
3502
  8
0
 10
-8.7039857696002034
 20
91.956113084199785
 30
0.0
 11
-8.1824294955100587
 21
92.477669358305832
 31
0.0
  0
LINE
  5
3503
  8
0
 10
-9.4569101514000042
 20
97.335017512300013
 30
0.0
 11
-9.7392414302000052
 21
96.656402193399998
 31
0.0
  0
ARC
  5
3504
  8
0
 10
-9.3082765123482236
 20
97.267997881202035
 30
0.0
 40
0.1630447472637006
 50
96.067105107570114
 51
155.72915493768289
  0
ARC
  5
3505
  8
0
 10
-10.58519835098026
 20
96.985501599538793
 30
0.0
 40
0.9077166578491961
 50
321.47460671721791
 51
338.74266098163628
  0
ARC
  5
3506
  8
0
 10
-10.140552731548031
 20
96.631492637986284
 30
0.0
 40
0.3393575532861023
 50
269.61908697772083
 51
321.47460671721791
  0
ARC
  5
3507
  8
0
 10
-9.1719031570904068
 20
97.149929251401034
 30
0.0
 40
0.306333070985735
 50
113.8550871048939
 51
176.64861225355389
  0
LINE
  5
3508
  8
0
 10
-9.4777123331999977
 20
97.167837299500022
 30
0.0
 11
-9.6074442541000113
 21
95.885257319600015
 31
0.0
  0
ARC
  5
3509
  8
0
 10
-9.6432123587030905
 20
95.887179385131219
 30
0.0
 40
0.0358197102557113
 50
202.96801392559669
 51
356.92406334138872
  0
LINE
  5
350A
  8
0
 10
-9.6790281279500281
 20
95.887710719349997
 30
0.0
 11
-9.7823041975549305
 21
96.562050883005753
 31
0.0
  0
ARC
  5
350B
  8
0
 10
-5.4980315030332259
 20
96.651430110056992
 30
0.0
 40
4.2501764769604113
 50
190.35177468834519
 51
196.23753814391111
  0
ARC
  5
350C
  8
0
 10
-9.6004089362961853
 20
95.652651544828871
 30
0.0
 40
0.0359870582737098
 50
232.83903523833189
 51
359.1290052848974
  0
LINE
  5
350D
  8
0
 10
-9.5644260361112803
 20
95.652104500515975
 30
0.0
 11
-9.5350221936477144
 21
96.601249838594725
 31
0.0
  0
LINE
  5
350E
  8
0
 10
-10.14280882720001
 20
96.292142584200008
 30
0.0
 11
-11.814606785600001
 21
96.392712727299994
 31
0.0
  0
ARC
  5
350F
  8
0
 10
-11.721770477875589
 20
97.935949566137595
 30
0.0
 40
1.5460266882487419
 50
240.45588576808379
 51
266.55741360968511
  0
ARC
  5
3510
  8
0
 10
-13.30784035882407
 20
95.137609873378437
 30
0.0
 40
1.670543333268496
 50
60.45588576808386
 51
83.546808754242576
  0
ARC
  5
3511
  8
0
 10
-14.86416309692137
 20
81.378006804313912
 30
0.0
 40
15.51788304468341
 50
83.546808754242576
 51
89.699376645879084
  0
LINE
  5
3512
  8
0
 10
-14.78274319679999
 20
96.895676248800015
 30
0.0
 11
-19.328769090600009
 21
96.972582164198954
 31
0.0
  0
ATTDEF
  5
429A
  8
DEFPOINTS
 10
-31.333798315070052
 20
98.874452381139193
 30
0.0
 40
0.001
  1
72330106
  3

  2
MODELNUMBER
 70
     0
1001
ACDBATTR
1070
     0
1070
     1
  0
ATTDEF
  5
429B
  8
DEFPOINTS
 10
-31.333798315070052
 20
98.872785714472542
 30
0.0
 40
0.001
  1
STORE
  3

  2
TRADENAME
 70
     0
1001
ACDBATTR
1070
     0
1070
     1
  0
ATTDEF
  5
429C
  8
DEFPOINTS
 10
-31.333798315070052
 20
98.871119047805877
 30
0.0
 40
0.001
  1
SHOWER STALL
  3

  2
PRODUCT
 70
     0
1001
ACDBATTR
1070
     0
1070
     1
  0
ATTDEF
  5
429D
  8
DEFPOINTS
 10
-31.333798315070052
 20
98.869452381139197
 30
0.0
 40
0.001
  1
VIKRELL
  3

  2
MATERIAL
 70
     0
1001
ACDBATTR
1070
     0
1070
     1
  0
ENDSEC
  0
EOF
