  0
SECTION
  2
HEADER
  9
$ACADVER
  1
AC1009
  9
$INSBASE
 10
-31.328769090600009
 20
-28.361963832099999
 30
0.0
  9
$EXTMIN
 10
-61.328769090600012
 20
-28.381192369260798
 30
0.0
  9
$EXTMAX
 10
-1.3287690905999501
 20
48.777425473299992
 30
0.0
  9
$LIMMIN
 10
0.0
 20
0.0
  9
$LIMMAX
 10
22.0
 20
17.0
  9
$ORTHOMODE
 70
     1
  9
$REGENMODE
 70
     1
  9
$FILLMODE
 70
     1
  9
$QTEXTMODE
 70
     0
  9
$MIRRTEXT
 70
     0
  9
$DRAGMODE
 70
     2
  9
$LTSCALE
 40
1.2099999999999991
  9
$OSMODE
 70
    47
  9
$ATTMODE
 70
     1
  9
$TEXTSIZE
 40
0.2
  9
$TRACEWID
 40
0.05
  9
$TEXTSTYLE
  7
STANDARD
  9
$CLAYER
  8
0
  9
$CELTYPE
  6
BYLAYER
  9
$CECOLOR
 62
   256
  9
$DIMSCALE
 40
1.0
  9
$DIMASZ
 40
0.1875
  9
$DIMEXO
 40
0.0625
  9
$DIMDLI
 40
0.8359999999999999
  9
$DIMRND
 40
0.0
  9
$DIMDLE
 40
0.0
  9
$DIMEXE
 40
0.125
  9
$DIMTP
 40
0.0
  9
$DIMTM
 40
0.0
  9
$DIMTXT
 40
2.0
  9
$DIMCEN
 40
0.198
  9
$DIMTSZ
 40
0.0
  9
$DIMTOL
 70
     0
  9
$DIMLIM
 70
     0
  9
$DIMTIH
 70
     1
  9
$DIMTOH
 70
     1
  9
$DIMSE1
 70
     0
  9
$DIMSE2
 70
     0
  9
$DIMTAD
 70
     0
  9
$DIMZIN
 70
     0
  9
$DIMBLK
  1

  9
$DIMASO
 70
     1
  9
$DIMSHO
 70
     1
  9
$DIMPOST
  1
\X
  9
$DIMAPOST
  1

  9
$DIMALT
 70
     1
  9
$DIMALTD
 70
     4
  9
$DIMALTF
 40
25.399999999999999
  9
$DIMLFAC
 40
1.0
  9
$DIMTOFL
 70
     0
  9
$DIMTVP
 40
0.0
  9
$DIMTIX
 70
     0
  9
$DIMSOXD
 70
     0
  9
$DIMSAH
 70
     0
  9
$DIMBLK1
  1

  9
$DIMBLK2
  1

  9
$DIMSTYLE
  2
STANDARD
  9
$DIMCLRD
 70
     0
  9
$DIMCLRE
 70
     0
  9
$DIMCLRT
 70
     0
  9
$DIMTFAC
 40
1.0
  9
$DIMGAP
 40
0.09
  9
$LUNITS
 70
     2
  9
$LUPREC
 70
     4
  9
$SKETCHINC
 40
0.1
  9
$FILLETRAD
 40
0.0
  9
$AUNITS
 70
     0
  9
$AUPREC
 70
     0
  9
$MENU
  1
.
  9
$ELEVATION
 40
0.0
  9
$PELEVATION
 40
0.0
  9
$THICKNESS
 40
0.0
  9
$LIMCHECK
 70
     0
  9
$BLIPMODE
 70
     0
  9
$CHAMFERA
 40
0.0
  9
$CHAMFERB
 40
0.0
  9
$SKPOLY
 70
     0
  9
$TDCREATE
 40
2458158.7050209031
  9
$TDUPDATE
 40
2458158.7748733801
  9
$TDINDWG
 40
0.0659875579
  9
$TDUSRTIMER
 40
0.0659875579
  9
$USRTIMER
 70
     1
  9
$ANGBASE
 50
0.0
  9
$ANGDIR
 70
     0
  9
$PDMODE
 70
     0
  9
$PDSIZE
 40
0.3125
  9
$PLINEWID
 40
0.0
  9
$COORDS
 70
     1
  9
$SPLFRAME
 70
     0
  9
$SPLINETYPE
 70
     6
  9
$SPLINESEGS
 70
     8
  9
$ATTDIA
 70
     1
  9
$ATTREQ
 70
     1
  9
$HANDLING
 70
     1
  9
$HANDSEED
  5
466D
  9
$SURFTAB1
 70
     6
  9
$SURFTAB2
 70
     6
  9
$SURFTYPE
 70
     6
  9
$SURFU
 70
     6
  9
$SURFV
 70
     6
  9
$UCSNAME
  2

  9
$UCSORG
 10
0.0
 20
0.0
 30
0.0
  9
$UCSXDIR
 10
1.0
 20
0.0
 30
0.0
  9
$UCSYDIR
 10
0.0
 20
1.0
 30
0.0
  9
$PUCSNAME
  2

  9
$PUCSORG
 10
0.0
 20
0.0
 30
0.0
  9
$PUCSXDIR
 10
1.0
 20
0.0
 30
0.0
  9
$PUCSYDIR
 10
0.0
 20
1.0
 30
0.0
  9
$USERI1
 70
     0
  9
$USERI2
 70
     0
  9
$USERI3
 70
     0
  9
$USERI4
 70
     0
  9
$USERI5
 70
     0
  9
$USERR1
 40
0.0
  9
$USERR2
 40
0.0
  9
$USERR3
 40
0.0
  9
$USERR4
 40
0.0
  9
$USERR5
 40
0.0
  9
$WORLDVIEW
 70
     1
  9
$SHADEDGE
 70
     3
  9
$SHADEDIF
 70
    70
  9
$TILEMODE
 70
     1
  9
$MAXACTVP
 70
    48
  9
$PLIMCHECK
 70
     0
  9
$PEXTMIN
 10
1.0000000000000000E+020
 20
1.0000000000000000E+020
 30
1.0000000000000000E+020
  9
$PEXTMAX
 10
-1.0000000000000000E+020
 20
-1.0000000000000000E+020
 30
-1.0000000000000000E+020
  9
$PLIMMIN
 10
0.0
 20
0.0
  9
$PLIMMAX
 10
12.0
 20
9.0
  9
$UNITMODE
 70
     0
  9
$VISRETAIN
 70
     1
  9
$PLINEGEN
 70
     0
  9
$PSLTSCALE
 70
     1
  0
ENDSEC
  0
SECTION
  2
TABLES
  0
TABLE
  2
VPORT
 70
     1
  0
VPORT
  2
*ACTIVE
 70
     0
 10
0.0
 20
0.0
 11
1.0
 21
1.0
 12
-21.903853977558171
 22
4.98046679627977
 13
0.0
 23
0.0
 14
1.0
 24
1.0
 15
0.0
 25
0.0
 16
0.0
 26
0.0
 36
1.0
 17
0.0
 27
0.0
 37
0.0
 40
89.902185014542539
 41
2.0329087048832268
 42
50.0
 43
0.0
 44
0.0
 50
0.0
 51
0.0
 71
     0
 72
   100
 73
     1
 74
     1
 75
     0
 76
     0
 77
     0
 78
     0
  0
ENDTAB
  0
TABLE
  2
LTYPE
 70
     3
  0
LTYPE
  2
CONTINUOUS
 70
     0
  3
Solid line
 72
    65
 73
     0
 40
0.0
  0
LTYPE
  2
PHANTOM2
 70
     0
  3
___ _ _ ___ _ _ ___ _ _ ___ _ _
 72
    65
 73
     6
 40
1.25
 49
0.625
 49
-0.125
 49
0.125
 49
-0.125
 49
0.125
 49
-0.125
  0
ENDTAB
  0
TABLE
  2
LAYER
 70
     2
  0
LAYER
  2
0
 70
     0
 62
     7
  6
CONTINUOUS
  0
LAYER
  2
DEFPOINTS
 70
     0
 62
     7
  6
CONTINUOUS
  0
ENDTAB
  0
TABLE
  2
STYLE
 70
     1
  0
STYLE
  2
STANDARD
 70
     0
 40
0.0
 41
0.8
 50
0.0
 71
     0
 42
0.2
  3
txt
  4

  0
ENDTAB
  0
TABLE
  2
VIEW
 70
     0
  0
ENDTAB
  0
TABLE
  2
UCS
 70
     0
  0
ENDTAB
  0
TABLE
  2
APPID
 70
     7
  0
APPID
  2
ACAD
 70
     0
  0
APPID
  2
ACAD_MLEADERVER
 70
     0
  0
APPID
  2
ACAD_NAV_VCDISPLAY
 70
     0
  0
APPID
  2
ACAD_DSTYLE_DIMJAG
 70
     0
  0
APPID
  2
ACAD_DSTYLE_DIMTALN
 70
     0
  0
APPID
  2
ACAD_EXEMPT_FROM_CAD_STANDARDS
 70
     0
  0
APPID
  2
ACDBATTR
 70
     0
  0
ENDTAB
  0
TABLE
  2
DIMSTYLE
 70
     2
  0
DIMSTYLE
  2
STANDARD
 70
     0
  3

  4

  5

  6

  7

 40
1.0
 41
0.1875
 42
0.0625
 43
0.38
 44
0.125
 45
0.0
 46
0.0
 47
1.5
 48
1.5
140
0.15625
141
0.09
142
0.0
143
25.399999999999999
144
1.0
145
0.0
146
1.0
147
0.09
 71
     0
 72
     0
 73
     1
 74
     1
 75
     0
 76
     0
 77
     0
 78
     4
170
     0
171
     2
172
     0
173
     0
174
     0
175
     0
176
     0
177
     0
178
     0
  0
ENDTAB
  0
ENDSEC
  0
SECTION
  2
BLOCKS
  0
BLOCK
  8
0
  2
$MODEL_SPACE
 70
     0
 10
0.0
 20
0.0
 30
0.0
  3
$MODEL_SPACE
  1

  0
ENDBLK
  5
21
  8
0
  0
BLOCK
 67
     1
  8
0
  2
$PAPER_SPACE
 70
     0
 10
0.0
 20
0.0
 30
0.0
  3
$PAPER_SPACE
  1

  0
ENDBLK
  5
1D
 67
     1
  8
0
  0
ENDSEC
  0
SECTION
  2
ENTITIES
  0
LINE
  5
3879
  8
0
 10
-61.183083132399972
 20
-28.361963832099999
 30
0.0
 11
-61.29307409813002
 21
-25.212234678723341
 31
0.0
  0
LINE
  5
387A
  8
0
 10
-61.328769090600012
 20
-25.2118116738
 30
0.0
 11
-61.121024213380892
 21
-25.214123038963042
 31
0.0
  0
LINE
  5
387B
  8
0
 10
-61.121024213380892
 20
-25.214123038963042
 30
0.0
 11
-61.119681846487659
 21
-25.252563391500001
 31
0.0
  0
ARC
  5
387C
  8
0
 10
-61.230163038110717
 20
-25.312676399291789
 30
0.0
 40
0.0997618700429872
 50
47.38977268807561
 51
89.198720768325174
  0
ARC
  5
387D
  8
0
 10
-61.137913244850651
 20
-25.22297192472789
 30
0.0
 40
0.029592307209611
 50
213.38170837706861
 51
270.43181920457448
  0
LINE
  5
387E
  8
0
 10
-61.137690219600003
 20
-25.252563391500011
 30
0.0
 11
-19.328769090599959
 21
-25.252563391500011
 31
0.0
  0
LINE
  5
387F
  8
0
 10
-61.183083132399972
 20
-28.361963832099999
 30
0.0
 11
-19.328769090599959
 21
-28.361963832099999
 31
0.0
  0
ARC
  5
3880
  8
0
 10
-61.509758821530831
 20
-25.013563982211739
 30
0.0
 40
0.2809963493058954
 50
315.07118267622172
 51
359.60675443695499
  0
LINE
  5
3881
  8
0
 10
-61.228769090599982
 20
-25.01549256580001
 30
0.0
 11
-61.228769090599982
 21
48.388752764399989
 31
0.0
  0
ARC
  5
3882
  8
0
 10
-61.30056797148125
 20
48.38398570708847
 30
0.0
 40
0.0719569602693834
 50
3.798554728952082
 51
113.07380152097009
  0
LINE
  5
3883
  8
0
 10
-61.301932705298078
 20
48.455929724440978
 30
0.0
 11
-61.198884885499957
 21
48.765324585999991
 31
0.0
  0
ARC
  5
3884
  8
0
 10
-60.900497213137477
 20
45.314208027247837
 30
0.0
 40
3.4639920186269491
 50
91.211681116852915
 51
94.941572553506234
  0
LINE
  5
3885
  8
0
 10
-60.973747649799961
 20
48.777425473299978
 30
0.0
 11
-19.328769090599959
 21
48.777425473299978
 31
0.0
  0
CIRCLE
  5
3886
  8
0
 10
-60.203769090600012
 20
48.28742547329999
 30
0.0
 40
0.0940069465796256
  0
CIRCLE
  5
3887
  8
0
 10
-59.453769090600012
 20
48.28742547329999
 30
0.0
 40
0.0940069465796256
  0
CIRCLE
  5
3888
  8
0
 10
-58.703769090599998
 20
48.28742547329999
 30
0.0
 40
0.0940069465796256
  0
CIRCLE
  5
3889
  8
0
 10
-57.953769090599998
 20
48.28742547329999
 30
0.0
 40
0.0940069465796256
  0
CIRCLE
  5
388A
  8
0
 10
-57.203769090599998
 20
48.28742547329999
 30
0.0
 40
0.0940069465796256
  0
CIRCLE
  5
388B
  8
0
 10
-56.453769090600012
 20
48.28742547329999
 30
0.0
 40
0.0940069465796256
  0
CIRCLE
  5
388C
  8
0
 10
-55.703769090600012
 20
48.28742547329999
 30
0.0
 40
0.0940069465796256
  0
CIRCLE
  5
388D
  8
0
 10
-54.953769090599998
 20
48.28742547329999
 30
0.0
 40
0.0940069465796256
  0
CIRCLE
  5
388E
  8
0
 10
-54.203769090599998
 20
48.28742547329999
 30
0.0
 40
0.0940069465796256
  0
CIRCLE
  5
388F
  8
0
 10
-24.9551591178701
 20
48.28742547329999
 30
0.0
 40
0.0940069465796256
  0
CIRCLE
  5
3890
  8
0
 10
-24.203769090599948
 20
48.28742547329999
 30
0.0
 40
0.0940069465796256
  0
CIRCLE
  5
3891
  8
0
 10
-23.453769090599948
 20
48.28742547329999
 30
0.0
 40
0.0940069465796256
  0
CIRCLE
  5
3892
  8
0
 10
-22.702748575983051
 20
48.28742547329999
 30
0.0
 40
0.0940069465796256
  0
CIRCLE
  5
3893
  8
0
 10
-21.95447733743217
 20
48.28742547329999
 30
0.0
 40
0.0940069465796256
  0
CIRCLE
  5
3894
  8
0
 10
-21.207501668016381
 20
48.28742547329999
 30
0.0
 40
0.0940069465796256
  0
CIRCLE
  5
3895
  8
0
 10
-20.453899233641678
 20
48.28742547329999
 30
0.0
 40
0.0940069465796256
  0
CIRCLE
  5
3896
  8
0
 10
-19.704122380643991
 20
48.28742547329999
 30
0.0
 40
0.0940069465796256
  0
ARC
  5
3897
  8
0
 10
-61.172220024545808
 20
48.696438688951851
 30
0.0
 40
0.0740752419348306
 50
7.1982945265525631
 51
77.479637678361144
  0
LINE
  5
3898
  8
0
 10
-61.098728611699961
 20
48.705720590999981
 30
0.0
 11
-61.098728602776461
 21
47.660768240469359
 31
0.0
  0
ARC
  5
3899
  8
0
 10
-61.038823169985783
 20
47.660768240980943
 30
0.0
 40
0.0599054327907141
 50
180.00000048928709
 51
267.238136347298
  0
ARC
  5
389A
  8
0
 10
-61.007393487235369
 20
47.186269799563938
 30
0.0
 40
0.4160801234606169
 50
85.772257706903574
 51
94.730845128840784
  0
ARC
  5
389B
  8
0
 10
36.261996968393149
 20
1993.7011711151099
 30
0.0
 40
1948.5277510416479
 50
267.1395413146119
 51
267.17353775797869
  0
ARC
  5
389C
  8
0
 10
-59.821984405040823
 20
47.543863726040819
 30
0.0
 40
0.0000000002623736
 50
188.95084605605399
 51
81.047071224342545
  0
LINE
  5
389D
  8
0
 10
-59.821984365860018
 20
47.543863724367547
 30
0.0
 11
-19.328769090599959
 21
47.519204797299999
 31
0.0
  0
ARC
  5
389E
  8
0
 10
-61.168664777153467
 20
47.257364978589031
 30
0.0
 40
0.0602314908260051
 50
183.72397885504941
 51
266.91147406110321
  0
LINE
  5
389F
  8
0
 10
-61.171909980299958
 20
47.197220975199997
 30
0.0
 11
-59.940685092248813
 21
47.132695136799882
 31
0.0
  0
LINE
  5
38A0
  8
0
 10
-60.096909349305278
 20
47.140882579394699
 30
0.0
 11
-59.891712382999948
 21
47.346079545700007
 31
0.0
  0
ARC
  5
38A1
  8
0
 10
-58.5376621402567
 20
33.647312465429991
 30
0.0
 40
13.78291666421247
 50
91.602304430527084
 51
95.276183639615738
  0
LINE
  5
38A2
  8
0
 10
-59.891712382999948
 20
47.346079545700007
 30
0.0
 11
-59.805093434699963
 21
47.371831024800002
 31
0.0
  0
LINE
  5
38A3
  8
0
 10
-58.92305196859995
 20
47.424840080599999
 30
0.0
 11
-57.520653891199949
 21
47.451995572000001
 31
0.0
  0
LINE
  5
38A4
  8
0
 10
-57.520653891199949
 20
47.451995572000001
 30
0.0
 11
-53.34084374479373
 21
47.463455678307071
 31
0.0
  0
LINE
  5
38A5
  8
0
 10
-53.34084374479373
 20
47.463455678307071
 30
0.0
 11
-19.328769090599959
 21
47.464042362599997
 31
0.0
  0
ARC
  5
38A6
  8
0
 10
-59.953769234262481
 20
46.883037723819108
 30
0.0
 40
0.2500001133625584
 50
0.0000242929325397
 51
86.99996840533646
  0
LINE
  5
38A7
  8
0
 10
-59.703769090599998
 20
46.883037829800003
 30
0.0
 11
-59.703769090599998
 21
-25.105063832100001
 31
0.0
  0
ARC
  5
38A8
  8
0
 10
-59.828769090599998
 20
-25.105063832100001
 30
0.0
 40
0.125
 50
269.99999999959942
 51
0.0
  0
LINE
  5
38A9
  8
0
 10
-59.828769090600851
 20
-25.230063832100001
 30
0.0
 11
-61.120467548534343
 21
-25.23006383209098
 31
0.0
  0
LINE
  5
38AA
  8
0
 10
-59.828769090599998
 20
-25.230063832100001
 30
0.0
 11
-59.827396801255063
 21
-25.252563391500011
 31
0.0
  0
ARC
  5
38AB
  8
0
 10
-400.73687355747001
 20
1.2883492753869701
 30
0.0
 40
342.07458378352692
 50
355.5500577092028
 51
356.04884002556582
  0
ARC
  5
38AC
  8
0
 10
-451.01557918680192
 20
4.7611133206630143
 30
0.0
 40
392.47307909712902
 50
356.04884002556582
 51
357.11666585103183
  0
ARC
  5
38AD
  8
0
 10
-181.8559173929408
 20
-8.7954356371487972
 30
0.0
 40
122.97223762046259
 50
357.11666585103183
 51
359.20988902236178
  0
ARC
  5
38AE
  8
0
 10
675.92697273008901
 20
-20.625044170626289
 30
0.0
 40
734.89221917086115
 50
178.58394200479381
 51
179.20988902236181
  0
ARC
  5
38AF
  8
0
 10
-150.60142463893661
 20
-0.1933383936854689
 30
0.0
 40
91.888674572073185
 50
358.58394200479381
 51
1.111865070532785
  0
LINE
  5
38B0
  8
0
 10
-58.730051308499959
 20
1.5897143233999951
 30
0.0
 11
-58.730051308499959
 21
12.58978963549999
 31
0.0
  0
LINE
  5
38B1
  8
0
 10
-58.730051308499959
 20
12.58978963549999
 30
0.0
 11
-58.730181785900001
 21
35.009936160899997
 31
0.0
  0
ARC
  5
38B2
  8
0
 10
-121.09667471996769
 20
35.009573209755338
 30
0.0
 40
62.366492935123837
 50
0.0003334413685456
 51
5.4112461109680972
  0
ARC
  5
38B3
  8
0
 10
-132.2994826228807
 20
33.948377480254372
 30
0.0
 40
73.619449936991472
 50
5.4112461109680972
 51
9.5662114232008442
  0
ARC
  5
38B4
  8
0
 10
-58.861060449040892
 20
-18.169097314340569
 30
0.0
 40
5.9255330199625131
 50
77.604978585781765
 51
90.686375901134298
  0
ARC
  5
38B5
  8
0
 10
-85.129624209518994
 20
-168.0259644173891
 30
0.0
 40
158.06207804127209
 50
79.326194369637307
 51
79.965659773948332
  0
ARC
  5
38B6
  8
0
 10
-55.906308705093331
 20
-13.379770376546659
 30
0.0
 40
0.683049625548355
 50
325.8727686293027
 51
85.589608387952595
  0
ARC
  5
38B7
  8
0
 10
-41.02480692953894
 20
-23.465622873993009
 30
0.0
 40
17.294255948315438
 50
145.87276862930261
 51
159.8026034700722
  0
ARC
  5
38B8
  8
0
 10
-53.406852262611139
 20
-19.53159017621978
 30
0.0
 40
4.3545345767538661
 50
152.11058993081849
 51
184.81406075558459
  0
ARC
  5
38B9
  8
0
 10
-60.100663036340492
 20
-20.072189718905118
 30
0.0
 40
2.3611434945487582
 50
347.95124609758187
 51
4.2542784608647333
  0
ARC
  5
38BA
  8
0
 10
-60.31960649616888
 20
-19.248706237335949
 30
0.0
 40
2.8502534610731618
 50
308.70139037745611
 51
332.49416903645613
  0
ARC
  5
38BB
  8
0
 10
-58.883713666026082
 20
-21.188368012170049
 30
0.0
 40
0.4482878302946756
 50
236.07174661998079
 51
320.57063794760501
  0
ARC
  5
38BC
  8
0
 10
-58.478483068882312
 20
-20.810315877459441
 30
0.0
 40
0.9960557987604488
 50
202.13611054187791
 51
228.84944987995499
  0
ARC
  5
38BD
  8
0
 10
-55.983121548870358
 20
-12.81593348305813
 30
0.0
 40
0.1745341368101363
 50
265.79929512738448
 51
42.178700607248871
  0
ARC
  5
38BE
  8
0
 10
-56.718780028920143
 20
-8.3334550588712943
 30
0.0
 40
4.712318496576696
 50
263.032594493994
 51
278.82406392024319
  0
ARC
  5
38BF
  8
0
 10
-56.087161671427488
 20
0.1759988835965522
 30
0.0
 40
13.241754685890371
 50
257.52578445875008
 51
264.78648642777131
  0
LINE
  5
38C0
  8
0
 10
-58.740812589018311
 20
-2.464124254740987
 30
0.0
 11
-57.172210185499956
 21
-2.442709755350001
 31
0.0
  0
LINE
  5
38C1
  8
0
 10
-57.172210185499956
 20
-2.442709755350001
 30
0.0
 11
-53.778483447149981
 21
-2.4658657957999992
 31
0.0
  0
ARC
  5
38C2
  8
0
 10
-53.775509830980049
 20
-2.0300555057306719
 30
0.0
 40
0.4358204347244861
 50
269.60906610884371
 51
344.06579210850379
  0
ARC
  5
38C3
  8
0
 10
-70.513743394857315
 20
1.181820814836978
 30
0.0
 40
17.477765641683948
 50
349.0113253594273
 51
357.80719151885398
  0
ARC
  5
38C4
  8
0
 10
-53.004682314024627
 20
0.4925363603510143
 30
0.0
 40
0.0486447177017302
 50
134.1562365656836
 51
155.01910307823991
  0
LINE
  5
38C5
  8
0
 10
-53.038569066867566
 20
0.5274361675430584
 30
0.0
 11
-52.867875795580723
 21
0.527436167899996
 31
0.0
  0
ARC
  5
38C6
  8
0
 10
-52.867875795705039
 20
0.5868718888017348
 30
0.0
 40
0.0594357209017391
 50
270.0000001198112
 51
350.06412074586513
  0
ARC
  5
38C7
  8
0
 10
-55.382895635987708
 20
1.0274362012645351
 30
0.0
 40
2.61275154751453
 50
350.06412074586513
 51
9.9358764447836911
  0
ARC
  5
38C8
  8
0
 10
-52.867875841471388
 20
1.468000378608703
 30
0.0
 40
0.0594357892958177
 50
9.9358764447826893
 51
90.000706924803836
  0
LINE
  5
38C9
  8
0
 10
-52.867876574799972
 20
1.527436167899995
 30
0.0
 11
-58.728862367130588
 21
1.5273638540879939
 31
0.0
  0
ARC
  5
38CA
  8
0
 10
-59.445722419354283
 20
-2.7676064601660642
 30
0.0
 40
1.3321435759486431
 50
32.143992513837588
 51
57.208776231785521
  0
ARC
  5
38CB
  8
0
 10
-60.452119328488422
 20
-3.3999953666636591
 30
0.0
 40
2.5207353762636431
 50
29.967818803013198
 51
32.143992513837588
  0
ARC
  5
38CC
  8
0
 10
-58.373954539454232
 20
-2.2017221797240718
 30
0.0
 40
0.1218549038515518
 50
300.2121852178368
 51
29.96781880301355
  0
ARC
  5
38CD
  8
0
 10
-58.449020679460531
 20
-2.072808708109604
 30
0.0
 40
0.2710313381135989
 50
268.10006813429987
 51
300.2121852178368
  0
ARC
  5
38CE
  8
0
 10
-58.621060601574122
 20
-7.2590727065372738
 30
0.0
 40
4.9180853493571917
 50
88.100068134299931
 51
91.361118999218107
  0
LINE
  5
38CF
  8
0
 10
-58.730051308499959
 20
11.527436167899991
 30
0.0
 11
-54.954073029324981
 21
11.527436167899999
 31
0.0
  0
ARC
  5
38D0
  8
0
 10
-55.038976825356762
 20
11.484725888938121
 30
0.0
 40
0.0833029155905537
 50
149.1554563929044
 51
261.05469562315329
  0
LINE
  5
38D1
  8
0
 10
-55.051929722999979
 20
11.402436167899991
 30
0.0
 11
-54.952947024801439
 21
11.402436167899991
 31
0.0
  0
ARC
  5
38D2
  8
0
 10
-54.981445987572251
 20
11.656942552494939
 30
0.0
 40
0.2560970337169166
 50
276.38894414557632
 51
328.42568736043222
  0
ARC
  5
38D3
  8
0
 10
-47.098438268436539
 20
6.8121542874099026
 30
0.0
 40
8.996674660940787
 50
142.0892982292817
 51
148.42568736043231
  0
ARC
  5
38D4
  8
0
 10
-54.113404064069002
 20
12.27526079032093
 30
0.0
 40
0.1053711695486456
 50
81.253104868651207
 51
142.08929822927959
  0
ARC
  5
38D5
  8
0
 10
-54.088542874319202
 20
12.235478960517611
 30
0.0
 40
0.144198568100353
 50
324.02747618910939
 51
93.513655224275695
  0
ARC
  5
38D6
  8
0
 10
-78.24587382174154
 20
27.579150053925101
 30
0.0
 40
28.76218448530755
 50
326.06559311967641
 51
327.5602982821498
  0
ARC
  5
38D7
  8
0
 10
-54.586898311222839
 20
11.633151385513649
 30
0.0
 40
0.2322214893268792
 50
276.5293976142267
 51
331.64149501547098
  0
ARC
  5
38D8
  8
0
 10
-54.586651979152393
 20
11.6595211002479
 30
0.0
 40
0.2584125035715526
 50
275.8102642960996
 51
329.09688118577401
  0
ARC
  5
38D9
  8
0
 10
-85.272973420849766
 20
32.770017489486833
 30
0.0
 40
37.504421424836423
 50
325.49911811634422
 51
326.64873986603561
  0
ARC
  5
38DA
  8
0
 10
-54.11077667281841
 20
12.25294717966897
 30
0.0
 40
0.1945659915031304
 50
328.4694267339973
 51
92.919184842405855
  0
ARC
  5
38DB
  8
0
 10
-54.124040955549262
 20
12.289945063756649
 30
0.0
 40
0.1573514283308712
 50
88.777817148118245
 51
140.496974539787
  0
ARC
  5
38DC
  8
0
 10
-51.255874300785969
 20
9.9253565513882691
 30
0.0
 40
3.874562586217976
 50
140.496974539787
 51
145.02314141142921
  0
ARC
  5
38DD
  8
0
 10
42.424861324059123
 20
-63.709586251488389
 30
0.0
 40
123.0248806608205
 50
141.93239291229369
 51
142.22551094568931
  0
ARC
  5
38DE
  8
0
 10
-54.839896314879972
 20
11.66937982781643
 30
0.0
 40
0.0297098227862326
 50
155.5105931917559
 51
319.13476244655368
  0
ARC
  5
38DF
  8
0
 10
-58.101552464820983
 20
12.024457505648259
 30
0.0
 40
3.2527290936082638
 50
353.95112341234761
 51
4.084760109514173
  0
ARC
  5
38E0
  8
0
 10
-57.279842412169373
 20
12.125155955814749
 30
0.0
 40
2.426295408241629
 50
3.0950151610710162
 51
8.454116715787892
  0
ARC
  5
38E1
  8
0
 10
-54.984514958274289
 20
12.479348151374641
 30
0.0
 40
0.1046338575382413
 50
1.377477940982079
 51
80.139020389341596
  0
LINE
  5
38E2
  8
0
 10
-54.966595555599987
 20
12.582436167899999
 30
0.0
 11
-55.009856579399958
 21
12.582436167899999
 31
0.0
  0
ARC
  5
38E3
  8
0
 10
-55.003548505587368
 20
12.49355829500943
 30
0.0
 40
0.0891014482683419
 50
94.059738767499042
 51
157.33424144211239
  0
LINE
  5
38E4
  8
0
 10
-54.984416448248041
 20
12.527893951599991
 30
0.0
 11
-58.730051308499959
 21
12.527893951599991
 31
0.0
  0
ARC
  5
38E5
  8
0
 10
-54.969470430611281
 20
11.621470310077241
 30
0.0
 40
0.0964643629950196
 50
257.1117767073157
 51
277.85810448569458
  0
ARC
  5
38E6
  8
0
 10
-54.990884691966798
 20
11.57841212299564
 30
0.0
 40
0.0628780287888159
 50
303.38881068192211
 51
355.33219535614711
  0
ARC
  5
38E7
  8
0
 10
-59.615848034440361
 20
12.16215140930001
 30
0.0
 40
4.7244738441593821
 50
352.84006047457552
 51
356.1159509566059
  0
ARC
  5
38E8
  8
0
 10
-57.29378440699422
 20
12.004498439498541
 30
0.0
 40
2.3970645658424758
 50
356.1159509566059
 51
0.4388840836292447
  0
ARC
  5
38E9
  8
0
 10
-58.960789009820459
 20
11.99172898067598
 30
0.0
 40
4.0641180757582394
 50
0.4388840836292447
 51
6.8182386406649771
  0
ARC
  5
38EA
  8
0
 10
-54.978556729922261
 20
12.46786714571004
 30
0.0
 40
0.0535219251510514
 50
6.8182386406633597
 51
60.665653734772469
  0
ARC
  5
38EB
  8
0
 10
-55.025160479688999
 20
12.384936764882649
 30
0.0
 40
0.1486500364352314
 50
60.665653734772469
 51
105.9080090642824
  0
LINE
  5
38EC
  8
0
 10
-54.966595555600392
 20
12.582436167900051
 30
0.0
 11
-54.55223098179998
 21
12.582436167899999
 31
0.0
  0
ARC
  5
38ED
  8
0
 10
-54.56663358969432
 20
12.476563729912989
 30
0.0
 40
0.1068475935127704
 50
2.4423964227793098
 51
82.253187270540366
  0
ARC
  5
38EE
  8
0
 10
-57.439195563731161
 20
12.05206749580201
 30
0.0
 40
3.0100475915823628
 50
1.7965129335481069
 51
8.1948010128460602
  0
LINE
  5
38EF
  8
0
 10
-54.473092387726957
 20
12.528201427130909
 30
0.0
 11
-52.824588863199992
 21
12.527436167899991
 31
0.0
  0
ARC
  5
38F0
  8
0
 10
-54.228694451721807
 20
12.04178561500304
 30
0.0
 40
1.4857216977776471
 50
339.74523893254309
 51
19.079425227415111
  0
LINE
  5
38F1
  8
0
 10
-54.952947024801439
 20
11.402436167899991
 30
0.0
 11
-54.560491712299992
 21
11.402436167899991
 31
0.0
  0
LINE
  5
38F2
  8
0
 10
-54.364489711558903
 20
11.527436167899991
 30
0.0
 11
-52.83484596299995
 21
11.527436167899991
 31
0.0
  0
ARC
  5
38F3
  8
0
 10
-52.93306562832872
 20
11.58572914905613
 30
0.0
 40
0.1142154731608902
 50
250.77734006686069
 51
329.31103735832272
  0
ARC
  5
38F4
  8
0
 10
-36.923158303501431
 20
126.01040365532479
 30
0.0
 40
115.6512915357462
 50
261.94549356702271
 51
262.02403170398321
  0
ARC
  5
38F5
  8
0
 10
-53.14337421291178
 20
11.35856459763561
 30
0.0
 40
0.1422931846093903
 50
83.655597968009829
 51
178.00484411040401
  0
LINE
  5
38F6
  8
0
 10
-53.285581135699978
 20
11.36351853519999
 30
0.0
 11
-53.109736591099967
 21
6.6086273448499924
 31
0.0
  0
LINE
  5
38F7
  8
0
 10
-53.109736591099967
 20
6.6086273448499924
 30
0.0
 11
-53.024948813199998
 21
1.634676718499996
 31
0.0
  0
ARC
  5
38F8
  8
0
 10
-52.89917253697574
 20
1.6341550461245651
 30
0.0
 40
0.1257773576613663
 50
179.76236099431901
 51
238.04613115198759
  0
LINE
  5
38F9
  8
0
 10
-53.235955780296742
 20
-1.4545302565807809
 30
0.0
 11
-53.084191327599953
 21
-10.599956045500001
 31
0.0
  0
LINE
  5
38FA
  8
0
 10
-53.084191327599953
 20
-10.599956045500001
 30
0.0
 11
-53.043754401899989
 21
-14.804146297999999
 31
0.0
  0
LINE
  5
38FB
  8
0
 10
-53.043754401899989
 20
-14.804146297999999
 30
0.0
 11
-52.997568414399993
 21
-25.252563391500011
 31
0.0
  0
ARC
  5
38FC
  8
0
 10
-52.901426033633001
 20
12.63366173561734
 30
0.0
 40
0.1235269620702491
 50
179.52897976149379
 51
239.25065051352399
  0
LINE
  5
38FD
  8
0
 10
-53.02494882159997
 20
12.63467722129999
 30
0.0
 11
-53.283164001899969
 21
22.363204296300001
 31
0.0
  0
ARC
  5
38FE
  8
0
 10
-53.148394425676813
 20
22.36677883722064
 30
0.0
 40
0.1348169722926987
 50
81.148741185417606
 51
181.51931992532911
  0
ARC
  5
38FF
  8
0
 10
-52.448314362350608
 20
26.862414365346002
 30
0.0
 40
4.4150018039674848
 50
261.14874118541758
 51
263.6371783087838
  0
ARC
  5
3900
  8
0
 10
-52.924764962520371
 20
22.589735254282569
 30
0.0
 40
0.1158400297933799
 50
263.6371783087838
 51
327.46581270046528
  0
ARC
  5
3901
  8
0
 10
-54.788798918728261
 20
22.96211175921956
 30
0.0
 40
2.0092763087549188
 50
347.50617441173279
 51
15.07524348222984
  0
ARC
  5
3902
  8
0
 10
-52.99954802014291
 20
23.253120246910559
 30
0.0
 40
0.2763917877149654
 50
56.915274136777143
 51
82.973371560826934
  0
ARC
  5
3903
  8
0
 10
-52.878202537736378
 20
23.64573444372056
 30
0.0
 40
0.1471622790662853
 50
184.3091596153626
 51
233.50056825823921
  0
LINE
  5
3904
  8
0
 10
-52.965736841399959
 20
23.52743616790001
 30
0.0
 11
-58.730114961771832
 21
23.52743616790001
 31
0.0
  0
LINE
  5
3905
  8
0
 10
-52.827103627599961
 20
22.52743616790001
 30
0.0
 11
-58.730109142122082
 21
22.527436167899999
 31
0.0
  0
LINE
  5
3906
  8
0
 10
-53.025130982699963
 20
23.634681938899998
 30
0.0
 11
-53.153661356999962
 21
30.230218478499989
 31
0.0
  0
LINE
  5
3907
  8
0
 10
-53.153661356999962
 20
30.230218478499989
 30
0.0
 11
-53.283164001899969
 21
33.363204296299998
 31
0.0
  0
ARC
  5
3908
  8
0
 10
-53.150091857687002
 20
33.36870486209898
 30
0.0
 40
0.1331857792316858
 50
80.299432121578505
 51
182.3669859472443
  0
ARC
  5
3909
  8
0
 10
-52.66382808091042
 20
36.213295365098674
 30
0.0
 40
2.7526672299080852
 50
260.29943212157849
 51
263.98726708342338
  0
ARC
  5
390A
  8
0
 10
-52.938649757463551
 20
33.60411966288526
 30
0.0
 40
0.1290581128854384
 50
263.98726708342338
 51
323.54594227722203
  0
ARC
  5
390B
  8
0
 10
-54.824405686210788
 20
33.997639050832341
 30
0.0
 40
2.0443694647309352
 50
346.70298855493849
 51
13.38593557826478
  0
ARC
  5
390C
  8
0
 10
-53.030003765004878
 20
34.201894202161967
 30
0.0
 40
0.3319366370134403
 50
54.144916814383031
 51
78.735320570980207
  0
ARC
  5
390D
  8
0
 10
-52.87616110194147
 20
34.64583754391699
 30
0.0
 40
0.1481221659016346
 50
184.37952251469781
 51
233.06802691776761
  0
LINE
  5
390E
  8
0
 10
-52.834843986437122
 20
33.527436167899999
 30
0.0
 11
-58.730173158269267
 21
33.527436167899999
 31
0.0
  0
LINE
  5
390F
  8
0
 10
-52.965162732199971
 20
34.527436167899992
 30
0.0
 11
-58.73017897791901
 21
34.527436167899978
 31
0.0
  0
LINE
  5
3910
  8
0
 10
-53.023711573126647
 20
34.634510902005907
 30
0.0
 11
-53.043678575949947
 21
37.404845145499991
 31
0.0
  0
LINE
  5
3911
  8
0
 10
-53.043678575949947
 20
37.404845145499991
 30
0.0
 11
-53.113460758599999
 21
41.697098294349992
 31
0.0
  0
LINE
  5
3912
  8
0
 10
-53.113460758599999
 20
41.697098294349992
 30
0.0
 11
-53.200346892349998
 21
45.3704400357
 31
0.0
  0
LINE
  5
3913
  8
0
 10
-53.200346892349998
 20
45.3704400357
 30
0.0
 11
-53.336672680865988
 21
47.214630244873881
 31
0.0
  0
LINE
  5
3914
  8
0
 10
-53.336672680865988
 20
47.214630244873881
 30
0.0
 11
-53.340843796958772
 21
47.463455678304001
 31
0.0
  0
LINE
  5
3915
  8
0
 10
-40.429523415299997
 20
39.055398366699997
 30
0.0
 11
-42.766557192400022
 21
38.7769744366
 31
0.0
  0
ARC
  5
3916
  8
0
 10
-42.371435589613199
 20
35.803128585072571
 30
0.0
 40
2.9999800382062061
 50
97.568306731477833
 51
177.59314801417909
  0
ARC
  5
3917
  8
0
 10
-320.86696859662021
 20
42.664374905141209
 30
0.0
 40
275.5805176020508
 50
357.32518797495379
 51
358.59953633956371
  0
ARC
  5
3918
  8
0
 10
429.35747165377802
 20
15.97726508871343
 30
0.0
 40
475.14538616842282
 50
178.3324846056957
 51
179.9761874121933
  0
ARC
  5
3919
  8
0
 10
272.79837859667379
 20
12.086926836436151
 30
0.0
 40
318.61247656433852
 50
179.26487238568481
 51
183.5858313134116
  0
ARC
  5
391A
  8
0
 10
451.57088266819483
 20
17.141107893223449
 30
0.0
 40
497.38895121141559
 50
182.87889509816119
 51
183.0386246544993
  0
ARC
  5
391B
  8
0
 10
-42.123041389433787
 20
-9.0659179851605831
 30
0.0
 40
2.9999355014905178
 50
183.04081530939291
 51
240.41215119211151
  0
LINE
  5
391C
  8
0
 10
-43.604281906200001
 20
-11.6746608902
 30
0.0
 11
-42.509262950699977
 21
-12.0408970072
 31
0.0
  0
ARC
  5
391D
  8
0
 10
-44.510890592726412
 20
38.383664683507199
 30
0.0
 40
5.083668556124568
 50
96.206184458294146
 51
128.8002013866778
  0
ARC
  5
391E
  8
0
 10
-44.511239170353129
 20
38.385217674968239
 30
0.0
 40
5.0822398817236758
 50
128.808109405023
 51
150.5923190193742
  0
ARC
  5
391F
  8
0
 10
-44.494833447981122
 20
38.376253098917957
 30
0.0
 40
5.1009334907832979
 50
150.5950830265526
 51
171.8983408401464
  0
ARC
  5
3920
  8
0
 10
68.038659365802545
 20
24.541805467939149
 30
0.0
 40
118.4807267126873
 50
172.94437901464579
 51
174.93113506089571
  0
ARC
  5
3921
  8
0
 10
319.52110369717008
 20
15.63225785157859
 30
0.0
 40
370.0075823932155
 50
176.99798764368819
 51
182.41984028652331
  0
ARC
  5
3922
  8
0
 10
116.7718551328054
 20
2.663464370819824
 30
0.0
 40
166.94947599161529
 50
180.91070887184901
 51
183.75414539811359
  0
ARC
  5
3923
  8
0
 10
-32.144782635221738
 20
-7.5436316968225503
 30
0.0
 40
17.689417425208038
 50
182.34560061465501
 51
192.76067593079139
  0
ARC
  5
3924
  8
0
 10
-43.399484387763579
 20
-10.402407195185701
 30
0.0
 40
6.08875554206569
 50
189.9154180514783
 51
236.62609432720319
  0
ARC
  5
3925
  8
0
 10
-42.989418253099231
 20
-9.6139073761526461
 30
0.0
 40
6.9734059311173819
 50
237.37633630183009
 51
266.46601206032039
  0
LINE
  5
3926
  8
0
 10
-61.328769090600012
 20
48.450186167899993
 30
0.0
 11
-61.328769090600012
 21
-25.2118116738
 31
0.0
  0
LINE
  5
3927
  8
0
 10
-1.474455048790462
 20
-28.361963832099999
 30
0.0
 11
-1.364463179547148
 21
-25.212208805487808
 31
0.0
  0
LINE
  5
3928
  8
0
 10
-1.3287690905999501
 20
-25.2118116738
 30
0.0
 11
-1.5365139678095701
 21
-25.214123038963042
 31
0.0
  0
LINE
  5
3929
  8
0
 10
-1.5365139678095701
 20
-25.214123038963042
 30
0.0
 11
-1.5378563347027561
 21
-25.252563391500011
 31
0.0
  0
ARC
  5
392A
  8
0
 10
-1.4273751430797019
 20
-25.312676399291789
 30
0.0
 40
0.0997618700429872
 50
90.801279231674812
 51
132.6102273119244
  0
ARC
  5
392B
  8
0
 10
-1.519624936339782
 20
-25.22297192472789
 30
0.0
 40
0.029592307209611
 50
269.56818079542552
 51
326.61829162293122
  0
LINE
  5
392C
  8
0
 10
-1.519847961590459
 20
-25.252563391500011
 30
0.0
 11
-19.328769090590448
 21
-25.252563391500011
 31
0.0
  0
LINE
  5
392D
  8
0
 10
-1.474455048790462
 20
-28.361963832099999
 30
0.0
 11
-19.328769090590448
 21
-28.361963832099999
 31
0.0
  0
ARC
  5
392E
  8
0
 10
-1.147779359659624
 20
-25.013563982211739
 30
0.0
 40
0.2809963493058954
 50
180.3932455630445
 51
224.92881732377739
  0
LINE
  5
392F
  8
0
 10
-1.4287690905904511
 20
-25.01549256580001
 30
0.0
 11
-1.4287690905904511
 21
48.388752764399989
 31
0.0
  0
ARC
  5
3930
  8
0
 10
-1.3569702097165941
 20
48.383985707096109
 30
0.0
 40
0.0719569602615182
 50
66.926198478242185
 51
176.2014452767273
  0
LINE
  5
3931
  8
0
 10
-1.3556054758923479
 20
48.455929724440978
 30
0.0
 11
-1.458653295690469
 21
48.765324585999991
 31
0.0
  0
ARC
  5
3932
  8
0
 10
-1.8396095946314841
 20
43.778017177552812
 30
0.0
 40
5.0018359517336188
 50
85.631934694881565
 51
88.214811634759258
  0
LINE
  5
3933
  8
0
 10
-1.6837905313904731
 20
48.777425473299978
 30
0.0
 11
-19.328769090599959
 21
48.777425473299978
 31
0.0
  0
CIRCLE
  5
3934
  8
0
 10
-2.4537690905904568
 20
48.28742547329999
 30
0.0
 40
0.0940069465796256
  0
CIRCLE
  5
3935
  8
0
 10
-3.2037690905904568
 20
48.28742547329999
 30
0.0
 40
0.0940069465796256
  0
CIRCLE
  5
3936
  8
0
 10
-3.9537690905904568
 20
48.28742547329999
 30
0.0
 40
0.0940069465796256
  0
CIRCLE
  5
3937
  8
0
 10
-4.7037690905904572
 20
48.28742547329999
 30
0.0
 40
0.0940069465796256
  0
CIRCLE
  5
3938
  8
0
 10
-5.4537690905904572
 20
48.28742547329999
 30
0.0
 40
0.0940069465796256
  0
CIRCLE
  5
3939
  8
0
 10
-6.2037690905904572
 20
48.28742547329999
 30
0.0
 40
0.0940069465796256
  0
CIRCLE
  5
393A
  8
0
 10
-6.9537690905904572
 20
48.28742547329999
 30
0.0
 40
0.0940069465796256
  0
CIRCLE
  5
393B
  8
0
 10
-7.7037690905904572
 20
48.28742547329999
 30
0.0
 40
0.0940069465796256
  0
CIRCLE
  5
393C
  8
0
 10
-8.4537690905904572
 20
48.28742547329999
 30
0.0
 40
0.0940069465796256
  0
CIRCLE
  5
393D
  8
0
 10
-9.2037690905904572
 20
48.28742547329999
 30
0.0
 40
0.0940069465796256
  0
CIRCLE
  5
393E
  8
0
 10
-9.9537690905904572
 20
48.28742547329999
 30
0.0
 40
0.0940069465796256
  0
CIRCLE
  5
393F
  8
0
 10
-10.703769090590461
 20
48.28742547329999
 30
0.0
 40
0.0940069465796256
  0
CIRCLE
  5
3940
  8
0
 10
-11.45376909059045
 20
48.28742547329999
 30
0.0
 40
0.0940069465796256
  0
CIRCLE
  5
3941
  8
0
 10
-12.20376909059045
 20
48.28742547329999
 30
0.0
 40
0.0940069465796256
  0
CIRCLE
  5
3942
  8
0
 10
-12.955047190103629
 20
48.28742547329999
 30
0.0
 40
0.0940069465796256
  0
CIRCLE
  5
3943
  8
0
 10
-13.70237906332032
 20
48.28742547329999
 30
0.0
 40
0.0940069465796256
  0
CIRCLE
  5
3944
  8
0
 10
-14.453769090590461
 20
48.28742547329999
 30
0.0
 40
0.0940069465796256
  0
CIRCLE
  5
3945
  8
0
 10
-15.20376909059045
 20
48.28742547329999
 30
0.0
 40
0.0940069465796256
  0
CIRCLE
  5
3946
  8
0
 10
-15.954789605207351
 20
48.28742547329999
 30
0.0
 40
0.0940069465796256
  0
CIRCLE
  5
3947
  8
0
 10
-16.703060843758252
 20
48.28742547329999
 30
0.0
 40
0.0940069465796256
  0
CIRCLE
  5
3948
  8
0
 10
-17.450036513174052
 20
48.28742547329999
 30
0.0
 40
0.0940069465796256
  0
CIRCLE
  5
3949
  8
0
 10
-18.203638947548718
 20
48.28742547329999
 30
0.0
 40
0.0940069465796256
  0
CIRCLE
  5
394A
  8
0
 10
-18.95341580054642
 20
48.28742547329999
 30
0.0
 40
0.0940069465796256
  0
ARC
  5
394B
  8
0
 10
-1.4853181566446541
 20
48.696438688951851
 30
0.0
 40
0.0740752419348306
 50
103.4473460895087
 51
172.80170547344741
  0
LINE
  5
394C
  8
0
 10
-1.5588095694904649
 20
48.705720590999981
 30
0.0
 11
-1.5588095784139719
 21
47.660768240469359
 31
0.0
  0
ARC
  5
394D
  8
0
 10
-1.618715011204686
 20
47.660768240980943
 30
0.0
 40
0.0599054327907141
 50
272.761863652702
 51
359.99999951071283
  0
ARC
  5
394E
  8
0
 10
-1.650144693955057
 20
47.186269799563938
 30
0.0
 40
0.4160801234606169
 50
85.269154871159216
 51
94.227742293094806
  0
ARC
  5
394F
  8
0
 10
-98.919535149583567
 20
1993.7011711151099
 30
0.0
 40
1948.5277510416479
 50
272.82646224202131
 51
272.86045868538639
  0
ARC
  5
3950
  8
0
 10
-2.8355537761496392
 20
47.543863726040819
 30
0.0
 40
0.0000000002623736
 50
98.952928775655749
 51
351.04915394394601
  0
LINE
  5
3951
  8
0
 10
-2.8355538153304289
 20
47.543863724367547
 30
0.0
 11
-19.328769090590448
 21
47.519204797299999
 31
0.0
  0
ARC
  5
3952
  8
0
 10
-1.4888734040369671
 20
47.257364978589031
 30
0.0
 40
0.0602314908260051
 50
273.08852593889679
 51
356.27602114495062
  0
LINE
  5
3953
  8
0
 10
-1.4856282008904611
 20
47.197220975199997
 30
0.0
 11
-2.7168530889416491
 21
47.132695136799882
 31
0.0
  0
LINE
  5
3954
  8
0
 10
-2.5606288318851549
 20
47.140882579394699
 30
0.0
 11
-2.7658257981904502
 21
47.346079545700007
 31
0.0
  0
ARC
  5
3955
  8
0
 10
-4.1198760409337476
 20
33.647312465429991
 30
0.0
 40
13.78291666421247
 50
84.723816360384248
 51
88.397695569472901
  0
LINE
  5
3956
  8
0
 10
-2.7658257981904502
 20
47.346079545700007
 30
0.0
 11
-2.8524447464904639
 21
47.371831024800002
 31
0.0
  0
LINE
  5
3957
  8
0
 10
-3.734486212590455
 20
47.424840080599999
 30
0.0
 11
-5.136884289990463
 21
47.451995572000001
 31
0.0
  0
LINE
  5
3958
  8
0
 10
-5.136884289990463
 20
47.451995572000001
 30
0.0
 11
-9.3166944363967037
 21
47.463455678307071
 31
0.0
  0
LINE
  5
3959
  8
0
 10
-9.3166944363967037
 20
47.463455678307071
 30
0.0
 11
-19.328769090590448
 21
47.464042362599997
 31
0.0
  0
ARC
  5
395A
  8
0
 10
-2.7037689469279238
 20
46.883037723819108
 30
0.0
 40
0.2500001133625584
 50
93.000031594663554
 51
179.99997570706739
  0
LINE
  5
395B
  8
0
 10
-2.9537690905904568
 20
46.883037829800003
 30
0.0
 11
-2.9537690905904568
 21
-25.105063832100001
 31
0.0
  0
ARC
  5
395C
  8
0
 10
-2.8287690905904568
 20
-25.105063832100001
 30
0.0
 40
0.125
 50
180.0
 51
270.00000000040058
  0
LINE
  5
395D
  8
0
 10
-2.8287690905895762
 20
-25.230063832100001
 30
0.0
 11
-1.5370706326560979
 21
-25.23006383209098
 31
0.0
  0
LINE
  5
395E
  8
0
 10
-2.8287690905904568
 20
-25.230063832100001
 30
0.0
 11
-2.8301413799353989
 21
-25.252563391500011
 31
0.0
  0
ARC
  5
395F
  8
0
 10
338.07933537627957
 20
1.2883492753869701
 30
0.0
 40
342.07458378352692
 50
183.95115997443429
 51
184.4499422907972
  0
ARC
  5
3960
  8
0
 10
388.35804100561148
 20
4.7611133206630143
 30
0.0
 40
392.47307909712902
 50
182.8833341489682
 51
183.95115997443429
  0
ARC
  5
3961
  8
0
 10
119.19837921175029
 20
-8.7954356371487972
 30
0.0
 40
122.97223762046259
 50
180.79011097763811
 51
182.8833341489682
  0
ARC
  5
3962
  8
0
 10
-738.58451091127949
 20
-20.625044170626289
 30
0.0
 40
734.89221917086115
 50
0.7901109776381472
 51
1.4160579952061929
  0
LINE
  5
3963
  8
0
 10
-3.927486872690467
 20
1.5897143233999951
 30
0.0
 11
-3.927486872690467
 21
12.58978963549999
 31
0.0
  0
LINE
  5
3964
  8
0
 10
-3.927486872690467
 20
12.58978963549999
 30
0.0
 11
-3.9273563952904609
 21
35.009936160899997
 31
0.0
  0
ARC
  5
3965
  8
0
 10
58.439136538777262
 20
35.009573209755338
 30
0.0
 40
62.366492935123837
 50
174.58875388903229
 51
179.99966655863139
  0
ARC
  5
3966
  8
0
 10
69.641944441690299
 20
33.948377480254372
 30
0.0
 40
73.619449936991472
 50
170.4337885767992
 51
174.58875388903229
  0
ARC
  5
3967
  8
0
 10
-3.7964777321495129
 20
-18.169097314340569
 30
0.0
 40
5.9255330199625131
 50
89.313624098867336
 51
102.3950214142165
  0
ARC
  5
3968
  8
0
 10
22.472086028328569
 20
-168.0259644173891
 30
0.0
 40
158.06207804127209
 50
100.0343402260516
 51
100.67380563036269
  0
ARC
  5
3969
  8
0
 10
-6.751229476097067
 20
-13.379770376546659
 30
0.0
 40
0.683049625548355
 50
94.410391612047405
 51
214.12723137069739
  0
ARC
  5
396A
  8
0
 10
-21.632731251651489
 20
-23.465622873993009
 30
0.0
 40
17.294255948315438
 50
20.197396529927769
 51
34.127231370697316
  0
ARC
  5
396B
  8
0
 10
-9.2506859185793235
 20
-19.53159017621978
 30
0.0
 40
4.3545345767538661
 50
355.18593924441501
 51
27.8894100691811
  0
ARC
  5
396C
  8
0
 10
-2.5568751448499412
 20
-20.072189718905118
 30
0.0
 40
2.3611434945487582
 50
175.7457215391353
 51
192.0487539024181
  0
ARC
  5
396D
  8
0
 10
-2.3379316850215601
 20
-19.248706237335949
 30
0.0
 40
2.8502534610731618
 50
207.50583096354401
 51
231.29860962254401
  0
ARC
  5
396E
  8
0
 10
-3.773824515164379
 20
-21.188368012170049
 30
0.0
 40
0.4482878302946756
 50
219.42936205239511
 51
303.92825338002098
  0
ARC
  5
396F
  8
0
 10
-4.1790551123081361
 20
-20.810315877459441
 30
0.0
 40
0.9960557987604488
 50
311.15055012004501
 51
337.86388945812212
  0
ARC
  5
3970
  8
0
 10
-6.6744166323200762
 20
-12.81593348305813
 30
0.0
 40
0.1745341368101363
 50
137.82129939275109
 51
274.20070487261722
  0
ARC
  5
3971
  8
0
 10
-5.9387581522703261
 20
-8.3334550588712943
 30
0.0
 40
4.712318496576696
 50
261.1759360797567
 51
276.96740550600589
  0
ARC
  5
3972
  8
0
 10
-6.5703765097629097
 20
0.1759988835965522
 30
0.0
 40
13.241754685890371
 50
275.21351357222721
 51
282.47421554124992
  0
LINE
  5
3973
  8
0
 10
-3.9246667869050231
 20
0.5273711804486007
 30
0.0
 11
-7.7022957878576088
 21
0.5273711804486041
 31
0.0
  0
ARC
  5
3974
  8
0
 10
-7.6173919918258282
 20
0.484660901486727
 30
0.0
 40
0.0833029155905537
 50
278.94530437684512
 51
30.844543607095559
  0
LINE
  5
3975
  8
0
 10
-7.6044390941826112
 20
0.4023711804486006
 30
0.0
 11
-7.7034217923811648
 21
0.402371180448597
 31
0.0
  0
ARC
  5
3976
  8
0
 10
-7.67492282961034
 20
0.6568775650435441
 30
0.0
 40
0.2560970337169166
 50
211.57431263956761
 51
263.61105585442368
  0
ARC
  5
3977
  8
0
 10
-15.557930548746061
 20
-4.187910700041491
 30
0.0
 40
8.996674660940787
 50
31.574312639567641
 51
37.910701770718269
  0
ARC
  5
3978
  8
0
 10
-8.5429647531135942
 20
1.2751958028695389
 30
0.0
 40
0.1053711695486456
 50
37.910701770720401
 51
98.746895131348779
  0
ARC
  5
3979
  8
0
 10
-8.5678259428633652
 20
1.235413973066215
 30
0.0
 40
0.144198568100353
 50
86.486344775724291
 51
215.97252381089069
  0
ARC
  5
397A
  8
0
 10
15.589505004558941
 20
16.579085066473709
 30
0.0
 40
28.76218448530755
 50
212.43970171785011
 51
213.93440688032439
  0
ARC
  5
397B
  8
0
 10
-8.0694705059597158
 20
0.633086398062261
 30
0.0
 40
0.2322214893268792
 50
208.3585049845293
 51
263.4706023857733
  0
ARC
  5
397C
  8
0
 10
-8.0697168380301623
 20
0.6594561127965051
 30
0.0
 40
0.2584125035715526
 50
210.90311881422599
 51
264.1897357039004
  0
ARC
  5
397D
  8
0
 10
22.61660460366717
 20
21.769952502035441
 30
0.0
 40
37.504421424836423
 50
213.35126013396399
 51
214.50088188365581
  0
ARC
  5
397E
  8
0
 10
-8.5455921443641945
 20
1.2528821922175759
 30
0.0
 40
0.1945659915031304
 50
87.080815157594131
 51
211.53057326600171
  0
ARC
  5
397F
  8
0
 10
-8.5323278616333216
 20
1.2898800763052589
 30
0.0
 40
0.1573514283308712
 50
39.50302546021296
 51
91.222182851881755
  0
ARC
  5
3980
  8
0
 10
-11.400494516396581
 20
-1.074708436063126
 30
0.0
 40
3.874562586217976
 50
34.976858588570742
 51
39.50302546021296
  0
ARC
  5
3981
  8
0
 10
-105.0812301412417
 20
-74.709651238939784
 30
0.0
 40
123.0248806608205
 50
37.774489054310699
 51
38.067607087706271
  0
ARC
  5
3982
  8
0
 10
-7.816472502302604
 20
0.6693148403650291
 30
0.0
 40
0.0297098227862326
 50
220.86523755344641
 51
24.489406808244102
  0
ARC
  5
3983
  8
0
 10
-4.5548163523616001
 20
1.0243925181968621
 30
0.0
 40
3.2527290936082638
 50
175.91523989048579
 51
186.04887658765239
  0
ARC
  5
3984
  8
0
 10
-5.3765264050132391
 20
1.1250909683633481
 30
0.0
 40
2.426295408241629
 50
171.5458832842117
 51
176.90498483892901
  0
ARC
  5
3985
  8
0
 10
-7.6718538589083076
 20
1.4792831639232411
 30
0.0
 40
0.1046338575382413
 50
99.860979610660081
 51
178.62252205901791
  0
LINE
  5
3986
  8
0
 10
-7.6897732615826033
 20
1.5823711804486
 30
0.0
 11
-7.646512237782618
 21
1.5823711804486
 31
0.0
  0
ARC
  5
3987
  8
0
 10
-7.6528203115952218
 20
1.493493307558033
 30
0.0
 40
0.0891014482683419
 50
22.66575855788675
 51
85.940261232500944
  0
LINE
  5
3988
  8
0
 10
-7.6719523689345284
 20
1.527828964148596
 30
0.0
 11
-3.927322592417072
 21
1.527828964148596
 31
0.0
  0
ARC
  5
3989
  8
0
 10
-7.6868983865712881
 20
0.6214053226258507
 30
0.0
 40
0.0964643629950196
 50
262.14189551430542
 51
282.88822329268442
  0
ARC
  5
398A
  8
0
 10
-7.665484125215813
 20
0.5783471355442487
 30
0.0
 40
0.0628780287888159
 50
184.66780464385249
 51
236.611189318078
  0
ARC
  5
398B
  8
0
 10
-3.040520782742222
 20
1.16208642184862
 30
0.0
 40
4.7244738441593821
 50
183.8840490433941
 51
187.15993952542451
  0
ARC
  5
398C
  8
0
 10
-5.3625844101883766
 20
1.0044334520471521
 30
0.0
 40
2.3970645658424758
 50
179.56111591637071
 51
183.8840490433941
  0
ARC
  5
398D
  8
0
 10
-3.695579807362138
 20
0.9916639932245914
 30
0.0
 40
4.0641180757582394
 50
173.18176135933501
 51
179.56111591637071
  0
ARC
  5
398E
  8
0
 10
-7.677812087260337
 20
1.467802158258642
 30
0.0
 40
0.0535219251510514
 50
119.3343462652257
 51
173.1817613593366
  0
ARC
  5
398F
  8
0
 10
-7.6312083374936046
 20
1.3848717774312569
 30
0.0
 40
0.1486500364352314
 50
74.091990935715813
 51
119.3343462652275
  0
LINE
  5
3990
  8
0
 10
-7.6897732615821912
 20
1.58237118044866
 30
0.0
 11
-8.1041378353826037
 21
1.5823711804486
 31
0.0
  0
ARC
  5
3991
  8
0
 10
-8.0897352274882497
 20
1.4764987424616001
 30
0.0
 40
0.1068475935127704
 50
97.746812729459634
 51
177.5576035772207
  0
ARC
  5
3992
  8
0
 10
-5.2171732534514499
 20
1.0520025083506139
 30
0.0
 40
3.0100475915823628
 50
171.80519898715389
 51
178.20348706645191
  0
LINE
  5
3993
  8
0
 10
-8.1832764294556188
 20
1.5281364396795101
 30
0.0
 11
-9.8317799539826058
 21
1.5273711804486001
 31
0.0
  0
ARC
  5
3994
  8
0
 10
-8.4276743654607902
 20
1.041720627551644
 30
0.0
 40
1.4857216977776471
 50
160.9205747725849
 51
200.25476106745691
  0
LINE
  5
3995
  8
0
 10
-7.7034217923811648
 20
0.402371180448597
 30
0.0
 11
-8.0958771048826055
 21
0.4023711804486006
 31
0.0
  0
LINE
  5
3996
  8
0
 10
-8.2918791056237087
 20
0.5273711804486007
 30
0.0
 11
-9.8215228541826054
 21
0.5273711804486007
 31
0.0
  0
ARC
  5
3997
  8
0
 10
-9.7233031888538353
 20
0.5856641616047434
 30
0.0
 40
0.1142154731608902
 50
210.6889626416768
 51
289.22265993313931
  0
ARC
  5
3998
  8
0
 10
-25.733210513681161
 20
115.0103386678735
 30
0.0
 40
115.6512915357462
 50
277.97596829601508
 51
278.05450643297729
  0
ARC
  5
3999
  8
0
 10
-9.5129946042708173
 20
0.3584996101842179
 30
0.0
 40
0.1422931846093903
 50
1.995155889596008
 51
96.344402031990185
  0
LINE
  5
399A
  8
0
 10
-9.4357036068607272
 20
9.6397916845087934
 30
0.0
 11
-9.5478015900904598
 21
6.6086273448499924
 31
0.0
  0
LINE
  5
399B
  8
0
 10
-9.5478015900904598
 20
6.6086273448499924
 30
0.0
 11
-9.6325893679904642
 21
1.634676718499996
 31
0.0
  0
LINE
  5
399C
  8
0
 10
-9.3707876814826125
 20
0.3634535477485983
 30
0.0
 11
-9.5733468535904525
 21
-10.599956045500001
 31
0.0
  0
LINE
  5
399D
  8
0
 10
-9.5733468535904525
 20
-10.599956045500001
 30
0.0
 11
-9.6137837792904595
 21
-14.804146297999999
 31
0.0
  0
LINE
  5
399E
  8
0
 10
-9.6137837792904595
 20
-14.804146297999999
 30
0.0
 11
-9.6599697667904696
 21
-25.252563391500011
 31
0.0
  0
ARC
  5
399F
  8
0
 10
-9.7517867441702197
 20
1.6305147217654641
 30
0.0
 40
0.1192700159510202
 50
300.2033572023571
 51
1.999775621572397
  0
LINE
  5
39A0
  8
0
 10
-9.6325893595904706
 20
12.63467722129999
 30
0.0
 11
-9.3743741792904576
 21
22.363204296300001
 31
0.0
  0
ARC
  5
39A1
  8
0
 10
-9.5091437555136498
 20
22.36677883722064
 30
0.0
 40
0.1348169722926987
 50
358.48068007467049
 51
98.851258814582408
  0
ARC
  5
39A2
  8
0
 10
-10.209223818839821
 20
26.862414365346002
 30
0.0
 40
4.4150018039674848
 50
276.36282169121449
 51
278.85125881458242
  0
ARC
  5
39A3
  8
0
 10
-9.7327732186700917
 20
22.589735254282569
 30
0.0
 40
0.1158400297933799
 50
212.53418729953449
 51
276.36282169121449
  0
ARC
  5
39A4
  8
0
 10
-7.868739262462201
 20
22.96211175921956
 30
0.0
 40
2.0092763087549188
 50
164.92475651776971
 51
192.49382558826721
  0
ARC
  5
39A5
  8
0
 10
-9.6579901610475094
 20
23.253120246910559
 30
0.0
 40
0.2763917877149654
 50
97.026628439173066
 51
123.0847258632208
  0
ARC
  5
39A6
  8
0
 10
-9.7793356434540488
 20
23.64573444372056
 30
0.0
 40
0.1471622790662853
 50
306.49943174176082
 51
355.6908403846374
  0
LINE
  5
39A7
  8
0
 10
-9.6918013397904605
 20
23.52743616790001
 30
0.0
 11
-3.9274232194186149
 21
23.52743616790001
 31
0.0
  0
LINE
  5
39A8
  8
0
 10
-9.830434553590452
 20
22.52743616790001
 30
0.0
 11
-3.927429039068373
 21
22.527436167899999
 31
0.0
  0
LINE
  5
39A9
  8
0
 10
-9.6324071984904691
 20
23.634681938899998
 30
0.0
 11
-9.5038768241904723
 21
30.230218478499989
 31
0.0
  0
LINE
  5
39AA
  8
0
 10
-9.5038768241904723
 20
30.230218478499989
 30
0.0
 11
-9.3743741792904576
 21
33.363204296299998
 31
0.0
  0
ARC
  5
39AB
  8
0
 10
-9.5074463235034603
 20
33.36870486209898
 30
0.0
 40
0.1331857792316858
 50
357.63301405275558
 51
99.700567878419847
  0
ARC
  5
39AC
  8
0
 10
-9.9937101002800421
 20
36.213295365098674
 30
0.0
 40
2.7526672299080852
 50
276.01273291657651
 51
279.7005678784198
  0
ARC
  5
39AD
  8
0
 10
-9.7188884237268827
 20
33.60411966288526
 30
0.0
 40
0.1290581128854384
 50
216.45405772277789
 51
276.01273291657651
  0
ARC
  5
39AE
  8
0
 10
-7.8331324949796377
 20
33.997639050832341
 30
0.0
 40
2.0443694647309352
 50
166.61406442173521
 51
193.29701144506149
  0
ARC
  5
39AF
  8
0
 10
-9.6275344161855561
 20
34.201894202161967
 30
0.0
 40
0.3319366370134403
 50
101.26467942901979
 51
125.855083185617
  0
ARC
  5
39B0
  8
0
 10
-9.7813770792489692
 20
34.64583754391699
 30
0.0
 40
0.1481221659016346
 50
306.93197308223228
 51
355.62047748530182
  0
LINE
  5
39B1
  8
0
 10
-9.8226941947533266
 20
33.527436167899999
 30
0.0
 11
-3.9273650229211809
 21
33.527436167899999
 31
0.0
  0
LINE
  5
39B2
  8
0
 10
-9.6923754489904628
 20
34.527436167899992
 30
0.0
 11
-3.9273592032714228
 21
34.527436167899978
 31
0.0
  0
LINE
  5
39B3
  8
0
 10
-9.6338266080638153
 20
34.634510902005907
 30
0.0
 11
-9.6138596052404655
 21
37.404845145499991
 31
0.0
  0
LINE
  5
39B4
  8
0
 10
-9.6138596052404655
 20
37.404845145499991
 30
0.0
 11
-9.5440774225904637
 21
41.697098294349992
 31
0.0
  0
LINE
  5
39B5
  8
0
 10
-9.5440774225904637
 20
41.697098294349992
 30
0.0
 11
-9.4571912888404643
 21
45.3704400357
 31
0.0
  0
LINE
  5
39B6
  8
0
 10
-9.4571912888404643
 20
45.3704400357
 30
0.0
 11
-9.3208655003244463
 21
47.214630244873881
 31
0.0
  0
LINE
  5
39B7
  8
0
 10
-9.3208655003244463
 20
47.214630244873881
 30
0.0
 11
-9.3166943842316403
 21
47.463455678304001
 31
0.0
  0
ARC
  5
39B8
  8
0
 10
-20.286119797650709
 20
35.803124717086114
 30
0.0
 40
2.9999863378512361
 50
2.4069624609014499
 51
82.431377248368634
  0
ARC
  5
39B9
  8
0
 10
-493.89824061788198
 20
15.90458126813394
 30
0.0
 40
477.02993583332318
 50
1.6735325342870531
 51
2.4058416917387908
  0
ARC
  5
39BA
  8
0
 10
-492.02094584986622
 20
15.977118915481499
 30
0.0
 40
475.1513237143414
 50
0.0437733155316672
 51
1.671400453245411
  0
ARC
  5
39BB
  8
0
 10
-491.95118706839219
 20
15.980021617106569
 30
0.0
 40
475.08156274414011
 50
357.27099559245858
 51
0.0434296715265068
  0
ARC
  5
39BC
  8
0
 10
-514.21001167029135
 20
17.10960038100125
 30
0.0
 40
497.36892996818239
 50
356.96488833683981
 51
357.26310360071341
  0
ARC
  5
39BD
  8
0
 10
-20.53456066297689
 20
-9.0658399224535557
 30
0.0
 40
3.00003472877001
 50
277.39800151431803
 51
356.95791257116258
  0
ARC
  5
39BE
  8
0
 10
-31.32876906255456
 20
-84.216307684453227
 30
0.0
 40
128.3902810045191
 50
83.860311395541814
 51
96.139687389003072
  0
ARC
  5
39BF
  8
0
 10
-18.146227376094561
 20
38.385020257440473
 30
0.0
 40
5.0822755153576358
 50
29.300451135868599
 51
83.796841655422796
  0
ARC
  5
39C0
  8
0
 10
-18.16276008669486
 20
38.376239900624817
 30
0.0
 40
5.1009901518451057
 50
8.1017183046835886
 51
29.295577599532411
  0
ARC
  5
39C1
  8
0
 10
-68.928945015775568
 20
31.101654861866209
 30
0.0
 40
56.385733653301912
 50
3.974546438875703
 51
8.1499394800333942
  0
ARC
  5
39C2
  8
0
 10
-560.78176456292169
 20
14.337311145247011
 30
0.0
 40
548.4926550629167
 50
358.50181628337617
 51
2.1599829253132592
  0
ARC
  5
39C3
  8
0
 10
-230.56175534791021
 20
5.3974258528816188
 30
0.0
 40
218.15200514723671
 50
356.4086434926682
 51
358.58143387440828
  0
ARC
  5
39C4
  8
0
 10
-51.743853486639992
 20
-4.7284703679534941
 30
0.0
 40
39.066334855983087
 50
350.0914462887103
 51
354.80227716981062
  0
ARC
  5
39C5
  8
0
 10
-19.257504381067641
 20
-10.40276955967898
 30
0.0
 40
6.0881519447517922
 50
280.00218634211109
 51
350.08705089674629
  0
ARC
  5
39C6
  8
0
 10
-31.326271328283578
 20
57.67929873292119
 30
0.0
 40
75.231646670642121
 50
260.74995052663502
 51
280.04822434629352
  0
LINE
  5
39C7
  8
0
 10
-1.328769090600006
 20
48.4501861679
 30
0.0
 11
-1.3287690905999501
 21
-25.2118116738
 31
0.0
  0
LINE
  5
39C8
  8
0
 10
-3.927486872690467
 20
8.5360227640596165
 30
0.0
 11
-5.4853202154999554
 21
8.5572902446499981
 31
0.0
  0
LINE
  5
39C9
  8
0
 10
-5.4853202154999554
 20
8.5572902446499981
 30
0.0
 11
-8.8790469538499668
 21
8.5341342042000008
 31
0.0
  0
ARC
  5
39CA
  8
0
 10
-8.8820205700198631
 20
8.9699444942693276
 30
0.0
 40
0.4358204347244861
 50
195.93420789149619
 51
270.39093389115641
  0
ARC
  5
39CB
  8
0
 10
7.8562129938573948
 20
12.18182081483698
 30
0.0
 40
17.477765641683948
 50
182.19280848114559
 51
190.9886746405723
  0
ARC
  5
39CC
  8
0
 10
-9.6528480869752986
 20
11.492536360351011
 30
0.0
 40
0.0486447177017302
 50
24.980896921760049
 51
45.843763434314027
  0
LINE
  5
39CD
  8
0
 10
-9.6189613341323525
 20
11.52743616754306
 30
0.0
 11
-9.7896546054191891
 21
11.527436167899999
 31
0.0
  0
ARC
  5
39CE
  8
0
 10
-9.7896546052948992
 20
11.58687188880174
 30
0.0
 40
0.0594357209017391
 50
189.93587925413451
 51
269.9999998801872
  0
ARC
  5
39CF
  8
0
 10
-7.2746347650122098
 20
12.02743620126453
 30
0.0
 40
2.61275154751453
 50
170.0641235552163
 51
189.93587925413451
  0
ARC
  5
39D0
  8
0
 10
-9.7896545595285591
 20
12.468000378608711
 30
0.0
 40
0.0594357892958177
 50
89.999293075197798
 51
170.06412355521729
  0
LINE
  5
39D1
  8
0
 10
-9.7896538261999684
 20
12.527436167899999
 30
0.0
 11
-3.927486872690467
 21
12.52736383951463
 31
0.0
  0
ARC
  5
39D2
  8
0
 10
-3.2118079816456779
 20
8.2323935398339358
 30
0.0
 40
1.3321435759486431
 50
122.4958525015678
 51
147.85600748616201
  0
ARC
  5
39D3
  8
0
 10
-2.205411072511497
 20
7.60000463333634
 30
0.0
 40
2.5207353762636431
 50
147.85600748616201
 51
150.03218119698639
  0
ARC
  5
39D4
  8
0
 10
-4.2835758615457289
 20
8.7982778202759349
 30
0.0
 40
0.1218549038515518
 50
150.03218119698639
 51
239.7878147821632
  0
ARC
  5
39D5
  8
0
 10
-4.2085097215394303
 20
8.9271912918903951
 30
0.0
 40
0.2710313381135989
 50
239.7878147821632
 51
271.89993186570013
  0
ARC
  5
39D6
  8
0
 10
-4.0364697994258316
 20
3.7409272934627249
 30
0.0
 40
4.9180853493571917
 50
88.730243082419122
 51
91.899931865700083
  0
ARC
  5
39D7
  8
0
 10
-9.758334859599886
 20
12.63413323466609
 30
0.0
 40
0.1257466766720977
 50
301.95023496866662
 51
0.2478652818276405
  0
ARC
  5
39D8
  8
0
 10
-88.909692690013145
 20
2.19751075202517
 30
0.0
 40
35.900454528608023
 50
357.31072403123142
 51
358.83815278935128
  0
ARC
  5
39D9
  8
0
 10
-53.075282375345282
 20
1.4687856791144569
 30
0.0
 40
0.0586685699086725
 50
0.765111615290079
 51
88.480845908693254
  0
ARC
  5
39DA
  8
0
 10
-9.3900273170456376
 20
11.54327337898096
 30
0.0
 40
0.2208009934465452
 50
169.33725802958051
 51
187.85957385203159
  0
ARC
  5
39DB
  8
0
 10
9.1495319016223231
 20
12.745723996086801
 30
0.0
 40
18.792482224313069
 50
180.841989765401
 51
183.5438118628069
  0
ARC
  5
39DC
  8
0
 10
-9.5822543465677814
 20
12.46878212893882
 30
0.0
 40
0.0586721020849912
 50
91.518442601957574
 51
179.23143500824199
  0
LINE
  5
39DD
  8
0
 10
-3.916725592190418
 20
-2.4641242539998842
 30
0.0
 11
-3.927486872690467
 21
1.5897143233999951
 31
0.0
  0
ARC
  5
39DE
  8
0
 10
-31.326391482108079
 20
-47.106657694808767
 30
0.0
 40
86.641600376145405
 50
82.415674429921424
 51
96.03099940292411
  0
ARC
  5
39DF
  8
0
 10
-31.328751466634969
 20
73.902289033075647
 30
0.0
 40
86.667381775375787
 50
262.5879105348663
 51
277.41206733958933
  0
CIRCLE
  5
39E0
  8
0
 10
-25.702379063329801
 20
48.28742547329999
 30
0.0
 40
0.0940069465796256
  0
CIRCLE
  5
39E1
  8
0
 10
-26.453769090599948
 20
48.28742547329999
 30
0.0
 40
0.0940069465796256
  0
CIRCLE
  5
39E2
  8
0
 10
-27.203769090599948
 20
48.28742547329999
 30
0.0
 40
0.0940069465796256
  0
CIRCLE
  5
39E3
  8
0
 10
-27.954789605216838
 20
48.28742547329999
 30
0.0
 40
0.0940069465796256
  0
CIRCLE
  5
39E4
  8
0
 10
-40.703060843767773
 20
48.28742547329999
 30
0.0
 40
0.0940069465796256
  0
CIRCLE
  5
39E5
  8
0
 10
-41.450036513183562
 20
48.28742547329999
 30
0.0
 40
0.0940069465796256
  0
CIRCLE
  5
39E6
  8
0
 10
-42.203638947558261
 20
48.28742547329999
 30
0.0
 40
0.0940069465796256
  0
CIRCLE
  5
39E7
  8
0
 10
-42.953415800555938
 20
48.28742547329999
 30
0.0
 40
0.0940069465796256
  0
CIRCLE
  5
39E8
  8
0
 10
-60.203769090609491
 20
48.28742547329999
 30
0.0
 40
0.0940069465796256
  0
CIRCLE
  5
39E9
  8
0
 10
-59.453769090609498
 20
48.28742547329999
 30
0.0
 40
0.0940069465796256
  0
CIRCLE
  5
39EA
  8
0
 10
-58.703769090609498
 20
48.28742547329999
 30
0.0
 40
0.0940069465796256
  0
CIRCLE
  5
39EB
  8
0
 10
-57.953769090609498
 20
48.28742547329999
 30
0.0
 40
0.0940069465796256
  0
CIRCLE
  5
39EC
  8
0
 10
-57.203769090609491
 20
48.28742547329999
 30
0.0
 40
0.0940069465796256
  0
CIRCLE
  5
39ED
  8
0
 10
-56.453769090609491
 20
48.28742547329999
 30
0.0
 40
0.0940069465796256
  0
CIRCLE
  5
39EE
  8
0
 10
-55.703769090609498
 20
48.28742547329999
 30
0.0
 40
0.0940069465796256
  0
CIRCLE
  5
39EF
  8
0
 10
-54.953769090609498
 20
48.28742547329999
 30
0.0
 40
0.0940069465796256
  0
CIRCLE
  5
39F0
  8
0
 10
-54.203769090609498
 20
48.28742547329999
 30
0.0
 40
0.0940069465796256
  0
CIRCLE
  5
39F1
  8
0
 10
-53.453769090609491
 20
48.28742547329999
 30
0.0
 40
0.0940069465796256
  0
CIRCLE
  5
39F2
  8
0
 10
-52.703769090609491
 20
48.28742547329999
 30
0.0
 40
0.0940069465796256
  0
CIRCLE
  5
39F3
  8
0
 10
-51.953769090609498
 20
48.28742547329999
 30
0.0
 40
0.0940069465796256
  0
CIRCLE
  5
39F4
  8
0
 10
-51.203769090609498
 20
48.28742547329999
 30
0.0
 40
0.0940069465796256
  0
CIRCLE
  5
39F5
  8
0
 10
-50.453769090609498
 20
48.28742547329999
 30
0.0
 40
0.0940069465796256
  0
CIRCLE
  5
39F6
  8
0
 10
-49.702490991096333
 20
48.28742547329999
 30
0.0
 40
0.0940069465796256
  0
CIRCLE
  5
39F7
  8
0
 10
-48.955159117879631
 20
48.28742547329999
 30
0.0
 40
0.0940069465796256
  0
CIRCLE
  5
39F8
  8
0
 10
-48.203769090609498
 20
48.28742547329999
 30
0.0
 40
0.0940069465796256
  0
CIRCLE
  5
39F9
  8
0
 10
-47.453769090609498
 20
48.28742547329999
 30
0.0
 40
0.0940069465796256
  0
CIRCLE
  5
39FA
  8
0
 10
-46.702748575992572
 20
48.28742547329999
 30
0.0
 40
0.0940069465796256
  0
CIRCLE
  5
39FB
  8
0
 10
-45.954477337441681
 20
48.28742547329999
 30
0.0
 40
0.0940069465796256
  0
CIRCLE
  5
39FC
  8
0
 10
-45.207501668025877
 20
48.28742547329999
 30
0.0
 40
0.0940069465796256
  0
CIRCLE
  5
39FD
  8
0
 10
-44.453899233651207
 20
48.28742547329999
 30
0.0
 40
0.0940069465796256
  0
CIRCLE
  5
39FE
  8
0
 10
-43.704122380653509
 20
48.28742547329999
 30
0.0
 40
0.0940069465796256
  0
ATTDEF
  5
429E
  8
DEFPOINTS
 10
-31.333798315070052
 20
-28.37619236926081
 30
0.0
 40
0.001
  1
72330106
  3

  2
MODELNUMBER
 70
     0
1001
ACDBATTR
1070
     0
1070
     1
  0
ATTDEF
  5
429F
  8
DEFPOINTS
 10
-31.333798315070052
 20
-28.377859035927472
 30
0.0
 40
0.001
  1
STORE
  3

  2
TRADENAME
 70
     0
1001
ACDBATTR
1070
     0
1070
     1
  0
ATTDEF
  5
42A0
  8
DEFPOINTS
 10
-31.333798315070052
 20
-28.37952570259414
 30
0.0
 40
0.001
  1
SHOWER STALL
  3

  2
PRODUCT
 70
     0
1001
ACDBATTR
1070
     0
1070
     1
  0
ATTDEF
  5
42A1
  8
DEFPOINTS
 10
-31.333798315070052
 20
-28.381192369260798
 30
0.0
 40
0.001
  1
VIKRELL
  3

  2
MATERIAL
 70
     0
1001
ACDBATTR
1070
     0
1070
     1
  0
CIRCLE
  5
43B4
  8
0
 10
-36.952222453884332
 20
48.28742547329999
 30
0.0
 40
0.0940069465796256
  0
CIRCLE
  5
43B5
  8
0
 10
-37.699198123300121
 20
48.28742547329999
 30
0.0
 40
0.0940069465796256
  0
CIRCLE
  5
43B6
  8
0
 10
-38.45280055767482
 20
48.28742547329999
 30
0.0
 40
0.0940069465796256
  0
CIRCLE
  5
43B7
  8
0
 10
-39.202577410672511
 20
48.28742547329999
 30
0.0
 40
0.0940069465796256
  0
CIRCLE
  5
43B9
  8
0
 10
-39.953283990770082
 20
48.28742547329999
 30
0.0
 40
0.0940069465796256
  0
CIRCLE
  5
43BA
  8
0
 10
-33.201384064000891
 20
48.28742547329999
 30
0.0
 40
0.0940069465796256
  0
CIRCLE
  5
43BB
  8
0
 10
-33.94835973341668
 20
48.28742547329999
 30
0.0
 40
0.0940069465796256
  0
CIRCLE
  5
43BC
  8
0
 10
-34.701962167791379
 20
48.28742547329999
 30
0.0
 40
0.0940069465796256
  0
CIRCLE
  5
43BD
  8
0
 10
-35.451739020789063
 20
48.28742547329999
 30
0.0
 40
0.0940069465796256
  0
CIRCLE
  5
43BF
  8
0
 10
-36.202445600886627
 20
48.28742547329999
 30
0.0
 40
0.0940069465796256
  0
CIRCLE
  5
43C0
  8
0
 10
-32.454408394585101
 20
48.28742547329999
 30
0.0
 40
0.0940069465796256
  0
CIRCLE
  5
43C2
  8
0
 10
-31.707432725169308
 20
48.28742547329999
 30
0.0
 40
0.0940069465796256
  0
CIRCLE
  5
43C4
  8
0
 10
-30.960457055753519
 20
48.28742547329999
 30
0.0
 40
0.0940069465796256
  0
CIRCLE
  5
43C6
  8
0
 10
-30.216399697858218
 20
48.28742547329999
 30
0.0
 40
0.0940069465796256
  0
CIRCLE
  5
43C8
  8
0
 10
-29.469424028442429
 20
48.28742547329999
 30
0.0
 40
0.0940069465796256
  0
CIRCLE
  5
43CA
  8
0
 10
-28.72244835902665
 20
48.28742547329999
 30
0.0
 40
0.0940069465796256
  0
ENDSEC
  0
EOF
