  0
SECTION
  2
HEADER
  9
$ACADVER
  1
AC1009
  9
$INSBASE
 10
-33.028003568090497
 20
-26.941903976399999
 30
0.0
  9
$EXTMIN
 10
-51.028003568099997
 20
-26.95945598956223
 30
0.0
  9
$EXTMAX
 10
-15.028003568100001
 20
50.197485328999988
 30
0.0
  9
$LIMMIN
 10
0.0
 20
0.0
  9
$LIMMAX
 10
22.0
 20
17.0
  9
$ORTHOMODE
 70
     1
  9
$REGENMODE
 70
     1
  9
$FILLMODE
 70
     1
  9
$QTEXTMODE
 70
     0
  9
$MIRRTEXT
 70
     0
  9
$DRAGMODE
 70
     2
  9
$LTSCALE
 40
1.2099999999999991
  9
$OSMODE
 70
    47
  9
$ATTMODE
 70
     1
  9
$TEXTSIZE
 40
0.2
  9
$TRACEWID
 40
0.05
  9
$TEXTSTYLE
  7
STANDARD
  9
$CLAYER
  8
0
  9
$CELTYPE
  6
BYLAYER
  9
$CECOLOR
 62
   256
  9
$DIMSCALE
 40
1.0
  9
$DIMASZ
 40
0.1875
  9
$DIMEXO
 40
0.0625
  9
$DIMDLI
 40
0.8359999999999999
  9
$DIMRND
 40
0.0
  9
$DIMDLE
 40
0.0
  9
$DIMEXE
 40
0.125
  9
$DIMTP
 40
0.0
  9
$DIMTM
 40
0.0
  9
$DIMTXT
 40
2.0
  9
$DIMCEN
 40
0.198
  9
$DIMTSZ
 40
0.0
  9
$DIMTOL
 70
     0
  9
$DIMLIM
 70
     0
  9
$DIMTIH
 70
     1
  9
$DIMTOH
 70
     1
  9
$DIMSE1
 70
     0
  9
$DIMSE2
 70
     0
  9
$DIMTAD
 70
     0
  9
$DIMZIN
 70
     0
  9
$DIMBLK
  1

  9
$DIMASO
 70
     1
  9
$DIMSHO
 70
     1
  9
$DIMPOST
  1
\X
  9
$DIMAPOST
  1

  9
$DIMALT
 70
     1
  9
$DIMALTD
 70
     2
  9
$DIMALTF
 40
25.399999999999999
  9
$DIMLFAC
 40
1.0
  9
$DIMTOFL
 70
     0
  9
$DIMTVP
 40
0.0
  9
$DIMTIX
 70
     0
  9
$DIMSOXD
 70
     0
  9
$DIMSAH
 70
     0
  9
$DIMBLK1
  1

  9
$DIMBLK2
  1

  9
$DIMSTYLE
  2
STANDARD
  9
$DIMCLRD
 70
     0
  9
$DIMCLRE
 70
     0
  9
$DIMCLRT
 70
     0
  9
$DIMTFAC
 40
1.0
  9
$DIMGAP
 40
0.09
  9
$LUNITS
 70
     4
  9
$LUPREC
 70
     4
  9
$SKETCHINC
 40
0.1
  9
$FILLETRAD
 40
0.0
  9
$AUNITS
 70
     0
  9
$AUPREC
 70
     2
  9
$MENU
  1
.
  9
$ELEVATION
 40
0.0
  9
$PELEVATION
 40
0.0
  9
$THICKNESS
 40
0.0
  9
$LIMCHECK
 70
     0
  9
$BLIPMODE
 70
     0
  9
$CHAMFERA
 40
0.0
  9
$CHAMFERB
 40
0.0
  9
$SKPOLY
 70
     0
  9
$TDCREATE
 40
2458156.6418131832
  9
$TDUPDATE
 40
2458158.781992685
  9
$TDINDWG
 40
1.0666223264000001
  9
$TDUSRTIMER
 40
1.0666223264000001
  9
$USRTIMER
 70
     1
  9
$ANGBASE
 50
0.0
  9
$ANGDIR
 70
     0
  9
$PDMODE
 70
     0
  9
$PDSIZE
 40
0.3125
  9
$PLINEWID
 40
0.0
  9
$COORDS
 70
     1
  9
$SPLFRAME
 70
     0
  9
$SPLINETYPE
 70
     6
  9
$SPLINESEGS
 70
     8
  9
$ATTDIA
 70
     1
  9
$ATTREQ
 70
     1
  9
$HANDLING
 70
     1
  9
$HANDSEED
  5
4DEB
  9
$SURFTAB1
 70
     6
  9
$SURFTAB2
 70
     6
  9
$SURFTYPE
 70
     6
  9
$SURFU
 70
     6
  9
$SURFV
 70
     6
  9
$UCSNAME
  2

  9
$UCSORG
 10
0.0
 20
0.0
 30
0.0
  9
$UCSXDIR
 10
1.0
 20
0.0
 30
0.0
  9
$UCSYDIR
 10
0.0
 20
1.0
 30
0.0
  9
$PUCSNAME
  2

  9
$PUCSORG
 10
0.0
 20
0.0
 30
0.0
  9
$PUCSXDIR
 10
1.0
 20
0.0
 30
0.0
  9
$PUCSYDIR
 10
0.0
 20
1.0
 30
0.0
  9
$USERI1
 70
     0
  9
$USERI2
 70
     0
  9
$USERI3
 70
     0
  9
$USERI4
 70
     0
  9
$USERI5
 70
     0
  9
$USERR1
 40
0.0
  9
$USERR2
 40
0.0
  9
$USERR3
 40
0.0
  9
$USERR4
 40
0.0
  9
$USERR5
 40
0.0
  9
$WORLDVIEW
 70
     1
  9
$SHADEDGE
 70
     3
  9
$SHADEDIF
 70
    70
  9
$TILEMODE
 70
     1
  9
$MAXACTVP
 70
    48
  9
$PLIMCHECK
 70
     0
  9
$PEXTMIN
 10
1.0000000000000000E+020
 20
1.0000000000000000E+020
 30
1.0000000000000000E+020
  9
$PEXTMAX
 10
-1.0000000000000000E+020
 20
-1.0000000000000000E+020
 30
-1.0000000000000000E+020
  9
$PLIMMIN
 10
0.0
 20
0.0
  9
$PLIMMAX
 10
12.0
 20
9.0
  9
$UNITMODE
 70
     0
  9
$VISRETAIN
 70
     1
  9
$PLINEGEN
 70
     0
  9
$PSLTSCALE
 70
     1
  0
ENDSEC
  0
SECTION
  2
TABLES
  0
TABLE
  2
VPORT
 70
     1
  0
VPORT
  2
*ACTIVE
 70
     0
 10
0.0
 20
0.0
 11
1.0
 21
1.0
 12
-28.636652271523872
 22
7.7222071505315517
 13
0.0
 23
0.0
 14
1.0
 24
1.0
 15
0.0
 25
0.0
 16
0.0
 26
0.0
 36
1.0
 17
0.0
 27
0.0
 37
0.0
 40
124.6425700988224
 41
2.0329087048832268
 42
50.0
 43
0.0
 44
0.0
 50
0.0
 51
0.0
 71
     0
 72
   100
 73
     1
 74
     1
 75
     0
 76
     0
 77
     0
 78
     0
  0
ENDTAB
  0
TABLE
  2
LTYPE
 70
     2
  0
LTYPE
  2
CONTINUOUS
 70
     0
  3
Solid line
 72
    65
 73
     0
 40
0.0
  0
LTYPE
  2
PHANTOM2
 70
     0
  3
___ _ _ ___ _ _ ___ _ _ ___ _ _
 72
    65
 73
     6
 40
1.25
 49
0.625
 49
-0.125
 49
0.125
 49
-0.125
 49
0.125
 49
-0.125
  0
ENDTAB
  0
TABLE
  2
LAYER
 70
     2
  0
LAYER
  2
0
 70
     0
 62
     7
  6
CONTINUOUS
  0
LAYER
  2
DEFPOINTS
 70
     0
 62
     7
  6
CONTINUOUS
  0
ENDTAB
  0
TABLE
  2
STYLE
 70
     1
  0
STYLE
  2
STANDARD
 70
     0
 40
0.0
 41
0.8
 50
0.0
 71
     0
 42
0.2
  3
txt
  4

  0
ENDTAB
  0
TABLE
  2
VIEW
 70
     0
  0
ENDTAB
  0
TABLE
  2
UCS
 70
     0
  0
ENDTAB
  0
TABLE
  2
APPID
 70
     8
  0
APPID
  2
ACAD
 70
     0
  0
APPID
  2
ACAD_MLEADERVER
 70
     0
  0
APPID
  2
ACAD_NAV_VCDISPLAY
 70
     0
  0
APPID
  2
ACAD_DSTYLE_DIMJAG
 70
     0
  0
APPID
  2
ACAD_DSTYLE_DIMTALN
 70
     0
  0
APPID
  2
ACAD_EXEMPT_FROM_CAD_STANDARDS
 70
     0
  0
APPID
  2
MANULPOINTSASSOCIATIVE
 70
     0
  0
APPID
  2
ACDBATTR
 70
     0
  0
ENDTAB
  0
TABLE
  2
DIMSTYLE
 70
     1
  0
DIMSTYLE
  2
STANDARD
 70
     0
  3

  4

  5

  6

  7

 40
1.0
 41
0.1875
 42
0.0625
 43
0.38
 44
0.125
 45
0.0
 46
0.0
 47
1.5
 48
1.5
140
0.15625
141
0.09
142
0.0
143
25.399999999999999
144
1.0
145
0.0
146
1.0
147
0.09
 71
     0
 72
     0
 73
     1
 74
     1
 75
     0
 76
     0
 77
     0
 78
     4
170
     0
171
     2
172
     0
173
     0
174
     0
175
     0
176
     0
177
     0
178
     0
  0
ENDTAB
  0
ENDSEC
  0
SECTION
  2
BLOCKS
  0
BLOCK
  8
0
  2
$MODEL_SPACE
 70
     0
 10
0.0
 20
0.0
 30
0.0
  3
$MODEL_SPACE
  1

  0
ENDBLK
  5
21
  8
0
  0
BLOCK
 67
     1
  8
0
  2
$PAPER_SPACE
 70
     0
 10
0.0
 20
0.0
 30
0.0
  3
$PAPER_SPACE
  1

  0
ENDBLK
  5
1D
 67
     1
  8
0
  0
ENDSEC
  0
SECTION
  2
ENTITIES
  0
LINE
  5
2FD8
  8
0
 10
-50.882317609899999
 20
-26.941903976399999
 30
0.0
 11
-50.99230857563002
 21
-23.792174823023331
 31
0.0
  0
LINE
  5
2FD9
  8
0
 10
-51.028003568099997
 20
-23.7917518181
 30
0.0
 11
-50.820258690880898
 21
-23.794063183263031
 31
0.0
  0
LINE
  5
2FDA
  8
0
 10
-50.820258690880898
 20
-23.794063183263031
 30
0.0
 11
-50.818916323987708
 21
-23.832503535800001
 31
0.0
  0
ARC
  5
2FDB
  8
0
 10
-50.929397515610752
 20
-23.892616543591789
 30
0.0
 40
0.0997618700429872
 50
47.389772688076313
 51
89.198720768325174
  0
ARC
  5
2FDC
  8
0
 10
-50.837147722350672
 20
-23.802912069027879
 30
0.0
 40
0.029592307209611
 50
213.38170837706821
 51
270.4318192045742
  0
LINE
  5
2FDD
  8
0
 10
-50.836924697100002
 20
-23.832503535800001
 30
0.0
 11
-33.028003568100011
 21
-23.832503535800001
 31
0.0
  0
LINE
  5
2FDE
  8
0
 10
-50.882317609899999
 20
-26.941903976399999
 30
0.0
 11
-33.028003568100011
 21
-26.941903976399999
 31
0.0
  0
ARC
  5
3020
  8
0
 10
-51.208993299030837
 20
-23.593504126511728
 30
0.0
 40
0.2809963493058954
 50
315.0711826762228
 51
359.60675443695521
  0
LINE
  5
3021
  8
0
 10
-50.92800356810001
 20
-23.59543271010001
 30
0.0
 11
-50.928003568100003
 21
49.808812620099999
 31
0.0
  0
ARC
  5
3022
  8
0
 10
-50.999802448981242
 20
49.804045562788467
 30
0.0
 40
0.0719569602693834
 50
3.798554728952142
 51
113.07380152096979
  0
LINE
  5
3023
  8
0
 10
-51.001167182798113
 20
49.875989580140988
 30
0.0
 11
-50.898119362999999
 21
50.185384441700002
 31
0.0
  0
ARC
  5
3024
  8
0
 10
-50.599731690637519
 20
46.734267882947847
 30
0.0
 40
3.4639920186269491
 50
91.211681116853427
 51
94.941572553507115
  0
LINE
  5
3025
  8
0
 10
-50.672982127299989
 20
50.197485328999988
 30
0.0
 11
-33.028003568100011
 21
50.197485328999988
 31
0.0
  0
CIRCLE
  5
3028
  8
0
 10
-49.903003568099997
 20
49.707485329000001
 30
0.0
 40
0.0940069465796256
  0
CIRCLE
  5
3029
  8
0
 10
-49.153003568099997
 20
49.707485329000001
 30
0.0
 40
0.0940069465796256
  0
CIRCLE
  5
302A
  8
0
 10
-48.403003568100011
 20
49.707485329000001
 30
0.0
 40
0.0940069465796256
  0
CIRCLE
  5
302B
  8
0
 10
-47.653003568099997
 20
49.707485329000001
 30
0.0
 40
0.0940069465796256
  0
CIRCLE
  5
302C
  8
0
 10
-46.903003568099997
 20
49.707485329000001
 30
0.0
 40
0.0940069465796256
  0
CIRCLE
  5
302D
  8
0
 10
-46.153003568099997
 20
49.707485329000001
 30
0.0
 40
0.0940069465796256
  0
CIRCLE
  5
302E
  8
0
 10
-45.403003568099997
 20
49.707485329000001
 30
0.0
 40
0.0940069465796256
  0
CIRCLE
  5
302F
  8
0
 10
-44.653003568099997
 20
49.707485329000001
 30
0.0
 40
0.0940069465796256
  0
CIRCLE
  5
3030
  8
0
 10
-43.903003568099997
 20
49.707485329000001
 30
0.0
 40
0.0940069465796256
  0
CIRCLE
  5
3031
  8
0
 10
-43.153003568099997
 20
49.707485329000001
 30
0.0
 40
0.0940069465796256
  0
CIRCLE
  5
3032
  8
0
 10
-42.40300356809999
 20
49.707485329000001
 30
0.0
 40
0.0940069465796256
  0
CIRCLE
  5
3033
  8
0
 10
-41.65300356809999
 20
49.707485329000001
 30
0.0
 40
0.0940069465796256
  0
CIRCLE
  5
3034
  8
0
 10
-40.903003568099997
 20
49.707485329000001
 30
0.0
 40
0.0940069465796256
  0
CIRCLE
  5
3035
  8
0
 10
-40.153003568099997
 20
49.707485329000001
 30
0.0
 40
0.0940069465796256
  0
CIRCLE
  5
3036
  8
0
 10
-39.401725468586839
 20
49.707485329000001
 30
0.0
 40
0.0940069465796256
  0
CIRCLE
  5
3037
  8
0
 10
-38.654393595370138
 20
49.707485329000001
 30
0.0
 40
0.0940069465796256
  0
CIRCLE
  5
3038
  8
0
 10
-37.903003568099997
 20
49.707485329000001
 30
0.0
 40
0.0940069465796256
  0
CIRCLE
  5
3039
  8
0
 10
-37.153003568099997
 20
49.707485329000001
 30
0.0
 40
0.0940069465796256
  0
CIRCLE
  5
303A
  8
0
 10
-36.4019830534831
 20
49.707485329000001
 30
0.0
 40
0.0940069465796256
  0
CIRCLE
  5
303B
  8
0
 10
-35.653711814932208
 20
49.707485329000001
 30
0.0
 40
0.0940069465796256
  0
CIRCLE
  5
303C
  8
0
 10
-34.906736145516412
 20
49.707485329000001
 30
0.0
 40
0.0940069465796256
  0
CIRCLE
  5
303D
  8
0
 10
-34.153133711141727
 20
49.707485329000001
 30
0.0
 40
0.0940069465796256
  0
CIRCLE
  5
303E
  8
0
 10
-33.403356858144043
 20
49.707485329000001
 30
0.0
 40
0.0940069465796256
  0
ARC
  5
3080
  8
0
 10
-50.871454502045808
 20
50.116498544651861
 30
0.0
 40
0.0740752419348306
 50
7.19829452655246
 51
77.479637678361811
  0
LINE
  5
3082
  8
0
 10
-50.797963089200003
 20
50.125780446699999
 30
0.0
 11
-50.797963080276489
 21
49.08082809616937
 31
0.0
  0
ARC
  5
3083
  8
0
 10
-50.738057647485768
 20
49.080828096680939
 30
0.0
 40
0.0599054327907141
 50
180.00000048928709
 51
267.23813634729748
  0
ARC
  5
3084
  8
0
 10
-50.706627964735397
 20
48.606329655263949
 30
0.0
 40
0.4160801234606169
 50
85.772257706904156
 51
94.730845128840954
  0
ARC
  5
3085
  8
0
 10
46.562762490893107
 20
1995.1212309708101
 30
0.0
 40
1948.5277510416479
 50
267.13954131461293
 51
267.17353775797909
  0
ARC
  5
3086
  8
0
 10
-49.521218882540829
 20
48.963923581740822
 30
0.0
 40
0.0000000002623736
 50
188.95084605605399
 51
81.047071224343256
  0
LINE
  5
3087
  8
0
 10
-49.521218843360032
 20
48.963923580067558
 30
0.0
 11
-33.028003568100011
 21
48.939264653000009
 31
0.0
  0
ARC
  5
30C9
  8
0
 10
-50.867899254653501
 20
48.677424834289049
 30
0.0
 40
0.0602314908260051
 50
183.7239788550493
 51
266.91147406110321
  0
LINE
  5
30CA
  8
0
 10
-50.8711444578
 20
48.6172808309
 30
0.0
 11
-49.639919569748812
 21
48.552754992499878
 31
0.0
  0
LINE
  5
30CB
  8
0
 10
-49.796143826805299
 20
48.560942435094702
 30
0.0
 11
-49.590946860500011
 21
48.766139401399997
 31
0.0
  0
ARC
  5
30CD
  8
0
 10
-48.236896617756713
 20
35.067372321130001
 30
0.0
 40
13.78291666421247
 50
91.60230443052798
 51
95.276183639615184
  0
LINE
  5
30CE
  8
0
 10
-49.590946860500011
 20
48.766139401399997
 30
0.0
 11
-49.50432791219999
 21
48.791890880499999
 31
0.0
  0
LINE
  5
30CF
  8
0
 10
-48.622286446099999
 20
48.844899936300003
 30
0.0
 11
-47.219888368699991
 21
48.872055427700012
 31
0.0
  0
LINE
  5
30D0
  8
0
 10
-47.219888368699991
 20
48.872055427700012
 30
0.0
 11
-43.040078222293758
 21
48.88351553400706
 31
0.0
  0
LINE
  5
30D1
  8
0
 10
-43.040078222293758
 20
48.88351553400706
 30
0.0
 11
-33.028003568100011
 21
48.884102218300001
 31
0.0
  0
ARC
  5
30D2
  8
0
 10
-49.65300371176253
 20
48.303097579519118
 30
0.0
 40
0.2500001133625584
 50
0.0000242929325456
 51
86.999968405335764
  0
LINE
  5
30D3
  8
0
 10
-49.403003568099997
 20
48.303097685499999
 30
0.0
 11
-49.403003568099997
 21
-23.685003976400001
 31
0.0
  0
ARC
  5
30D4
  8
0
 10
-49.528003568099997
 20
-23.685003976400001
 30
0.0
 40
0.125
 50
269.99999999959942
 51
0.0
  0
LINE
  5
30D5
  8
0
 10
-49.528003568100878
 20
-23.810003976400001
 30
0.0
 11
-50.819702026034363
 21
-23.81000397639097
 31
0.0
  0
LINE
  5
30D6
  8
0
 10
-49.528003568099997
 20
-23.810003976400001
 30
0.0
 11
-49.526631278755062
 21
-23.832503535800001
 31
0.0
  0
ARC
  5
3118
  8
0
 10
-390.43610803497012
 20
2.7084091310869751
 30
0.0
 40
342.07458378352692
 50
355.55005770920297
 51
356.04884002556582
  0
ARC
  5
3119
  8
0
 10
-440.7148136643018
 20
6.1811731763630213
 30
0.0
 40
392.47307909712902
 50
356.04884002556582
 51
357.11666585103211
  0
ARC
  5
311A
  8
0
 10
-171.5551518704408
 20
-7.3753757814487972
 30
0.0
 40
122.97223762046259
 50
357.11666585103211
 51
359.20988902236178
  0
ARC
  5
311B
  8
0
 10
686.22773825258889
 20
-19.204984314926278
 30
0.0
 40
734.89221917086115
 50
178.5839420047941
 51
179.20988902236181
  0
ARC
  5
311C
  8
0
 10
-140.30065911643661
 20
1.226721462014535
 30
0.0
 40
91.888674572073185
 50
358.5839420047941
 51
1.111865070532746
  0
LINE
  5
311D
  8
0
 10
-48.429285786000001
 20
3.0097741790999999
 30
0.0
 11
-48.429285786000001
 21
14.009849491200001
 31
0.0
  0
LINE
  5
311E
  8
0
 10
-48.429285786000001
 20
14.009849491200001
 30
0.0
 11
-48.4294162634
 21
36.429996016600001
 31
0.0
  0
ARC
  5
311F
  8
0
 10
-110.79590919746769
 20
36.429633065455342
 30
0.0
 40
62.366492935123837
 50
0.0003334413685946
 51
5.4112461109678067
  0
ARC
  5
3120
  8
0
 10
-121.9987171003807
 20
35.368437335954368
 30
0.0
 40
73.619449936991472
 50
5.4112461109677943
 51
9.5662114232004392
  0
ARC
  5
3162
  8
0
 10
-48.560294926540941
 20
-16.749037458640569
 30
0.0
 40
5.9255330199625131
 50
77.604978585782675
 51
90.686375901133715
  0
ARC
  5
3163
  8
0
 10
-74.828858687019036
 20
-166.6059045616891
 30
0.0
 40
158.06207804127209
 50
79.326194369637292
 51
79.965659773948076
  0
ARC
  5
3164
  8
0
 10
-45.605543182593379
 20
-11.959710520846651
 30
0.0
 40
0.683049625548355
 50
325.8727686293031
 51
85.589608387951742
  0
ARC
  5
3165
  8
0
 10
-30.724041407038971
 20
-22.045563018293009
 30
0.0
 40
17.294255948315438
 50
145.8727686293031
 51
159.80260347007231
  0
ARC
  5
3166
  8
0
 10
-43.106086740111131
 20
-18.11153032051978
 30
0.0
 40
4.3545345767538661
 50
152.11058993081861
 51
184.81406075558479
  0
ARC
  5
3167
  8
0
 10
-49.799897513840513
 20
-18.652129863205118
 30
0.0
 40
2.3611434945487582
 50
347.95124609758182
 51
4.2542784608646462
  0
ARC
  5
3168
  8
0
 10
-50.018840973668901
 20
-17.828646381635949
 30
0.0
 40
2.8502534610731618
 50
308.70139037745571
 51
332.49416903645641
  0
ARC
  5
3169
  8
0
 10
-48.582948143526082
 20
-19.768308156470031
 30
0.0
 40
0.4482878302946756
 50
236.0717466199801
 51
320.57063794760433
  0
ARC
  5
316A
  8
0
 10
-48.177717546382333
 20
-19.390256021759431
 30
0.0
 40
0.9960557987604488
 50
202.13611054187751
 51
228.84944987995499
  0
ARC
  5
316B
  8
0
 10
-45.682356026370378
 20
-11.395873627358119
 30
0.0
 40
0.1745341368101363
 50
265.79929512738408
 51
42.17870060724907
  0
ARC
  5
316C
  8
0
 10
-46.418014506420128
 20
-6.9133952031712944
 30
0.0
 40
4.712318496576696
 50
263.03259449399349
 51
278.82406392024387
  0
ARC
  5
316D
  8
0
 10
-45.786396148927537
 20
1.5960587392965551
 30
0.0
 40
13.241754685890371
 50
257.52578445875019
 51
264.78648642777171
  0
LINE
  5
316E
  8
0
 10
-48.440047066518318
 20
-1.0440643990409839
 30
0.0
 11
-46.871444662999998
 21
-1.0226498996499991
 31
0.0
  0
LINE
  5
316F
  8
0
 10
-46.871444662999998
 20
-1.0226498996499991
 30
0.0
 11
-43.477717924649987
 21
-1.0458059400999999
 31
0.0
  0
ARC
  5
3170
  8
0
 10
-43.474744308480091
 20
-0.6099956500306697
 30
0.0
 40
0.4358204347244861
 50
269.60906610884388
 51
344.0657921085039
  0
ARC
  5
3171
  8
0
 10
-60.212977872357349
 20
2.6018806705369801
 30
0.0
 40
17.477765641683948
 50
349.01132535942747
 51
357.80719151885398
  0
ARC
  5
3172
  8
0
 10
-42.703916791524662
 20
1.9125962160510159
 30
0.0
 40
0.0486447177017302
 50
134.15623656568451
 51
155.01910307824019
  0
LINE
  5
3173
  8
0
 10
-42.737803544367608
 20
1.9474960232430629
 30
0.0
 11
-42.567110273080772
 21
1.9474960236000001
 31
0.0
  0
ARC
  5
3174
  8
0
 10
-42.56711027320506
 20
2.0069317445017392
 30
0.0
 40
0.0594357209017391
 50
270.0000001198116
 51
350.06412074586541
  0
ARC
  5
3175
  8
0
 10
-45.082130113487743
 20
2.4474960569645381
 30
0.0
 40
2.61275154751453
 50
350.06412074586541
 51
9.935876444783851
  0
ARC
  5
3176
  8
0
 10
-42.567110318971402
 20
2.888060234308707
 30
0.0
 40
0.0594357892958177
 50
9.9358764447824264
 51
90.000706924803254
  0
LINE
  5
3177
  8
0
 10
-42.567111052299992
 20
2.9474960235999998
 30
0.0
 11
-48.428096844630602
 21
2.9474237097879961
 31
0.0
  0
ARC
  5
317B
  8
0
 10
-49.144956896854282
 20
-1.347546604466064
 30
0.0
 40
1.3321435759486431
 50
32.143992513837297
 51
57.208776231786331
  0
ARC
  5
317C
  8
0
 10
-50.151353805988457
 20
-1.9799355109636561
 30
0.0
 40
2.5207353762636431
 50
29.967818803012829
 51
32.143992513837233
  0
ARC
  5
317D
  8
0
 10
-48.073189016954231
 20
-0.7816623240240657
 30
0.0
 40
0.1218549038515518
 50
300.2121852178372
 51
29.96781880301382
  0
ARC
  5
317E
  8
0
 10
-48.148255156960531
 20
-0.6527488524095995
 30
0.0
 40
0.2710313381135989
 50
268.10006813429982
 51
300.21218521783709
  0
ARC
  5
317F
  8
0
 10
-48.320295079074128
 20
-5.8390128508372721
 30
0.0
 40
4.9180853493571917
 50
88.100068134299903
 51
91.361118999218206
  0
LINE
  5
3180
  8
0
 10
-48.429285786000001
 20
12.947496023599999
 30
0.0
 11
-44.653307506824987
 21
12.947496023599999
 31
0.0
  0
ARC
  5
3181
  8
0
 10
-44.738211302856783
 20
12.90478574463812
 30
0.0
 40
0.0833029155905537
 50
149.15545639290451
 51
261.05469562315409
  0
LINE
  5
3182
  8
0
 10
-44.751164200499993
 20
12.822496023599999
 30
0.0
 11
-44.652181502301438
 21
12.822496023599999
 31
0.0
  0
ARC
  5
3183
  8
0
 10
-44.680680465072257
 20
13.077002408194939
 30
0.0
 40
0.2560970337169166
 50
276.38894414557581
 51
328.42568736043262
  0
ARC
  5
3184
  8
0
 10
-36.797672745936552
 20
8.2322141431099052
 30
0.0
 40
8.996674660940787
 50
142.08929822928101
 51
148.42568736043259
  0
ARC
  5
3185
  8
0
 10
-43.812638541569008
 20
13.69532064602094
 30
0.0
 40
0.1053711695486456
 50
81.253104868650723
 51
142.089298229279
  0
ARC
  5
3186
  8
0
 10
-43.78777735181923
 20
13.655538816217611
 30
0.0
 40
0.144198568100353
 50
324.02747618910951
 51
93.513655224275624
  0
ARC
  5
3187
  8
0
 10
-67.945108299241554
 20
28.999209909625101
 30
0.0
 40
28.76218448530755
 50
326.06559311967573
 51
327.56029828214918
  0
ARC
  5
3188
  8
0
 10
-44.286132788722888
 20
13.05321124121366
 30
0.0
 40
0.2322214893268792
 50
276.52939761422732
 51
331.6414950154703
  0
ARC
  5
3189
  8
0
 10
-44.285886456652442
 20
13.0795809559479
 30
0.0
 40
0.2584125035715526
 50
275.81026429609938
 51
329.09688118577401
  0
ARC
  5
318A
  8
0
 10
-74.972207898349779
 20
34.190077345186843
 30
0.0
 40
37.504421424836423
 50
325.49911811634371
 51
326.64873986603629
  0
ARC
  5
318B
  8
0
 10
-43.810011150318417
 20
13.67300703536897
 30
0.0
 40
0.1945659915031304
 50
328.46942673399798
 51
92.91918484240621
  0
ARC
  5
318D
  8
0
 10
-43.82327543304929
 20
13.71000491945666
 30
0.0
 40
0.1573514283308712
 50
88.777817148117876
 51
140.4969745397876
  0
ARC
  5
318E
  8
0
 10
-40.955108778286018
 20
11.345416407088271
 30
0.0
 40
3.874562586217976
 50
140.49697453978769
 51
145.02314141142961
  0
ARC
  5
318F
  8
0
 10
52.725626846559088
 20
-62.289526395788393
 30
0.0
 40
123.0248806608205
 50
141.93239291229341
 51
142.22551094568999
  0
ARC
  5
3190
  8
0
 10
-44.539130792380007
 20
13.08943968351643
 30
0.0
 40
0.0297098227862326
 50
155.51059319175641
 51
319.134762446553
  0
ARC
  5
3191
  8
0
 10
-47.800786942320997
 20
13.444517361348259
 30
0.0
 40
3.2527290936082638
 50
353.95112341234778
 51
4.0847601095140433
  0
ARC
  5
3192
  8
0
 10
-46.979076889669372
 20
13.545215811514749
 30
0.0
 40
2.426295408241629
 50
3.0950151610707328
 51
8.4541167157879133
  0
ARC
  5
3193
  8
0
 10
-44.683749435774303
 20
13.899408007074641
 30
0.0
 40
0.1046338575382413
 50
1.3774779409819631
 51
80.13902038934107
  0
LINE
  5
3194
  8
0
 10
-44.665830033100001
 20
14.002496023599999
 30
0.0
 11
-44.709091056899993
 21
14.002496023599999
 31
0.0
  0
ARC
  5
3195
  8
0
 10
-44.702782983087381
 20
13.91361815070943
 30
0.0
 40
0.0891014482683419
 50
94.05973876749978
 51
157.33424144211301
  0
LINE
  5
3196
  8
0
 10
-44.683650925748069
 20
13.94795380729999
 30
0.0
 11
-48.429285785999987
 21
13.94795380729999
 31
0.0
  0
ARC
  5
3197
  8
0
 10
-44.668704908111323
 20
13.04153016577725
 30
0.0
 40
0.0964643629950196
 50
257.11177670731553
 51
277.85810448569521
  0
ARC
  5
3198
  8
0
 10
-44.69011916946679
 20
12.99847197869564
 30
0.0
 40
0.0628780287888159
 50
303.38881068192183
 51
355.33219535614711
  0
ARC
  5
3199
  8
0
 10
-49.315082511940382
 20
13.582211265000019
 30
0.0
 40
4.7244738441593821
 50
352.8400604745753
 51
356.11595095660579
  0
ARC
  5
319A
  8
0
 10
-46.993018884494226
 20
13.424558295198549
 30
0.0
 40
2.3970645658424758
 50
356.11595095660579
 51
0.4388840836294539
  0
ARC
  5
319B
  8
0
 10
-48.660023487320458
 20
13.41178883637599
 30
0.0
 40
4.0641180757582394
 50
0.4388840836294158
 51
6.8182386406649691
  0
ARC
  5
319C
  8
0
 10
-44.677791207422267
 20
13.88792700141004
 30
0.0
 40
0.0535219251510514
 50
6.8182386406632576
 51
60.665653734773578
  0
ARC
  5
31A6
  8
0
 10
-44.724394957189013
 20
13.80499662058266
 30
0.0
 40
0.1486500364352314
 50
60.665653734771681
 51
105.90800906428321
  0
LINE
  5
31A7
  8
0
 10
-44.665830033100413
 20
14.00249602360006
 30
0.0
 11
-44.2514654593
 21
14.002496023599999
 31
0.0
  0
ARC
  5
31A8
  8
0
 10
-44.265868067194361
 20
13.896623585613
 30
0.0
 40
0.1068475935127704
 50
2.4423964227793249
 51
82.253187270539968
  0
ARC
  5
31A9
  8
0
 10
-47.138430041231153
 20
13.47212735150201
 30
0.0
 40
3.0100475915823628
 50
1.796512933548043
 51
8.1948010128460655
  0
LINE
  5
31AA
  8
0
 10
-44.172326865226978
 20
13.948261282830909
 30
0.0
 11
-42.523823340699998
 21
13.947496023599999
 31
0.0
  0
ARC
  5
31AB
  8
0
 10
-43.927928929221807
 20
13.461845470703039
 30
0.0
 40
1.4857216977776471
 50
339.74523893254258
 51
19.079425227414848
  0
LINE
  5
31AC
  8
0
 10
-44.652181502301438
 20
12.822496023599999
 30
0.0
 11
-44.259726189799999
 21
12.822496023599999
 31
0.0
  0
LINE
  5
31AD
  8
0
 10
-44.063724189058902
 20
12.947496023599999
 30
0.0
 11
-42.534080440499999
 21
12.947496023599999
 31
0.0
  0
ARC
  5
31AE
  8
0
 10
-42.632300105828762
 20
13.00578900475614
 30
0.0
 40
0.1142154731608902
 50
250.77734006686089
 51
329.31103735832261
  0
ARC
  5
31AF
  8
0
 10
-26.622392781001452
 20
127.4304635110249
 30
0.0
 40
115.6512915357462
 50
261.94549356702288
 51
262.02403170398372
  0
ARC
  5
31B0
  8
0
 10
-42.842608690411787
 20
12.77862445333562
 30
0.0
 40
0.1422931846093903
 50
83.655597968009189
 51
178.00484411040381
  0
LINE
  5
31B1
  8
0
 10
-42.984815613199999
 20
12.783578390900001
 30
0.0
 11
-42.808971068600002
 21
8.0286872005499994
 31
0.0
  0
LINE
  5
31B2
  8
0
 10
-42.808971068600002
 20
8.0286872005499994
 30
0.0
 11
-42.724183290699997
 21
3.0547365742000001
 31
0.0
  0
ARC
  5
31B3
  8
0
 10
-42.598407014475782
 20
3.0542149018245701
 30
0.0
 40
0.1257773576613663
 50
179.76236099431921
 51
238.04613115198731
  0
LINE
  5
31B4
  8
0
 10
-42.935190257796791
 20
-0.0344704008807817
 30
0.0
 11
-42.783425805100002
 21
-9.1798961898000009
 31
0.0
  0
LINE
  5
31B5
  8
0
 10
-42.783425805100002
 20
-9.1798961898000009
 30
0.0
 11
-42.742988879400002
 21
-13.384086442299999
 31
0.0
  0
LINE
  5
31B6
  8
0
 10
-42.742988879400002
 20
-13.384086442299999
 30
0.0
 11
-42.696802891899999
 21
-23.832503535800001
 31
0.0
  0
ARC
  5
31B7
  8
0
 10
-42.600660511133022
 20
14.053721591317339
 30
0.0
 40
0.1235269620702491
 50
179.5289797614937
 51
239.2506505135236
  0
LINE
  5
31B8
  8
0
 10
-42.724183299099977
 20
14.054737077
 30
0.0
 11
-42.98239847939999
 21
23.783264152000001
 31
0.0
  0
ARC
  5
31B9
  8
0
 10
-42.847628903176812
 20
23.78683869292065
 30
0.0
 40
0.1348169722926987
 50
81.148741185416625
 51
181.5193199253294
  0
ARC
  5
31BA
  8
0
 10
-42.147548839850629
 20
28.282474221046002
 30
0.0
 40
4.4150018039674848
 50
261.14874118541661
 51
263.63717830878443
  0
ARC
  5
31BB
  8
0
 10
-42.623999440020363
 20
24.009795109982569
 30
0.0
 40
0.1158400297933799
 50
263.63717830878443
 51
327.46581270046619
  0
ARC
  5
31BC
  8
0
 10
-44.488033396228261
 20
24.38217161491956
 30
0.0
 40
2.0092763087549188
 50
347.50617441173262
 51
15.07524348222973
  0
ARC
  5
31BD
  8
0
 10
-42.698782497642952
 20
24.673180102610569
 30
0.0
 40
0.2763917877149654
 50
56.915274136777789
 51
82.973371560827175
  0
ARC
  5
31BE
  8
0
 10
-42.57743701523642
 20
25.06579429942056
 30
0.0
 40
0.1471622790662853
 50
184.3091596153626
 51
233.50056825824009
  0
LINE
  5
31BF
  8
0
 10
-42.664971318900001
 20
24.94749602360001
 30
0.0
 11
-48.429349439271839
 21
24.94749602360001
 31
0.0
  0
LINE
  5
31C0
  8
0
 10
-42.526338105100002
 20
23.94749602360001
 30
0.0
 11
-48.429343619622102
 21
23.94749602360001
 31
0.0
  0
LINE
  5
31C1
  8
0
 10
-42.724365460199991
 20
25.054741794600002
 30
0.0
 11
-42.852895834499989
 21
31.650278334199999
 31
0.0
  0
LINE
  5
31C2
  8
0
 10
-42.852895834499989
 20
31.650278334199999
 30
0.0
 11
-42.98239847939999
 21
34.783264152000001
 31
0.0
  0
ARC
  5
31C3
  8
0
 10
-42.849326335187008
 20
34.788764717798983
 30
0.0
 40
0.1331857792316858
 50
80.299432121579216
 51
182.3669859472443
  0
ARC
  5
31C4
  8
0
 10
-42.363062558410419
 20
37.633355220798677
 30
0.0
 40
2.7526672299080852
 50
260.299432121579
 51
263.98726708342298
  0
ARC
  5
31C5
  8
0
 10
-42.637884234963579
 20
35.024179518585271
 30
0.0
 40
0.1290581128854384
 50
263.9872670834236
 51
323.54594227722242
  0
ARC
  5
31C6
  8
0
 10
-44.523640163710823
 20
35.417698906532351
 30
0.0
 40
2.0443694647309352
 50
346.70298855493849
 51
13.38593557826456
  0
ARC
  5
31C7
  8
0
 10
-42.729238242504913
 20
35.62195405786197
 30
0.0
 40
0.3319366370134403
 50
54.144916814382782
 51
78.735320570980306
  0
ARC
  5
31C8
  8
0
 10
-42.575395579441476
 20
36.065897399616993
 30
0.0
 40
0.1481221659016346
 50
184.3795225146981
 51
233.06802691776721
  0
LINE
  5
31C9
  8
0
 10
-42.534078463937128
 20
34.94749602360001
 30
0.0
 11
-48.42940763576928
 21
34.94749602360001
 31
0.0
  0
LINE
  5
31CA
  8
0
 10
-42.664397209699999
 20
35.947496023600003
 30
0.0
 11
-48.429413455419031
 21
35.947496023599989
 31
0.0
  0
LINE
  5
31CB
  8
0
 10
-42.722946050626639
 20
36.054570757705918
 30
0.0
 11
-42.742913053449989
 21
38.824905001200001
 31
0.0
  0
LINE
  5
31CC
  8
0
 10
-42.742913053449989
 20
38.824905001200001
 30
0.0
 11
-42.812695236099991
 21
43.117158150050003
 31
0.0
  0
LINE
  5
31CD
  8
0
 10
-42.812695236099991
 20
43.117158150050003
 30
0.0
 11
-42.89958136984999
 21
46.790499891400003
 31
0.0
  0
LINE
  5
31CE
  8
0
 10
-42.89958136984999
 20
46.790499891400003
 30
0.0
 11
-43.035907158366008
 21
48.634690100573877
 31
0.0
  0
LINE
  5
31CF
  8
0
 10
-43.035907158366008
 20
48.634690100573877
 30
0.0
 11
-43.040078274458807
 21
48.883515534004012
 31
0.0
  0
LINE
  5
3211
  8
0
 10
-33.028003568100011
 20
42.059703239513091
 30
0.0
 11
-36.249881870400003
 21
42.019525551299999
 31
0.0
  0
ARC
  5
3212
  8
0
 10
-36.21307983662345
 20
40.058635371260173
 30
0.0
 40
1.961235500358572
 50
91.075202328854232
 51
178.97726526366921
  0
ARC
  5
3213
  8
0
 10
-401.99597565891088
 20
46.588585993407449
 30
0.0
 40
363.87994196776918
 50
357.70019057426128
 51
358.97726526366921
  0
ARC
  5
3214
  8
0
 10
169.51706302178411
 20
23.63615517454134
 30
0.0
 40
208.09380521171161
 50
177.7001905742612
 51
181.1205551279794
  0
ARC
  5
3215
  8
0
 10
512.35537162076105
 20
20.107539641212242
 30
0.0
 40
550.89258361658301
 50
180.05625587314231
 51
182.76419318158369
  0
ARC
  5
3216
  8
0
 10
56.739900547287696
 20
-3.651003941550977
 30
0.0
 40
94.677799213905047
 50
181.699893926747
 51
184.27891417925429
  0
ARC
  5
3217
  8
0
 10
-35.63780592263852
 20
-10.562730757624861
 30
0.0
 40
2.0418849029646862
 50
184.27891417925451
 51
267.13182571871567
  0
LINE
  5
3218
  8
0
 10
-35.739978127100002
 20
-12.602057802899999
 30
0.0
 11
-33.028003568100011
 21
-12.629711373728449
 31
0.0
  0
ARC
  5
3219
  8
0
 10
-33.379156996294803
 20
13.08060892976083
 30
0.0
 40
32.552309076754838
 50
89.381917897737523
 51
98.90266984222238
  0
ARC
  5
321A
  8
0
 10
-38.102165414496319
 20
43.180464071542367
 30
0.0
 40
2.0841765816058051
 50
98.683765036761173
 51
164.56046431050811
  0
ARC
  5
321B
  8
0
 10
-35.816099603286432
 20
42.549079183642561
 30
0.0
 40
4.4558308080585132
 50
164.56046431050811
 51
183.75165512125531
  0
ARC
  5
321C
  8
0
 10
254.35012860504989
 20
24.48323346490508
 30
0.0
 40
295.14819446047022
 50
176.54746836349349
 51
177.68019544674479
  0
ARC
  5
321D
  8
0
 10
445.17837618689771
 20
19.208448793155451
 30
0.0
 40
486.03975343618441
 50
177.9694489046947
 51
182.09624333820051
  0
ARC
  5
321E
  8
0
 10
393.41318114588933
 20
19.818776763950378
 30
0.0
 40
434.3387391216873
 50
182.42648062754029
 51
183.52788143989531
  0
ARC
  5
321F
  8
0
 10
231.9470759089491
 20
9.8981378503853836
 30
0.0
 40
272.56815962624739
 50
183.53499826861039
 51
184.88603787820989
  0
ARC
  5
3220
  8
0
 10
-36.545254261255877
 20
-12.743451799911639
 30
0.0
 40
3.1383088032430368
 50
190.54185140980101
 51
259.86595902745472
  0
ARC
  5
3221
  8
0
 10
-32.903814291230233
 20
11.157500903115659
 30
0.0
 40
27.3141509111476
 50
261.16826029483872
 51
269.73949232525229
  0
LINE
  5
3263
  8
0
 10
-51.028003568099997
 20
49.870246023599989
 30
0.0
 11
-51.028003568099997
 21
-23.791751818099989
 31
0.0
  0
LINE
  5
3264
  8
0
 10
-15.1736895262905
 20
-26.941903976399999
 30
0.0
 11
-15.063697657047189
 21
-23.792148949787801
 31
0.0
  0
LINE
  5
3265
  8
0
 10
-15.028003568100001
 20
-23.7917518181
 30
0.0
 11
-15.2357484453096
 21
-23.794063183263031
 31
0.0
  0
LINE
  5
3266
  8
0
 10
-15.2357484453096
 20
-23.794063183263031
 30
0.0
 11
-15.237090812202791
 21
-23.832503535800001
 31
0.0
  0
ARC
  5
3267
  8
0
 10
-15.126609620579741
 20
-23.892616543591789
 30
0.0
 40
0.0997618700429872
 50
90.801279231674812
 51
132.61022731192341
  0
ARC
  5
3268
  8
0
 10
-15.21885941383983
 20
-23.802912069027879
 30
0.0
 40
0.029592307209611
 50
269.56818079542552
 51
326.61829162293202
  0
LINE
  5
3269
  8
0
 10
-15.219082439090499
 20
-23.832503535800001
 30
0.0
 11
-33.028003568090497
 21
-23.832503535800001
 31
0.0
  0
LINE
  5
326A
  8
0
 10
-15.1736895262905
 20
-26.941903976399999
 30
0.0
 11
-33.028003568090497
 21
-26.941903976399999
 31
0.0
  0
ARC
  5
326B
  8
0
 10
-14.847013837159659
 20
-23.593504126511728
 30
0.0
 40
0.2809963493058954
 50
180.39324556304479
 51
224.9288173237772
  0
LINE
  5
326C
  8
0
 10
-15.12800356809049
 20
-23.59543271010001
 30
0.0
 11
-15.128003568090501
 21
49.808812620099999
 31
0.0
  0
ARC
  5
326D
  8
0
 10
-15.05620468721663
 20
49.804045562796112
 30
0.0
 40
0.0719569602615182
 50
66.926198478242043
 51
176.20144527672741
  0
LINE
  5
326E
  8
0
 10
-15.05483995339239
 20
49.875989580140988
 30
0.0
 11
-15.157887773190501
 21
50.185384441700002
 31
0.0
  0
ARC
  5
326F
  8
0
 10
-15.53884407213153
 20
45.198077033252822
 30
0.0
 40
5.0018359517336188
 50
85.631934694881153
 51
88.214811634758505
  0
LINE
  5
3270
  8
0
 10
-15.38302500889051
 20
50.197485328999988
 30
0.0
 11
-33.028003568100011
 21
50.197485328999988
 31
0.0
  0
CIRCLE
  5
3271
  8
0
 10
-16.153003568090501
 20
49.707485329000001
 30
0.0
 40
0.0940069465796256
  0
CIRCLE
  5
3272
  8
0
 10
-16.90300356809049
 20
49.707485329000001
 30
0.0
 40
0.0940069465796256
  0
CIRCLE
  5
3273
  8
0
 10
-17.65300356809049
 20
49.707485329000001
 30
0.0
 40
0.0940069465796256
  0
CIRCLE
  5
3274
  8
0
 10
-18.403003568090501
 20
49.707485329000001
 30
0.0
 40
0.0940069465796256
  0
CIRCLE
  5
3275
  8
0
 10
-19.153003568090501
 20
49.707485329000001
 30
0.0
 40
0.0940069465796256
  0
CIRCLE
  5
3276
  8
0
 10
-19.903003568090501
 20
49.707485329000001
 30
0.0
 40
0.0940069465796256
  0
CIRCLE
  5
3277
  8
0
 10
-20.653003568090501
 20
49.707485329000001
 30
0.0
 40
0.0940069465796256
  0
CIRCLE
  5
3278
  8
0
 10
-21.403003568090501
 20
49.707485329000001
 30
0.0
 40
0.0940069465796256
  0
CIRCLE
  5
3279
  8
0
 10
-22.153003568090501
 20
49.707485329000001
 30
0.0
 40
0.0940069465796256
  0
CIRCLE
  5
327A
  8
0
 10
-22.903003568090501
 20
49.707485329000001
 30
0.0
 40
0.0940069465796256
  0
CIRCLE
  5
327B
  8
0
 10
-23.653003568090512
 20
49.707485329000001
 30
0.0
 40
0.0940069465796256
  0
CIRCLE
  5
327C
  8
0
 10
-24.403003568090501
 20
49.707485329000001
 30
0.0
 40
0.0940069465796256
  0
CIRCLE
  5
327D
  8
0
 10
-25.153003568090512
 20
49.707485329000001
 30
0.0
 40
0.0940069465796256
  0
CIRCLE
  5
327E
  8
0
 10
-25.903003568090512
 20
49.707485329000001
 30
0.0
 40
0.0940069465796256
  0
CIRCLE
  5
327F
  8
0
 10
-26.654281667603659
 20
49.707485329000001
 30
0.0
 40
0.0940069465796256
  0
CIRCLE
  5
3280
  8
0
 10
-27.401613540820371
 20
49.707485329000001
 30
0.0
 40
0.0940069465796256
  0
CIRCLE
  5
3281
  8
0
 10
-28.153003568090501
 20
49.707485329000001
 30
0.0
 40
0.0940069465796256
  0
CIRCLE
  5
3282
  8
0
 10
-28.903003568090512
 20
49.707485329000001
 30
0.0
 40
0.0940069465796256
  0
CIRCLE
  5
3283
  8
0
 10
-29.654024082707402
 20
49.707485329000001
 30
0.0
 40
0.0940069465796256
  0
CIRCLE
  5
3284
  8
0
 10
-30.4022953212583
 20
49.707485329000001
 30
0.0
 40
0.0940069465796256
  0
CIRCLE
  5
3285
  8
0
 10
-31.14927099067409
 20
49.707485329000001
 30
0.0
 40
0.0940069465796256
  0
CIRCLE
  5
3286
  8
0
 10
-31.902873425048771
 20
49.707485329000001
 30
0.0
 40
0.0940069465796256
  0
CIRCLE
  5
3287
  8
0
 10
-32.652650278046472
 20
49.707485329000001
 30
0.0
 40
0.0940069465796256
  0
ARC
  5
3288
  8
0
 10
-15.184552634144691
 20
50.116498544651861
 30
0.0
 40
0.0740752419348306
 50
103.4473460895078
 51
172.8017054734475
  0
LINE
  5
3289
  8
0
 10
-15.2580440469905
 20
50.125780446699999
 30
0.0
 11
-15.258044055914009
 21
49.08082809616937
 31
0.0
  0
ARC
  5
328A
  8
0
 10
-15.31794948870472
 20
49.080828096680939
 30
0.0
 40
0.0599054327907141
 50
272.7618636527028
 51
359.99999951071283
  0
ARC
  5
328B
  8
0
 10
-15.3493791714551
 20
48.606329655263949
 30
0.0
 40
0.4160801234606169
 50
85.269154871159216
 51
94.227742293095602
  0
ARC
  5
328C
  8
0
 10
-112.61876962708359
 20
1995.1212309708101
 30
0.0
 40
1948.5277510416479
 50
272.82646224202063
 51
272.86045868538719
  0
ARC
  5
328D
  8
0
 10
-16.534788253649669
 20
48.963923581740822
 30
0.0
 40
0.0000000002623736
 50
98.952928775656574
 51
351.0491539439459
  0
LINE
  5
328E
  8
0
 10
-16.53478829283047
 20
48.963923580067558
 30
0.0
 11
-33.028003568090497
 21
48.939264653000009
 31
0.0
  0
ARC
  5
328F
  8
0
 10
-15.188107881537
 20
48.677424834289049
 30
0.0
 40
0.0602314908260051
 50
273.08852593889679
 51
356.27602114495068
  0
LINE
  5
3290
  8
0
 10
-15.1848626783905
 20
48.6172808309
 30
0.0
 11
-16.416087566441689
 21
48.552754992499878
 31
0.0
  0
LINE
  5
3291
  8
0
 10
-16.259863309385199
 20
48.560942435094702
 30
0.0
 11
-16.46506027569049
 21
48.766139401399997
 31
0.0
  0
ARC
  5
3292
  8
0
 10
-17.819110518433789
 20
35.067372321130001
 30
0.0
 40
13.78291666421247
 50
84.723816360385044
 51
88.397695569472077
  0
LINE
  5
3293
  8
0
 10
-16.46506027569049
 20
48.766139401399997
 30
0.0
 11
-16.551679223990501
 21
48.791890880499999
 31
0.0
  0
LINE
  5
3294
  8
0
 10
-17.4337206900905
 20
48.844899936300003
 30
0.0
 11
-18.8361187674905
 21
48.872055427700012
 31
0.0
  0
LINE
  5
3295
  8
0
 10
-18.8361187674905
 20
48.872055427700012
 30
0.0
 11
-23.01592891389674
 21
48.88351553400706
 31
0.0
  0
LINE
  5
3296
  8
0
 10
-23.01592891389674
 20
48.88351553400706
 30
0.0
 11
-33.028003568090497
 21
48.884102218300001
 31
0.0
  0
ARC
  5
3297
  8
0
 10
-16.403003424427968
 20
48.303097579519118
 30
0.0
 40
0.2500001133625584
 50
93.000031594664335
 51
179.99997570706739
  0
LINE
  5
3298
  8
0
 10
-16.653003568090501
 20
48.303097685499999
 30
0.0
 11
-16.653003568090501
 21
-23.685003976400001
 31
0.0
  0
ARC
  5
3299
  8
0
 10
-16.528003568090501
 20
-23.685003976400001
 30
0.0
 40
0.125
 50
180.0
 51
270.00000000040058
  0
LINE
  5
329A
  8
0
 10
-16.52800356808962
 20
-23.810003976400001
 30
0.0
 11
-15.23630511015614
 21
-23.81000397639097
 31
0.0
  0
LINE
  5
329B
  8
0
 10
-16.528003568090501
 20
-23.810003976400001
 30
0.0
 11
-16.529375857435429
 21
-23.832503535800001
 31
0.0
  0
ARC
  5
329C
  8
0
 10
324.38010089877957
 20
2.7084091310869751
 30
0.0
 40
342.07458378352692
 50
183.95115997443429
 51
184.449942290797
  0
ARC
  5
329D
  8
0
 10
374.65880652811143
 20
6.1811731763630213
 30
0.0
 40
392.47307909712902
 50
182.883334148968
 51
183.9511599744342
  0
ARC
  5
329E
  8
0
 10
105.49914473425029
 20
-7.3753757814487972
 30
0.0
 40
122.97223762046259
 50
180.79011097763819
 51
182.883334148968
  0
ARC
  5
329F
  8
0
 10
-752.28374538877938
 20
-19.204984314926278
 30
0.0
 40
734.89221917086115
 50
0.7901109776381995
 51
1.4160579952059189
  0
LINE
  5
32A1
  8
0
 10
-17.6267213501905
 20
3.0097741790999999
 30
0.0
 11
-17.6267213501905
 21
14.009849491200001
 31
0.0
  0
LINE
  5
32A2
  8
0
 10
-17.6267213501905
 20
14.009849491200001
 30
0.0
 11
-17.626590872790501
 21
36.429996016600001
 31
0.0
  0
ARC
  5
32A3
  8
0
 10
44.73990206127722
 20
36.429633065455342
 30
0.0
 40
62.366492935123837
 50
174.5887538890322
 51
179.99966655863139
  0
ARC
  5
32A4
  8
0
 10
55.942709964190257
 20
35.368437335954368
 30
0.0
 40
73.619449936991472
 50
170.4337885767996
 51
174.5887538890322
  0
ARC
  5
32A5
  8
0
 10
-17.495712209649561
 20
-16.749037458640569
 30
0.0
 40
5.9255330199625131
 50
89.313624098866498
 51
102.3950214142174
  0
ARC
  5
32A6
  8
0
 10
8.7728515508285341
 20
-166.6059045616891
 30
0.0
 40
158.06207804127209
 50
100.0343402260516
 51
100.67380563036269
  0
ARC
  5
32A7
  8
0
 10
-20.450463953597119
 20
-11.959710520846651
 30
0.0
 40
0.683049625548355
 50
94.410391612048201
 51
214.1272313706971
  0
ARC
  5
32A8
  8
0
 10
-35.331965729151541
 20
-22.045563018293009
 30
0.0
 40
17.294255948315438
 50
20.197396529927779
 51
34.127231370697082
  0
ARC
  5
32A9
  8
0
 10
-22.949920396079371
 20
-18.11153032051978
 30
0.0
 40
4.3545345767538661
 50
355.18593924441529
 51
27.889410069181341
  0
ARC
  5
32AA
  8
0
 10
-16.256109622349989
 20
-18.652129863205118
 30
0.0
 40
2.3611434945487582
 50
175.7457215391353
 51
192.0487539024183
  0
ARC
  5
32AB
  8
0
 10
-16.037166162521601
 20
-17.828646381635949
 30
0.0
 40
2.8502534610731618
 50
207.5058309635437
 51
231.29860962254409
  0
ARC
  5
32AC
  8
0
 10
-17.47305899266442
 20
-19.768308156470031
 30
0.0
 40
0.4482878302946756
 50
219.42936205239599
 51
303.92825338002001
  0
ARC
  5
32AD
  8
0
 10
-17.878289589808169
 20
-19.390256021759431
 30
0.0
 40
0.9960557987604488
 50
311.15055012004501
 51
337.8638894581224
  0
ARC
  5
32AE
  8
0
 10
-20.37365110982012
 20
-11.395873627358119
 30
0.0
 40
0.1745341368101363
 50
137.82129939275109
 51
274.20070487261643
  0
ARC
  5
32AF
  8
0
 10
-19.637992629770359
 20
-6.9133952031712944
 30
0.0
 40
4.712318496576696
 50
261.1759360797559
 51
276.9674055060068
  0
ARC
  5
32B0
  8
0
 10
-20.269610987262961
 20
1.5960587392965551
 30
0.0
 40
13.241754685890371
 50
275.21351357222801
 51
282.47421554124992
  0
LINE
  5
32C0
  8
0
 10
-17.62390126440506
 20
1.947431036148604
 30
0.0
 11
-21.40153026535765
 21
1.9474310361486049
 31
0.0
  0
ARC
  5
32C1
  8
0
 10
-21.316626469325868
 20
1.904720757186728
 30
0.0
 40
0.0833029155905537
 50
278.94530437684591
 51
30.84454360709541
  0
LINE
  5
32C2
  8
0
 10
-21.303673571682651
 20
1.822431036148604
 30
0.0
 11
-21.402656269881199
 21
1.822431036148602
 31
0.0
  0
ARC
  5
32C3
  8
0
 10
-21.374157307110391
 20
2.0769374207435489
 30
0.0
 40
0.2560970337169166
 50
211.5743126395673
 51
263.61105585442459
  0
ARC
  5
32C4
  8
0
 10
-29.257165026246099
 20
-2.767850844341488
 30
0.0
 40
8.996674660940787
 50
31.574312639567289
 51
37.910701770719093
  0
ARC
  5
32C5
  8
0
 10
-22.24219923061364
 20
2.6952556585695411
 30
0.0
 40
0.1053711695486456
 50
37.910701770720763
 51
98.746895131349618
  0
ARC
  5
32C6
  8
0
 10
-22.267060420363411
 20
2.6554738287662181
 30
0.0
 40
0.144198568100353
 50
86.486344775724291
 51
215.97252381089049
  0
ARC
  5
32C7
  8
0
 10
1.8902705270589051
 20
17.999144922173709
 30
0.0
 40
28.76218448530755
 50
212.43970171785099
 51
213.93440688032459
  0
ARC
  5
32C8
  8
0
 10
-21.768704983459759
 20
2.0531462537622658
 30
0.0
 40
0.2322214893268792
 50
208.3585049845299
 51
263.47060238577251
  0
ARC
  5
32C9
  8
0
 10
-21.768951315530199
 20
2.0795159684965081
 30
0.0
 40
0.2584125035715526
 50
210.90311881422619
 51
264.1897357039004
  0
ARC
  5
32CA
  8
0
 10
8.9173701261671319
 20
23.190012357735441
 30
0.0
 40
37.504421424836423
 50
213.35126013396351
 51
214.50088188365609
  0
ARC
  5
32CB
  8
0
 10
-22.244826621864231
 20
2.6729420479175801
 30
0.0
 40
0.1945659915031304
 50
87.080815157594131
 51
211.53057326600171
  0
ARC
  5
32CC
  8
0
 10
-22.231562339133362
 20
2.7099399320052622
 30
0.0
 40
0.1573514283308712
 50
39.503025460212122
 51
91.222182851881755
  0
ARC
  5
32CD
  8
0
 10
-25.09972899389663
 20
0.345351419636879
 30
0.0
 40
3.874562586217976
 50
34.976858588570451
 51
39.503025460212122
  0
ARC
  5
32CE
  8
0
 10
-118.7804646187417
 20
-73.289591383239781
 30
0.0
 40
123.0248806608205
 50
37.774489054309832
 51
38.067607087706477
  0
ARC
  5
32CF
  8
0
 10
-21.515706979802641
 20
2.0893746960650321
 30
0.0
 40
0.0297098227862326
 50
220.86523755344729
 51
24.489406808243739
  0
ARC
  5
32D0
  8
0
 10
-18.25405082986164
 20
2.4444523738968629
 30
0.0
 40
3.2527290936082638
 50
175.91523989048591
 51
186.0488765876523
  0
ARC
  5
32D1
  8
0
 10
-19.075760882513269
 20
2.5451508240633518
 30
0.0
 40
2.426295408241629
 50
171.54588328421201
 51
176.90498483892929
  0
ARC
  5
32D2
  8
0
 10
-21.371088336408349
 20
2.899343019623247
 30
0.0
 40
0.1046338575382413
 50
99.860979610659257
 51
178.622522059018
  0
LINE
  5
32D3
  8
0
 10
-21.389007739082651
 20
3.0024310361486028
 30
0.0
 11
-21.345746715282662
 21
3.0024310361486028
 31
0.0
  0
ARC
  5
32D4
  8
0
 10
-21.35205478909527
 20
2.913553163258034
 30
0.0
 40
0.0891014482683419
 50
22.665758557886829
 51
85.940261232500134
  0
LINE
  5
32D5
  8
0
 10
-21.371186846434568
 20
2.9478888198486
 30
0.0
 11
-17.626557069917109
 21
2.9478888198486022
 31
0.0
  0
ARC
  5
32D6
  8
0
 10
-21.386132864071321
 20
2.0414651783258542
 30
0.0
 40
0.0964643629950196
 50
262.14189551430462
 51
282.88822329268442
  0
ARC
  5
32D7
  8
0
 10
-21.36471860271585
 20
1.9984069912442499
 30
0.0
 40
0.0628780287888159
 50
184.6678046438528
 51
236.611189318078
  0
ARC
  5
32D8
  8
0
 10
-16.739755260242259
 20
2.5821462775486221
 30
0.0
 40
4.7244738441593821
 50
183.8840490433943
 51
187.1599395254247
  0
ARC
  5
32D9
  8
0
 10
-19.06181888768841
 20
2.4244933077471571
 30
0.0
 40
2.3970645658424758
 50
179.56111591637051
 51
183.8840490433943
  0
ARC
  5
32DA
  8
0
 10
-17.394814284862179
 20
2.4117238489245958
 30
0.0
 40
4.0641180757582394
 50
173.18176135933501
 51
179.56111591637051
  0
ARC
  5
32DB
  8
0
 10
-21.377046564760381
 20
2.8878620139586451
 30
0.0
 40
0.0535219251510514
 50
119.3343462652266
 51
173.18176135933669
  0
ARC
  5
32DC
  8
0
 10
-21.330442814993638
 20
2.8049316331312619
 30
0.0
 40
0.1486500364352314
 50
74.091990935716666
 51
119.3343462652284
  0
LINE
  5
32DD
  8
0
 10
-21.389007739082231
 20
3.0024310361486619
 30
0.0
 11
-21.803372312882651
 21
3.0024310361486028
 31
0.0
  0
ARC
  5
32DE
  8
0
 10
-21.78896970498829
 20
2.8965585981616062
 30
0.0
 40
0.1068475935127704
 50
97.746812729459634
 51
177.5576035772207
  0
ARC
  5
32DF
  8
0
 10
-18.916407730951491
 20
2.4720623640506179
 30
0.0
 40
3.0100475915823628
 50
171.805198987154
 51
178.20348706645191
  0
LINE
  5
32E0
  8
0
 10
-21.882510906955659
 20
2.9481962953795131
 30
0.0
 11
-23.531014431482639
 21
2.947431036148604
 31
0.0
  0
ARC
  5
32E1
  8
0
 10
-22.12690884296083
 20
2.4617804832516468
 30
0.0
 40
1.4857216977776471
 50
160.9205747725851
 51
200.25476106745751
  0
LINE
  5
32E2
  8
0
 10
-21.402656269881199
 20
1.822431036148602
 30
0.0
 11
-21.795111582382649
 21
1.822431036148604
 31
0.0
  0
LINE
  5
32E3
  8
0
 10
-21.991113583123749
 20
1.947431036148604
 30
0.0
 11
-23.520757331682649
 21
1.947431036148604
 31
0.0
  0
ARC
  5
32E4
  8
0
 10
-23.422537666353879
 20
2.0057240173047459
 30
0.0
 40
0.1142154731608902
 50
210.68896264167751
 51
289.22265993313931
  0
ARC
  5
32E5
  8
0
 10
-39.4324449911812
 20
116.4303985235735
 30
0.0
 40
115.6512915357462
 50
277.97596829601588
 51
278.05450643297729
  0
ARC
  5
32E6
  8
0
 10
-23.212229081770861
 20
1.778559465884221
 30
0.0
 40
0.1422931846093903
 50
1.9951558895961241
 51
96.344402031990981
  0
LINE
  5
32E7
  8
0
 10
-23.134938084360769
 20
11.0598515402088
 30
0.0
 11
-23.2470360675905
 21
8.0286872005499994
 31
0.0
  0
LINE
  5
32E8
  8
0
 10
-23.2470360675905
 20
8.0286872005499994
 30
0.0
 11
-23.331823845490501
 21
3.0547365742000001
 31
0.0
  0
LINE
  5
32EA
  8
0
 10
-23.07002215898266
 20
1.7835134034486031
 30
0.0
 11
-23.2725813310905
 21
-9.1798961898000009
 31
0.0
  0
LINE
  5
32EB
  8
0
 10
-23.2725813310905
 20
-9.1798961898000009
 30
0.0
 11
-23.3130182567905
 21
-13.384086442299999
 31
0.0
  0
LINE
  5
32EC
  8
0
 10
-23.3130182567905
 20
-13.384086442299999
 30
0.0
 11
-23.359204244290499
 21
-23.832503535800001
 31
0.0
  0
ARC
  5
32ED
  8
0
 10
-23.451021221670249
 20
3.050574577465468
 30
0.0
 40
0.1192700159510202
 50
300.20335720235778
 51
1.9997756215724909
  0
LINE
  5
32EE
  8
0
 10
-23.331823837090511
 20
14.054737077
 30
0.0
 11
-23.073608656790508
 21
23.783264152000001
 31
0.0
  0
ARC
  5
32EF
  8
0
 10
-23.20837823301369
 20
23.78683869292065
 30
0.0
 40
0.1348169722926987
 50
358.4806800746706
 51
98.851258814583204
  0
ARC
  5
32F0
  8
0
 10
-23.908458296339859
 20
28.282474221046002
 30
0.0
 40
4.4150018039674848
 50
276.36282169121552
 51
278.85125881458322
  0
ARC
  5
32F1
  8
0
 10
-23.432007696170128
 20
24.009795109982569
 30
0.0
 40
0.1158400297933799
 50
212.53418729953361
 51
276.36282169121552
  0
ARC
  5
32F2
  8
0
 10
-21.567973739962241
 20
24.38217161491956
 30
0.0
 40
2.0092763087549188
 50
164.92475651777019
 51
192.49382558826741
  0
ARC
  5
32F3
  8
0
 10
-23.357224638547549
 20
24.673180102610569
 30
0.0
 40
0.2763917877149654
 50
97.026628439173066
 51
123.08472586322191
  0
ARC
  5
32F4
  8
0
 10
-23.478570120954078
 20
25.06579429942056
 30
0.0
 40
0.1471622790662853
 50
306.49943174175991
 51
355.6908403846374
  0
LINE
  5
32F5
  8
0
 10
-23.391035817290501
 20
24.94749602360001
 30
0.0
 11
-17.626657696918649
 21
24.94749602360001
 31
0.0
  0
LINE
  5
32F6
  8
0
 10
-23.529669031090499
 20
23.94749602360001
 30
0.0
 11
-17.62666351656841
 21
23.94749602360001
 31
0.0
  0
LINE
  5
32F7
  8
0
 10
-23.331641675990511
 20
25.054741794600002
 30
0.0
 11
-23.203111301690502
 21
31.650278334199999
 31
0.0
  0
LINE
  5
32F8
  8
0
 10
-23.203111301690502
 20
31.650278334199999
 30
0.0
 11
-23.073608656790508
 21
34.783264152000001
 31
0.0
  0
ARC
  5
32F9
  8
0
 10
-23.20668080100349
 20
34.788764717798983
 30
0.0
 40
0.1331857792316858
 50
357.6330140527557
 51
99.700567878420685
  0
ARC
  5
32FA
  8
0
 10
-23.692944577780079
 20
37.633355220798677
 30
0.0
 40
2.7526672299080852
 50
276.01273291657731
 51
279.70056787842071
  0
ARC
  5
32FB
  8
0
 10
-23.418122901226919
 20
35.024179518585271
 30
0.0
 40
0.1290581128854384
 50
216.4540577227778
 51
276.01273291657651
  0
ARC
  5
32FC
  8
0
 10
-21.532366972479679
 20
35.417698906532351
 30
0.0
 40
2.0443694647309352
 50
166.61406442173541
 51
193.29701144506149
  0
ARC
  5
32FD
  8
0
 10
-23.326768893685589
 20
35.62195405786197
 30
0.0
 40
0.3319366370134403
 50
101.26467942901969
 51
125.8550831856171
  0
ARC
  5
32FE
  8
0
 10
-23.480611556749022
 20
36.065897399616993
 30
0.0
 40
0.1481221659016346
 50
306.9319730822325
 51
355.62047748530188
  0
LINE
  5
32FF
  8
0
 10
-23.52192867225337
 20
34.94749602360001
 30
0.0
 11
-17.626599500421221
 21
34.94749602360001
 31
0.0
  0
LINE
  5
3300
  8
0
 10
-23.391609926490499
 20
35.947496023600003
 30
0.0
 11
-17.626593680771471
 21
35.947496023599989
 31
0.0
  0
LINE
  5
3301
  8
0
 10
-23.333061085563848
 20
36.054570757705918
 30
0.0
 11
-23.313094082740509
 21
38.824905001200001
 31
0.0
  0
LINE
  5
3302
  8
0
 10
-23.313094082740509
 20
38.824905001200001
 30
0.0
 11
-23.243311900090511
 21
43.117158150050003
 31
0.0
  0
LINE
  5
3303
  8
0
 10
-23.243311900090511
 20
43.117158150050003
 30
0.0
 11
-23.156425766340512
 21
46.790499891400003
 31
0.0
  0
LINE
  5
3304
  8
0
 10
-23.156425766340512
 20
46.790499891400003
 30
0.0
 11
-23.02009997782449
 21
48.634690100573877
 31
0.0
  0
LINE
  5
3305
  8
0
 10
-23.02009997782449
 20
48.634690100573877
 30
0.0
 11
-23.015928861731691
 21
48.883515534004012
 31
0.0
  0
LINE
  5
3306
  8
0
 10
-33.028003568090497
 20
42.059703239513091
 30
0.0
 11
-29.806125265790499
 21
42.019525551299999
 31
0.0
  0
ARC
  5
3307
  8
0
 10
-29.842927299567052
 20
40.058635371260173
 30
0.0
 40
1.961235500358572
 50
1.022734736330746
 51
88.924797671145811
  0
ARC
  5
3308
  8
0
 10
335.93996852272051
 20
46.588585993407449
 30
0.0
 40
363.87994196776918
 50
181.02273473633079
 51
182.2998094257388
  0
ARC
  5
3309
  8
0
 10
-235.5730701579746
 20
23.63615517454134
 30
0.0
 40
208.09380521171161
 50
358.8794448720206
 51
2.299809425738808
  0
ARC
  5
330A
  8
0
 10
-578.41137875695154
 20
20.107539641212242
 30
0.0
 40
550.89258361658301
 50
357.23580681841628
 51
359.94374412685772
  0
ARC
  5
330B
  8
0
 10
-122.79590768347821
 20
-3.651003941550977
 30
0.0
 40
94.677799213905047
 50
355.72108582074571
 51
358.30010607325289
  0
ARC
  5
330C
  8
0
 10
-30.418201213551981
 20
-10.562730757624861
 30
0.0
 40
2.0418849029646862
 50
272.86817428128398
 51
355.72108582074549
  0
LINE
  5
330D
  8
0
 10
-30.316029009090499
 20
-12.602057802899999
 30
0.0
 11
-33.028003568090497
 21
-12.629711373728449
 31
0.0
  0
ARC
  5
330E
  8
0
 10
-32.676850139895713
 20
13.08060892976083
 30
0.0
 40
32.552309076754838
 50
81.097330157777904
 51
90.618082102262804
  0
ARC
  5
330F
  8
0
 10
-27.953841721694189
 20
43.180464071542367
 30
0.0
 40
2.0841765816058051
 50
15.439535689491811
 51
81.316234963238955
  0
ARC
  5
3310
  8
0
 10
-30.23990753290407
 20
42.549079183642561
 30
0.0
 40
4.4558308080585132
 50
356.2483448787446
 51
15.439535689491789
  0
ARC
  5
3311
  8
0
 10
-320.4061357412404
 20
24.48323346490508
 30
0.0
 40
295.14819446047022
 50
2.3198045532551341
 51
3.4525316365064569
  0
ARC
  5
3312
  8
0
 10
-511.23438332308808
 20
19.208448793155451
 30
0.0
 40
486.03975343618441
 50
357.90375666179949
 51
2.0305510953053272
  0
ARC
  5
3313
  8
0
 10
-459.4691882820797
 20
19.818776763950378
 30
0.0
 40
434.3387391216873
 50
356.47211856010472
 51
357.57351937245971
  0
ARC
  5
3314
  8
0
 10
-298.0030830451397
 20
9.8981378503853836
 30
0.0
 40
272.56815962624739
 50
355.11396212179022
 51
356.46500173138958
  0
ARC
  5
3315
  8
0
 10
-29.510752874934632
 20
-12.743451799911639
 30
0.0
 40
3.1383088032430368
 50
280.13404097254562
 51
349.4581485901989
  0
ARC
  5
3316
  8
0
 10
-33.152192844960268
 20
11.157500903115659
 30
0.0
 40
27.3141509111476
 50
270.2605076747476
 51
278.8317397051614
  0
LINE
  5
3317
  8
0
 10
-15.02800356810004
 20
49.870246023599996
 30
0.0
 11
-15.028003568100001
 21
-23.791751818099989
 31
0.0
  0
LINE
  5
331A
  8
0
 10
-17.6267213501905
 20
9.9560826197596217
 30
0.0
 11
-19.184554692999999
 21
9.9773501003500016
 31
0.0
  0
LINE
  5
331B
  8
0
 10
-19.184554692999999
 20
9.9773501003500016
 30
0.0
 11
-22.57828143135001
 21
9.9541940599000007
 31
0.0
  0
ARC
  5
331C
  8
0
 10
-22.58125504751991
 20
10.390004349969329
 30
0.0
 40
0.4358204347244861
 50
195.9342078914961
 51
270.39093389115641
  0
ARC
  5
331D
  8
0
 10
-5.8430214836426462
 20
13.60188067053698
 30
0.0
 40
17.477765641683948
 50
182.1928084811459
 51
190.98867464057241
  0
ARC
  5
331E
  8
0
 10
-23.352082564475339
 20
12.912596216051011
 30
0.0
 40
0.0486447177017302
 50
24.980896921759729
 51
45.843763434315314
  0
LINE
  5
331F
  8
0
 10
-23.318195811632389
 20
12.94749602324306
 30
0.0
 11
-23.488889082919219
 21
12.947496023599999
 31
0.0
  0
ARC
  5
3320
  8
0
 10
-23.48888908279493
 20
13.00693174450174
 30
0.0
 40
0.0594357209017391
 50
189.93587925413459
 51
269.99999988018811
  0
ARC
  5
3321
  8
0
 10
-20.973869242512251
 20
13.447496056964541
 30
0.0
 40
2.61275154751453
 50
170.0641235552161
 51
189.93587925413459
  0
ARC
  5
3322
  8
0
 10
-23.488889037028599
 20
13.888060234308711
 30
0.0
 40
0.0594357892958177
 50
89.999293075196974
 51
170.06412355521761
  0
LINE
  5
3323
  8
0
 10
-23.488888303700001
 20
13.947496023599999
 30
0.0
 11
-17.6267213501905
 21
13.94742369521463
 31
0.0
  0
ARC
  5
3324
  8
0
 10
-16.911042459145719
 20
9.6524533955339376
 30
0.0
 40
1.3321435759486431
 50
122.4958525015675
 51
147.85600748616261
  0
ARC
  5
3325
  8
0
 10
-15.904645550011541
 20
9.0200644890363453
 30
0.0
 40
2.5207353762636431
 50
147.85600748616261
 51
150.03218119698701
  0
ARC
  5
3326
  8
0
 10
-17.98281033904577
 20
10.218337675975929
 30
0.0
 40
0.1218549038515518
 50
150.0321811969863
 51
239.787814782163
  0
ARC
  5
3327
  8
0
 10
-17.90774419903947
 20
10.3472511475904
 30
0.0
 40
0.2710313381135989
 50
239.7878147821632
 51
271.89993186570013
  0
ARC
  5
3328
  8
0
 10
-17.735704276925869
 20
5.1609871491627288
 30
0.0
 40
4.9180853493571917
 50
88.730243082418539
 51
91.899931865700083
  0
ARC
  5
3329
  8
0
 10
-23.45756933709993
 20
14.0541930903661
 30
0.0
 40
0.1257466766720977
 50
301.95023496866702
 51
0.2478652818276754
  0
ARC
  5
332A
  8
0
 10
-78.608927167513187
 20
3.6175706077251739
 30
0.0
 40
35.900454528608023
 50
357.31072403123159
 51
358.8381527893514
  0
ARC
  5
332B
  8
0
 10
-42.774516852845267
 20
2.8888455348144602
 30
0.0
 40
0.0586685699086725
 50
0.7651116152899792
 51
88.480845908694036
  0
ARC
  5
332C
  8
0
 10
-23.089261794545681
 20
12.96333323468096
 30
0.0
 40
0.2208009934465452
 50
169.33725802958079
 51
187.8595738520315
  0
ARC
  5
332D
  8
0
 10
-4.5497025758777161
 20
14.1657838517868
 30
0.0
 40
18.792482224313069
 50
180.84198976540111
 51
183.54381186280699
  0
ARC
  5
332E
  8
0
 10
-23.281488824067821
 20
13.88884198463883
 30
0.0
 40
0.0586721020849912
 50
91.518442601958355
 51
179.23143500824219
  0
LINE
  5
332F
  8
0
 10
-17.615960069690459
 20
-1.0440643982998841
 30
0.0
 11
-17.6267213501905
 21
3.0097741790999999
 31
0.0
  0
ATTDEF
  5
489A
  8
DEFPOINTS
 10
-33.033594872588523
 20
-26.954455989562241
 30
0.0
 40
0.001
  1
72300106
  3

  2
MODELNUMBER
 70
     0
1001
ACDBATTR
1070
     0
1070
     1
  0
ATTDEF
  5
489B
  8
DEFPOINTS
 10
-33.033594872588523
 20
-26.956122656228899
 30
0.0
 40
0.001
  1
STORE
  3

  2
TRADENAME
 70
     0
1001
ACDBATTR
1070
     0
1070
     1
  0
ATTDEF
  5
489C
  8
DEFPOINTS
 10
-33.033594872588523
 20
-26.957789322895561
 30
0.0
 40
0.001
  1
SHOWER STALL
  3

  2
PRODUCT
 70
     0
1001
ACDBATTR
1070
     0
1070
     1
  0
ATTDEF
  5
489D
  8
DEFPOINTS
 10
-33.033594872588523
 20
-26.95945598956223
 30
0.0
 40
0.001
  1
VIKRELL
  3

  2
MATERIAL
 70
     0
1001
ACDBATTR
1070
     0
1070
     1
  0
ENDSEC
  0
EOF
