  0
SECTION
  2
HEADER
  9
$ACADVER
  1
AC1009
  9
$INSBASE
 10
50.6013234522999866
 20
6.444069380333004
 30
0.0
  9
$EXTMIN
 10
20.1934321603456688
 20
6.4439912267172517
 30
0.0
  9
$EXTMAX
 10
50.6099013606800767
 20
22.1575735183000013
 30
0.0
  9
$LIMMIN
 10
0.0
 20
0.0
  9
$LIMMAX
 10
22.0
 20
17.0
  9
$ORTHOMODE
 70
     0
  9
$REGENMODE
 70
     1
  9
$FILLMODE
 70
     1
  9
$QTEXTMODE
 70
     0
  9
$MIRRTEXT
 70
     0
  9
$DRAGMODE
 70
     2
  9
$LTSCALE
 40
1.2099999999999991
  9
$OSMODE
 70
  4095
  9
$ATTMODE
 70
     1
  9
$TEXTSIZE
 40
0.2
  9
$TRACEWID
 40
0.05
  9
$TEXTSTYLE
  7
STANDARD
  9
$CLAYER
  8
0
  9
$CELTYPE
  6
BYLAYER
  9
$CECOLOR
 62
   256
  9
$DIMSCALE
 40
1.0
  9
$DIMASZ
 40
0.1875
  9
$DIMEXO
 40
0.0625
  9
$DIMDLI
 40
0.8359999999999999
  9
$DIMRND
 40
0.0
  9
$DIMDLE
 40
0.0
  9
$DIMEXE
 40
0.125
  9
$DIMTP
 40
0.0
  9
$DIMTM
 40
0.0
  9
$DIMTXT
 40
0.15625
  9
$DIMCEN
 40
0.198
  9
$DIMTSZ
 40
0.0
  9
$DIMTOL
 70
     0
  9
$DIMLIM
 70
     0
  9
$DIMTIH
 70
     1
  9
$DIMTOH
 70
     1
  9
$DIMSE1
 70
     0
  9
$DIMSE2
 70
     0
  9
$DIMTAD
 70
     0
  9
$DIMZIN
 70
     0
  9
$DIMBLK
  1

  9
$DIMASO
 70
     1
  9
$DIMSHO
 70
     1
  9
$DIMPOST
  1

  9
$DIMAPOST
  1

  9
$DIMALT
 70
     0
  9
$DIMALTD
 70
     2
  9
$DIMALTF
 40
25.3999999999999986
  9
$DIMLFAC
 40
1.0
  9
$DIMTOFL
 70
     0
  9
$DIMTVP
 40
0.0
  9
$DIMTIX
 70
     0
  9
$DIMSOXD
 70
     0
  9
$DIMSAH
 70
     0
  9
$DIMBLK1
  1

  9
$DIMBLK2
  1

  9
$DIMSTYLE
  2
STANDARD
  9
$DIMCLRD
 70
     0
  9
$DIMCLRE
 70
     0
  9
$DIMCLRT
 70
     0
  9
$DIMTFAC
 40
1.0
  9
$DIMGAP
 40
0.09
  9
$LUNITS
 70
     2
  9
$LUPREC
 70
     4
  9
$SKETCHINC
 40
0.1
  9
$FILLETRAD
 40
0.0
  9
$AUNITS
 70
     0
  9
$AUPREC
 70
     0
  9
$MENU
  1
.
  9
$ELEVATION
 40
0.0
  9
$PELEVATION
 40
0.0
  9
$THICKNESS
 40
0.0
  9
$LIMCHECK
 70
     0
  9
$BLIPMODE
 70
     0
  9
$CHAMFERA
 40
0.0
  9
$CHAMFERB
 40
0.0
  9
$SKPOLY
 70
     0
  9
$TDCREATE
 40
2457543.4885069439187646
  9
$TDUPDATE
 40
2458722.6435300931334496
  9
$TDINDWG
 40
0.1931493171
  9
$TDUSRTIMER
 40
0.1931493171
  9
$USRTIMER
 70
     1
  9
$ANGBASE
 50
0.0
  9
$ANGDIR
 70
     0
  9
$PDMODE
 70
     0
  9
$PDSIZE
 40
0.3125
  9
$PLINEWID
 40
0.0
  9
$COORDS
 70
     1
  9
$SPLFRAME
 70
     0
  9
$SPLINETYPE
 70
     6
  9
$SPLINESEGS
 70
     8
  9
$ATTDIA
 70
     1
  9
$ATTREQ
 70
     1
  9
$HANDLING
 70
     1
  9
$HANDSEED
  5
E38
  9
$SURFTAB1
 70
     6
  9
$SURFTAB2
 70
     6
  9
$SURFTYPE
 70
     6
  9
$SURFU
 70
     6
  9
$SURFV
 70
     6
  9
$UCSNAME
  2

  9
$UCSORG
 10
0.0
 20
0.0
 30
0.0
  9
$UCSXDIR
 10
1.0
 20
0.0
 30
0.0
  9
$UCSYDIR
 10
0.0
 20
1.0
 30
0.0
  9
$PUCSNAME
  2

  9
$PUCSORG
 10
0.0
 20
0.0
 30
0.0
  9
$PUCSXDIR
 10
1.0
 20
0.0
 30
0.0
  9
$PUCSYDIR
 10
0.0
 20
1.0
 30
0.0
  9
$USERI1
 70
     0
  9
$USERI2
 70
     0
  9
$USERI3
 70
     0
  9
$USERI4
 70
     0
  9
$USERI5
 70
     0
  9
$USERR1
 40
0.0
  9
$USERR2
 40
0.0
  9
$USERR3
 40
0.0
  9
$USERR4
 40
0.0
  9
$USERR5
 40
0.0
  9
$WORLDVIEW
 70
     1
  9
$SHADEDGE
 70
     3
  9
$SHADEDIF
 70
    70
  9
$TILEMODE
 70
     1
  9
$MAXACTVP
 70
    48
  9
$PLIMCHECK
 70
     0
  9
$PEXTMIN
 10
1.0000000000000000E+20
 20
1.0000000000000000E+20
 30
1.0000000000000000E+20
  9
$PEXTMAX
 10
-1.0000000000000000E+20
 20
-1.0000000000000000E+20
 30
-1.0000000000000000E+20
  9
$PLIMMIN
 10
0.0
 20
0.0
  9
$PLIMMAX
 10
12.0
 20
9.0
  9
$UNITMODE
 70
     0
  9
$VISRETAIN
 70
     1
  9
$PLINEGEN
 70
     0
  9
$PSLTSCALE
 70
     1
  0
ENDSEC
  0
SECTION
  2
TABLES
  0
TABLE
  2
VPORT
 70
     1
  0
VPORT
  2
*ACTIVE
 70
     0
 10
0.0
 20
0.0
 11
1.0
 21
1.0
 12
0.0
 22
0.0
 13
0.0
 23
0.0
 14
1.0
 24
1.0
 15
0.0
 25
0.0
 16
-0.0000000000000213
 26
0.0
 36
97.9033724182677645
 17
35.4017028472470514
 27
14.3007936477661097
 37
0.0
 40
34.2405831002527421
 41
2.1433408577878099
 42
50.0
 43
0.0
 44
0.0
 50
0.0
 51
0.0
 71
     0
 72
   100
 73
     1
 74
     1
 75
     0
 76
     0
 77
     0
 78
     0
  0
ENDTAB
  0
TABLE
  2
LTYPE
 70
     1
  0
LTYPE
  2
CONTINUOUS
 70
     0
  3
Solid line
 72
    65
 73
     0
 40
0.0
  0
ENDTAB
  0
TABLE
  2
LAYER
 70
     2
  0
LAYER
  2
0
 70
     0
 62
     7
  6
CONTINUOUS
  0
LAYER
  2
DEFPOINTS
 70
     0
 62
     7
  6
CONTINUOUS
  0
ENDTAB
  0
TABLE
  2
STYLE
 70
     1
  0
STYLE
  2
STANDARD
 70
     0
 40
0.0
 41
0.8
 50
0.0
 71
     0
 42
0.2
  3
txt
  4

  0
ENDTAB
  0
TABLE
  2
VIEW
 70
     0
  0
ENDTAB
  0
TABLE
  2
UCS
 70
     0
  0
ENDTAB
  0
TABLE
  2
APPID
 70
     5
  0
APPID
  2
ACAD
 70
     0
  0
APPID
  2
ACAD_MLEADERVER
 70
     0
  0
APPID
  2
ACAD_NAV_VCDISPLAY
 70
     0
  0
APPID
  2
ACAD_EXEMPT_FROM_CAD_STANDARDS
 70
     0
  0
APPID
  2
ACDBATTR
 70
     0
  0
ENDTAB
  0
TABLE
  2
DIMSTYLE
 70
     1
  0
DIMSTYLE
  2
STANDARD
 70
     0
  3

  4

  5

  6

  7

 40
1.0
 41
0.1875
 42
0.0625
 43
0.38
 44
0.125
 45
0.0
 46
0.0
 47
1.5
 48
1.5
140
0.15625
141
0.09
142
0.0
143
25.3999999999999986
144
1.0
145
0.0
146
1.0
147
0.09
 71
     0
 72
     0
 73
     1
 74
     1
 75
     0
 76
     0
 77
     0
 78
     4
170
     0
171
     2
172
     0
173
     0
174
     0
175
     0
176
     0
177
     0
178
     0
  0
ENDTAB
  0
ENDSEC
  0
SECTION
  2
BLOCKS
  0
BLOCK
  8
0
  2
$MODEL_SPACE
 70
     0
 10
0.0
 20
0.0
 30
0.0
  3
$MODEL_SPACE
  1

  0
ENDBLK
  5
21
  8
0
  0
BLOCK
 67
     1
  8
0
  2
$PAPER_SPACE
 70
     0
 10
0.0
 20
0.0
 30
0.0
  3
$PAPER_SPACE
  1

  0
ENDBLK
  5
1D
 67
     1
  8
0
  0
ENDSEC
  0
SECTION
  2
ENTITIES
  0
LINE
  5
6DF
  8
0
 10
24.4915835981999983
 20
20.6748160650999999
 30
0.0
 11
21.4219556550999997
 21
12.2410825932999998
 31
0.0
  0
LINE
  5
7AA
  8
0
 10
47.8883748331000021
 20
20.1656314005000006
 30
0.0
 11
50.2951795793999992
 21
20.2076423335999991
 31
0.0
  0
LINE
  5
7AB
  8
0
 10
47.2791767625000006
 20
20.0834997042999994
 30
0.0
 11
47.7951574316000034
 21
20.0834874546999984
 31
0.0
  0
LINE
  5
7AD
  8
0
 10
27.7884696270999996
 20
20.1540737647000014
 30
0.0
 11
33.1858189715999998
 21
20.1540737647000014
 31
0.0
  0
LINE
  5
7E8
  8
0
 10
50.074828656900003
 20
22.1575735183000013
 30
0.0
 11
26.6091806678000005
 21
22.1575735183000013
 31
0.0
  0
LINE
  5
83B
  8
0
 10
50.5893349978112923
 20
20.5607871786573604
 30
0.0
 11
50.6013234522999866
 21
20.9040737647000014
 31
0.0
  0
LINE
  5
849
  8
0
 10
50.6013234522999866
 20
20.9040737647000014
 30
0.0
 11
50.5745129013798618
 21
21.6715223966552912
 31
0.0
  0
ARC
  5
853
  8
0
 10
26.6091806677999898
 20
19.9040737646999908
 30
0.0
 40
2.2534736905000079
 50
89.9999999994997637
 51
160.0000000256997055
  0
ARC
  5
857
  8
0
 10
50.2145640597000167
 20
20.573874468199989
 30
0.0
 40
0.374999377599993
 50
282.414051389797919
 51
357.9999999999002966
  0
ARC
  5
996
  8
0
 10
40.2657330064956227
 20
5.3976609844145331
 30
0.0
 40
20.0479516207000792
 50
160.0406931478808019
 51
166.5952322064177906
  0
ARC
  5
997
  8
0
 10
62.8519820145550483
 20
0.3738703316038578
 30
0.0
 40
43.1849458228867178
 50
167.0585643871928028
 51
168.9116376178139092
  0
ARC
  5
998
  8
0
 10
-12.0579858661382495
 20
15.8359305289006702
 30
0.0
 40
33.309109275803948
 50
345.7665227781724866
 51
347.5929997988587274
  0
ARC
  5
999
  8
0
 10
21.0851626464373894
 20
7.3981503696494029
 30
0.0
 40
0.8917304860917219
 50
163.8562855841773001
 51
256.3472252014740889
  0
ARC
  5
99A
  8
0
 10
21.4018458054354106
 20
8.6765611047417242
 30
0.0
 40
2.208775581026154
 50
256.1920420490939136
 51
270.7141180341540121
  0
ARC
  5
99B
  8
0
 10
21.1865240509456001
 20
-1.7109511338890659
 30
0.0
 40
8.1825128171496733
 50
85.3019080041701443
 51
88.2992563189513646
  0
ARC
  5
99C
  8
0
 10
21.8588809896293412
 20
6.4740344934761058
 30
0.0
 40
0.0300432667588545
 50
265.866358748794994
 51
341.9612593065310762
  0
ARC
  5
99D
  8
0
 10
-8895.9931243630053359
 20
2904.0668847402780557
 30
0.0
 40
9376.8167378143552924
 50
341.999958699203205
 51
342.0001419234639002
  0
LINE
  5
99E
  8
0
 10
21.8967136499999988
 20
6.4932495034000004
 30
0.0
 11
23.2410679818999988
 21
10.6307466135999995
 31
0.0
  0
LINE
  5
9AA
  8
0
 10
23.2410679818999988
 20
10.6307466135999995
 30
0.0
 11
25.8799212332845805
 21
18.7523018224109101
 31
0.0
  0
ARC
  5
9AB
  8
0
 10
27.7878708858156003
 20
18.1547342405117718
 30
0.0
 40
1.9993396138550421
 50
89.9828402793580153
 51
162.6095053576439966
  0
LINE
  5
9AC
  8
0
 10
33.1858189715999998
 20
20.1540737647000014
 30
0.0
 11
36.6686830914370177
 21
20.2298496284684788
 31
0.0
  0
ARC
  5
9AE
  8
0
 10
326.4189811508634875
 20
-13365.0070471113103849
 30
0.0
 40
13388.3726425981094508
 50
91.1981025381781336
 51
91.2400883853165254
  0
LINE
  5
9AF
  8
0
 10
46.477344778059603
 20
20.4385822763924807
 30
0.0
 11
47.7599251083000027
 21
20.4653548478000005
 31
0.0
  0
ARC
  5
9B0
  8
0
 10
47.7641973261691817
 20
20.1568764488993715
 30
0.0
 40
0.3085079811509193
 50
45.0470238884074092
 51
90.7934571944772841
  0
ARC
  5
9B3
  8
0
 10
47.1670983649145867
 20
20.0917600375766412
 30
0.0
 40
0.0643376615329115
 50
18.3130186762914811
 51
83.9126708397377143
  0
ARC
  5
9B4
  8
0
 10
47.279220123658682
 20
20.1434841950751391
 30
0.0
 40
0.0599845064474324
 50
211.687180756331486
 51
269.958582444855324
  0
ARC
  5
9B5
  8
0
 10
47.7977669676165604
 20
20.1451337389963108
 30
0.0
 40
0.0617014914387216
 50
267.5760714130670976
 51
343.8913329286095859
  0
ARC
  5
9B6
  8
0
 10
47.9159656434428527
 20
20.1107983264764592
 30
0.0
 40
0.061383375780789
 50
116.7105462398744038
 51
163.712206905062402
  0
ARC
  5
9C2
  8
0
 10
50.0687268764156386
 20
21.6514251500880484
 30
0.0
 40
0.5061851463335274
 50
2.2754325309189651
 51
89.3093145083097966
  0
ARC
  5
9EC
  8
0
 10
47.8236148164005073
 20
20.54586240171529
 30
0.0
 40
0.3857064609882722
 50
279.6657282232806097
 51
356.875140450288427
  0
ARC
  5
9ED
  8
0
 10
22.9411198951713295
 20
20.3606728784499893
 30
0.0
 40
25.2681611549203318
 50
0.3722454231012555
 51
2.8348107749711171
  0
ARC
  5
9EE
  8
0
 10
47.5702789105245785
 20
21.5506635300412412
 30
0.0
 40
0.6110030981909123
 50
5.6059533811565583
 51
83.3643209567115804
  0
LINE
  5
9FB
  8
0
 10
50.521698584219088
 20
20.3587165795488509
 30
0.0
 11
48.1635800528625779
 21
20.3640737646999987
 31
0.0
  0
ARC
  5
9FC
  8
0
 10
48.0108541192225928
 20
20.3998133560744606
 30
0.0
 40
0.037797301935598
 50
220.6246544773148059
 51
249.0509459107300927
  0
LINE
  5
9FD
  8
0
 10
47.9973401590999984
 20
20.3645145045999989
 30
0.0
 11
48.1635800528625779
 21
20.3640737646999987
 31
0.0
  0
ARC
  5
A81
  8
0
 10
47.2171368920349082
 20
20.6922404879245789
 30
0.0
 40
0.5382740529
 50
227.3518346192998933
 51
265.3945434762999867
  0
ARC
  5
A82
  8
0
 10
46.4877814430349119
 20
19.9004094119245813
 30
0.0
 40
0.5382740529
 50
47.3518346192999076
 51
91.1109848699998821
  0
ATTDEF
  5
AC3
  8
DEFPOINTS
 10
50.599234694013461
 20
6.4536364313069106
 30
0.0
 40
0.001
  1
72286104
  3

  2
MODELNUMBER
 70
     0
1001
ACDBATTR
1070
     0
1070
     1
  0
ATTDEF
  5
AC4
  8
DEFPOINTS
 10
50.599234694013461
 20
6.4519697646402392
 30
0.0
 40
0.001
  1
ACCORD
  3

  2
TRADENAME
 70
     0
1001
ACDBATTR
1070
     0
1070
     1
  0
ATTDEF
  5
AC5
  8
DEFPOINTS
 10
50.599234694013461
 20
6.450303097973574
 30
0.0
 40
0.001
  1
SHOWER SEAT
  3

  2
PRODUCT
 70
     0
1001
ACDBATTR
1070
     0
1070
     1
  0
ENDSEC
  0
EOF
