  0
SECTION
  2
HEADER
  9
$ACADVER
  1
AC1009
  9
$INSBASE
 10
2558.1907654201440891
 20
106.6342875749789982
 30
0.0
  9
$EXTMIN
 10
2551.2863184298389569
 20
106.6268753784762993
 30
0.0
  9
$EXTMAX
 10
2565.0952124104501308
 20
122.3426926378764961
 30
0.0
  9
$LIMMIN
 10
0.0
 20
0.0
  9
$LIMMAX
 10
11.6929133858000007
 20
8.2677165353999982
  9
$ORTHOMODE
 70
     1
  9
$REGENMODE
 70
     1
  9
$FILLMODE
 70
     1
  9
$QTEXTMODE
 70
     0
  9
$MIRRTEXT
 70
     0
  9
$DRAGMODE
 70
     2
  9
$LTSCALE
 40
0.6431102362
  9
$OSMODE
 70
  4095
  9
$ATTMODE
 70
     1
  9
$TEXTSIZE
 40
0.2
  9
$TRACEWID
 40
0.05
  9
$TEXTSTYLE
  7
STANDARD
  9
$CLAYER
  8
0
  9
$CELTYPE
  6
BYLAYER
  9
$CECOLOR
 62
   256
  9
$DIMSCALE
 40
1.0
  9
$DIMASZ
 40
0.1875
  9
$DIMEXO
 40
0.0625
  9
$DIMDLI
 40
0.4443307087
  9
$DIMRND
 40
0.0
  9
$DIMDLE
 40
0.0
  9
$DIMEXE
 40
0.125
  9
$DIMTP
 40
0.01
  9
$DIMTM
 40
0.01
  9
$DIMTXT
 40
2.0
  9
$DIMCEN
 40
0.1052362205
  9
$DIMTSZ
 40
0.0
  9
$DIMTOL
 70
     1
  9
$DIMLIM
 70
     0
  9
$DIMTIH
 70
     1
  9
$DIMTOH
 70
     1
  9
$DIMSE1
 70
     0
  9
$DIMSE2
 70
     0
  9
$DIMTAD
 70
     0
  9
$DIMZIN
 70
     0
  9
$DIMBLK
  1

  9
$DIMASO
 70
     1
  9
$DIMSHO
 70
     1
  9
$DIMPOST
  1
\X
  9
$DIMAPOST
  1

  9
$DIMALT
 70
     1
  9
$DIMALTD
 70
     2
  9
$DIMALTF
 40
25.3999999999999986
  9
$DIMLFAC
 40
1.0
  9
$DIMTOFL
 70
     0
  9
$DIMTVP
 40
0.0
  9
$DIMTIX
 70
     0
  9
$DIMSOXD
 70
     0
  9
$DIMSAH
 70
     0
  9
$DIMBLK1
  1

  9
$DIMBLK2
  1

  9
$DIMSTYLE
  2
STANDARD
  9
$DIMCLRD
 70
     0
  9
$DIMCLRE
 70
     0
  9
$DIMCLRT
 70
     0
  9
$DIMTFAC
 40
1.0
  9
$DIMGAP
 40
0.09
  9
$LUNITS
 70
     2
  9
$LUPREC
 70
     4
  9
$SKETCHINC
 40
0.1
  9
$FILLETRAD
 40
0.0
  9
$AUNITS
 70
     0
  9
$AUPREC
 70
     0
  9
$MENU
  1
.
  9
$ELEVATION
 40
0.0
  9
$PELEVATION
 40
0.0
  9
$THICKNESS
 40
0.0
  9
$LIMCHECK
 70
     0
  9
$BLIPMODE
 70
     0
  9
$CHAMFERA
 40
0.0
  9
$CHAMFERB
 40
0.0
  9
$SKPOLY
 70
     0
  9
$TDCREATE
 40
2458060.468368056230247
  9
$TDUPDATE
 40
2458722.6433449080213904
  9
$TDINDWG
 40
0.2876690972
  9
$TDUSRTIMER
 40
0.2876690972
  9
$USRTIMER
 70
     1
  9
$ANGBASE
 50
0.0
  9
$ANGDIR
 70
     0
  9
$PDMODE
 70
     0
  9
$PDSIZE
 40
0.3125
  9
$PLINEWID
 40
0.0
  9
$COORDS
 70
     1
  9
$SPLFRAME
 70
     0
  9
$SPLINETYPE
 70
     6
  9
$SPLINESEGS
 70
     8
  9
$ATTDIA
 70
     1
  9
$ATTREQ
 70
     1
  9
$HANDLING
 70
     1
  9
$HANDSEED
  5
57F6
  9
$SURFTAB1
 70
     6
  9
$SURFTAB2
 70
     6
  9
$SURFTYPE
 70
     6
  9
$SURFU
 70
     6
  9
$SURFV
 70
     6
  9
$UCSNAME
  2

  9
$UCSORG
 10
0.0
 20
0.0
 30
0.0
  9
$UCSXDIR
 10
1.0
 20
0.0
 30
0.0
  9
$UCSYDIR
 10
0.0
 20
1.0
 30
0.0
  9
$PUCSNAME
  2

  9
$PUCSORG
 10
0.0
 20
0.0
 30
0.0
  9
$PUCSXDIR
 10
1.0
 20
0.0
 30
0.0
  9
$PUCSYDIR
 10
0.0
 20
1.0
 30
0.0
  9
$USERI1
 70
     0
  9
$USERI2
 70
     0
  9
$USERI3
 70
     0
  9
$USERI4
 70
     0
  9
$USERI5
 70
     0
  9
$USERR1
 40
0.0
  9
$USERR2
 40
0.0
  9
$USERR3
 40
0.0
  9
$USERR4
 40
0.0
  9
$USERR5
 40
0.0
  9
$WORLDVIEW
 70
     1
  9
$SHADEDGE
 70
     3
  9
$SHADEDIF
 70
    70
  9
$TILEMODE
 70
     1
  9
$MAXACTVP
 70
    64
  9
$PLIMCHECK
 70
     0
  9
$PEXTMIN
 10
1.0000000000000000E+20
 20
1.0000000000000000E+20
 30
1.0000000000000000E+20
  9
$PEXTMAX
 10
-1.0000000000000000E+20
 20
-1.0000000000000000E+20
 30
-1.0000000000000000E+20
  9
$PLIMMIN
 10
0.0
 20
0.0
  9
$PLIMMAX
 10
12.0
 20
9.0
  9
$UNITMODE
 70
     0
  9
$VISRETAIN
 70
     1
  9
$PLINEGEN
 70
     0
  9
$PSLTSCALE
 70
     1
  0
ENDSEC
  0
SECTION
  2
TABLES
  0
TABLE
  2
VPORT
 70
     1
  0
VPORT
  2
*ACTIVE
 70
     0
 10
0.0
 20
0.0
 11
1.0
 21
1.0
 12
0.0
 22
0.0
 13
0.0
 23
0.0
 14
1.0
 24
1.0
 15
0.0
 25
0.0
 16
0.0
 26
0.0
 36
59.8240235792244519
 17
2558.1907958984379547
 27
114.4842605590820028
 37
0.0
 40
20.9199556233023785
 41
2.1433408577878099
 42
50.0
 43
0.0
 44
0.0
 50
0.0
 51
0.0
 71
     0
 72
   100
 73
     1
 74
     1
 75
     0
 76
     0
 77
     0
 78
     0
  0
ENDTAB
  0
TABLE
  2
LTYPE
 70
     2
  0
LTYPE
  2
CONTINUOUS
 70
     0
  3
Solid line
 72
    65
 73
     0
 40
0.0
  0
LTYPE
  2
PHANTOM2
 70
     0
  3
___ _ _ ___ _ _ ___ _ _ ___ _ _
 72
    65
 73
     6
 40
1.25
 49
0.625
 49
-0.125
 49
0.125
 49
-0.125
 49
0.125
 49
-0.125
  0
ENDTAB
  0
TABLE
  2
LAYER
 70
     2
  0
LAYER
  2
0
 70
     0
 62
   255
  6
CONTINUOUS
  0
LAYER
  2
DEFPOINTS
 70
     0
 62
     7
  6
CONTINUOUS
  0
ENDTAB
  0
TABLE
  2
STYLE
 70
     1
  0
STYLE
  2
STANDARD
 70
     0
 40
0.0
 41
0.8
 50
0.0
 71
     0
 42
0.2
  3
txt
  4

  0
ENDTAB
  0
TABLE
  2
VIEW
 70
     0
  0
ENDTAB
  0
TABLE
  2
UCS
 70
     0
  0
ENDTAB
  0
TABLE
  2
APPID
 70
     9
  0
APPID
  2
ACAD
 70
     0
  0
APPID
  2
ACAD_MLEADERVER
 70
     0
  0
APPID
  2
ACAD_EXEMPT_FROM_CAD_STANDARDS
 70
     0
  0
APPID
  2
ACAD_NAV_VCDISPLAY
 70
     0
  0
APPID
  2
ACAECLAYERSTANDARD
 70
     0
  0
APPID
  2
ACCMTRANSPARENCY
 70
     0
  0
APPID
  2
ACAD_DSTYLE_DIMJAG
 70
     0
  0
APPID
  2
ACAD_DSTYLE_DIMTALN
 70
     0
  0
APPID
  2
ACDBATTR
 70
     0
  0
ENDTAB
  0
TABLE
  2
DIMSTYLE
 70
     1
  0
DIMSTYLE
  2
STANDARD
 70
     0
  3

  4

  5

  6

  7

 40
1.0
 41
0.1875
 42
0.0625
 43
0.38
 44
0.125
 45
0.0
 46
0.0
 47
0.01
 48
0.01
140
0.15625
141
0.09
142
0.0
143
25.3999999999999986
144
1.0
145
0.0
146
1.0
147
0.09
 71
     1
 72
     0
 73
     1
 74
     1
 75
     0
 76
     0
 77
     0
 78
     4
170
     0
171
     2
172
     0
173
     0
174
     0
175
     0
176
     0
177
     0
178
     0
  0
ENDTAB
  0
ENDSEC
  0
SECTION
  2
BLOCKS
  0
BLOCK
  8
0
  2
$MODEL_SPACE
 70
     0
 10
0.0
 20
0.0
 30
0.0
  3
$MODEL_SPACE
  1

  0
ENDBLK
  5
21
  8
0
  0
BLOCK
 67
     1
  8
0
  2
$PAPER_SPACE
 70
     0
 10
0.0
 20
0.0
 30
0.0
  3
$PAPER_SPACE
  1

  0
ENDBLK
  5
1D
 67
     1
  8
0
  0
ENDSEC
  0
SECTION
  2
ENTITIES
  0
ATTDEF
  5
3930
  8
DEFPOINTS
 10
2558.1864800174212178
 20
106.632474353032805
 30
0.0
 40
0.001
  1
72286104
  3

  2
MODELNUMBER
 70
     0
1001
ACDBATTR
1070
     0
1070
     1
  0
ATTDEF
  5
3931
  8
DEFPOINTS
 10
2558.1864800174212178
 20
106.6308076863661967
 30
0.0
 40
0.001
  1
ACCORD
  3

  2
TRADENAME
 70
     0
1001
ACDBATTR
1070
     0
1070
     1
  0
ATTDEF
  5
3932
  8
DEFPOINTS
 10
2558.1864800174212178
 20
106.6291410196995031
 30
0.0
 40
0.001
  1
SHOWER SEAT
  3

  2
PRODUCT
 70
     0
1001
ACDBATTR
1070
     0
1070
     1
  0
ARC
  5
5686
  8
0
 10
2553.352378423394839
 20
108.4704225124686019
 30
0.0
 40
13.7074787760712304
 50
93.411918814324693
 51
95.4119057382207245
  0
ARC
  5
5687
  8
0
 10
2558.1906835590989431
 20
37.714189961558283
 30
0.0
 40
84.6285026763182771
 50
86.1691721020995232
 51
93.8308266509048963
  0
ARC
  5
5688
  8
0
 10
2552.0908820024351371
 20
121.6171953027314032
 30
0.0
 40
0.500584556707072
 50
93.5879570649648258
 51
165.5718447620662914
  0
ARC
  5
5689
  8
0
 10
2471.0868271965409804
 20
142.0653013296191034
 30
0.0
 40
83.0445098933667651
 50
345.1861435938575937
 51
345.8341968948130898
  0
ARC
  5
568A
  8
0
 10
2550.648018761522053
 20
120.7237294118928048
 30
0.0
 40
0.7241748254737804
 50
346.5102154111402228
 51
5.5438793932637056
  0
ARC
  5
568B
  8
0
 10
2551.4736713121042158
 20
120.8070581643039958
 30
0.0
 40
0.1057136348235476
 50
166.0645654841812018
 51
187.2645832533501959
  0
ARC
  5
568C
  8
0
 10
2550.2642857115279185
 20
120.8488332718244038
 30
0.0
 40
1.126962839290345
 50
335.6627153281833102
 51
344.8760564386520855
  0
ARC
  5
568D
  8
0
 10
2551.3182710946362022
 20
120.3691491054056968
 30
0.0
 40
0.0311591960357483
 50
150.6879296691336947
 51
193.3846021224881895
  0
ARC
  5
568E
  8
0
 10
2551.9061480109889999
 20
120.3168793451332022
 30
0.0
 40
0.6198295811495707
 50
175.8313621108125062
 51
181.1077101102270035
  0
ARC
  5
568F
  8
0
 10
4194.1321209655961866
 20
189.148362475650714
 30
0.0
 40
1644.2874970879549892
 50
182.3995763203411968
 51
182.7302821535201076
  0
ARC
  5
5690
  8
0
 10
4176.7591852739687965
 20
186.2358098531150006
 30
0.0
 40
1626.7968767434099391
 50
182.6569647603253941
 51
182.7593163558744038
  0
ARC
  5
5691
  8
0
 10
2553.2576072923579886
 20
108.0233268697073044
 30
0.0
 40
1.4128605948848449
 50
184.1562715913711088
 51
254.9798321063584012
  0
ARC
  5
5692
  8
0
 10
2553.0276409610019073
 20
107.153262078612201
 30
0.0
 40
0.5129351168800124
 50
254.6027582430986058
 51
269.4551363119120992
  0
ARC
  5
5693
  8
0
 10
2559.4488121102258447
 20
1007.4181175197750235
 30
0.0
 40
900.8006884342263447
 50
269.5912651827292166
 51
269.7076617594996151
  0
ARC
  5
5694
  8
0
 10
2554.7536404155998753
 20
125.0328524995979933
 30
0.0
 40
18.4039647612454509
 50
270.308422883985088
 51
273.5607811850122175
  0
ARC
  5
5695
  8
0
 10
2577.3667900605419163
 20
-155.817973793052488
 30
0.0
 40
263.3590171326653149
 50
94.4326366776036963
 51
94.6761810504086441
  0
ARC
  5
5696
  8
0
 10
2558.2587932395799726
 20
85.2640739485430146
 30
0.0
 40
21.5253391044309907
 50
91.242254168430847
 51
93.3190217007794445
  0
ARC
  5
5697
  8
0
 10
2558.2446603056591812
 20
91.1048381454792349
 30
0.0
 40
15.6860446854658804
 50
86.4534809686689556
 51
91.6531693134337786
  0
ARC
  5
5698
  8
0
 10
2554.4743877297159997
 20
35.8405849425224901
 30
0.0
 40
71.078521172799114
 50
85.127290673430366
 51
86.1758093204260547
  0
ARC
  5
5699
  8
0
 10
2561.9274214034289798
 20
134.9880139015209863
 30
0.0
 40
28.3611385230447617
 50
267.1392737768290999
 51
271.4095883153495947
  0
ARC
  5
569A
  8
0
 10
2553.1596076047580937
 20
1565.299396937354004
 30
0.0
 40
1458.6946502388839235
 50
270.3717954467263098
 51
270.4006076925682009
  0
ARC
  5
569B
  8
0
 10
2563.1425076311911653
 20
108.0172849177675971
 30
0.0
 40
1.393737587559071
 50
278.9196499669175751
 51
356.0565590486330052
  0
ARC
  5
569C
  8
0
 10
25.4046517663987288
 20
229.8119347587094126
 30
0.0
 40
2542.0522782994439694
 50
357.2516339736054078
 51
357.5292907751558005
  0
ARC
  5
569D
  8
0
 10
2563.6877066359052151
 20
120.2902416747458005
 30
0.0
 40
1.4075057745444519
 50
357.4450444254800914
 51
2.937129912096919
  0
ARC
  5
569E
  8
0
 10
2565.0646757643130513
 20
120.3693273320290018
 30
0.0
 40
0.0295210608692889
 50
346.3536259581537138
 51
25.4245496243636104
  0
ARC
  5
569F
  8
0
 10
2565.4868058336628565
 20
120.5938918636518054
 30
0.0
 40
0.4486564180606413
 50
194.6851439121614931
 51
208.182258272216302
  0
ARC
  5
56A0
  8
0
 10
2565.8008772622551987
 20
120.7355665372327991
 30
0.0
 40
0.7904725661865067
 50
175.8070223745748137
 51
198.8513148941389943
  0
ARC
  5
56A1
  8
0
 10
2564.9094299889788999
 20
120.8071486560566967
 30
0.0
 40
0.104008140960601
 50
352.3832072200659127
 51
14.0819298120147494
  0
ARC
  5
56A2
  8
0
 10
2460.2816093596479732
 20
94.3180113545012233
 30
0.0
 40
108.0329439779743979
 50
14.2072019411151604
 51
14.7053703086448095
  0
ARC
  5
56A3
  8
0
 10
2564.29057123743587
 20
121.6165676540855003
 30
0.0
 40
0.5012063281121883
 50
14.4957241398440093
 51
86.4328843344928544
  0
ARC
  5
56A4
  8
0
 10
2565.411554704422997
 20
139.3510038473420991
 30
0.0
 40
17.2686231005414683
 50
264.7944101433000128
 51
266.3817360119970203
  0
LINE
  5
56A5
  8
0
 10
2552.5365912965239659
 20
122.1536042380764968
 30
0.0
 11
2552.5431373323231128
 21
122.150872979076496
 31
0.0
  0
LINE
  5
56A6
  8
0
 10
2552.5431373323231128
 20
122.150872979076496
 30
0.0
 11
2552.5489964857229097
 21
122.1418057205764995
 31
0.0
  0
LINE
  5
56A7
  8
0
 10
2552.5489964857229097
 20
122.1418057205764995
 30
0.0
 11
2552.5541530861228239
 21
122.1263357175764952
 31
0.0
  0
ARC
  5
56A8
  8
0
 10
2547.2438178914931086
 20
121.6161778690998005
 30
0.0
 40
5.3401634838536696
 50
0.6687601138412999
 51
4.5693760950900222
  0
ARC
  5
56A9
  8
0
 10
2551.9483461106788127
 20
121.9910818896803022
 30
0.0
 40
0.6207219099222846
 50
4.6689925630493434
 51
12.5855801457232701
  0
ARC
  5
56AA
  8
0
 10
3044.7181466260690286
 20
124.906383163351606
 30
0.0
 40
492.1451146034078192
 50
180.3757936233768078
 51
181.5584492333009052
  0
LINE
  5
56AB
  8
0
 10
2563.8447770264601786
 20
122.1536042911186968
 30
0.0
 11
2563.8382317819227865
 21
122.150872979076496
 31
0.0
  0
LINE
  5
56AC
  8
0
 10
2563.8382317819227865
 20
122.150872979076496
 30
0.0
 11
2563.832372628523899
 21
122.1418057205764995
 31
0.0
  0
LINE
  5
56AD
  8
0
 10
2563.832372628523899
 20
122.1418057205764995
 30
0.0
 11
2563.8271861675489163
 21
122.1261958318879977
 31
0.0
  0
ARC
  5
56AE
  8
0
 10
2564.8547896254221996
 20
121.9261239211156038
 30
0.0
 40
1.0468990572700241
 50
168.9824843638951108
 51
177.0522396138406975
  0
ARC
  5
56AF
  8
0
 10
2579.4840257516798374
 20
121.316029604116693
 30
0.0
 40
15.6888046577661502
 50
177.5745864555175899
 51
181.8987839267770994
  0
ARC
  5
56B0
  8
0
 10
1834.9309277180379922
 20
131.6012999507649965
 30
0.0
 40
728.9643831078351468
 50
358.1501982545871101
 51
359.0886785643339749
  0
ARC
  5
56B1
  8
0
 10
2541.2668016814482144
 20
120.4226066561896005
 30
0.0
 40
22.5401300758753393
 50
358.9440052485448973
 51
0.9496904730707996
  0
ARC
  5
56B2
  8
0
 10
3425.1723372921710506
 20
137.7930332681264929
 30
0.0
 40
872.8127308693394752
 50
181.724844971540989
 51
181.9515552219949086
  0
ARC
  5
56B3
  8
0
 10
2553.1155761143218115
 20
108.084515885090596
 30
0.0
 40
0.2501493732698746
 50
183.360892375662587
 51
270.9248793587311752
  0
ARC
  5
56B4
  8
0
 10
2610.0070059744939499
 20
-4050.2758642242310998
 30
0.0
 40
4158.4993852777097345
 50
90.7599227224423686
 51
90.783818593953896
  0
ARC
  5
56B5
  8
0
 10
2554.5344786960490637
 20
132.5806848446381139
 30
0.0
 40
24.7249840088610604
 50
270.7400076129836179
 51
274.0359837945346726
  0
ARC
  5
56B6
  8
0
 10
2558.1903614861757887
 20
82.646800468426818
 30
0.0
 40
25.3427238493518985
 50
85.7477039840034791
 51
94.3351425278093529
  0
ARC
  5
56B7
  8
0
 10
2561.8658352932029629
 20
132.983141005429303
 30
0.0
 40
25.1276715777576385
 50
265.9004898074721268
 51
269.1926289389433009
  0
ARC
  5
56B8
  8
0
 10
2481.3259977112579691
 20
-5911.5620807111381509
 30
0.0
 40
6019.954105595224064
 50
89.22014055493635
 51
89.2367978429295761
  0
ARC
  5
56B9
  8
0
 10
2563.2670050468050249
 20
108.0830799185278011
 30
0.0
 40
0.2487375570689795
 50
268.7906877862674833
 51
357.1419974067708836
  0
ENDSEC
  0
EOF
