  0
SECTION
  2
HEADER
  9
$ACADVER
  1
AC1009
  9
$INSBASE
 10
232.0371784151744
 20
106.24079154237231
 30
0.0
  9
$EXTMIN
 10
214.0371784151744
 20
68.995146286772396
 30
0.0
  9
$EXTMAX
 10
250.03717841517451
 20
106.2476253946286
 30
0.0
  9
$LIMMIN
 10
0.0
 20
0.0
  9
$LIMMAX
 10
11.692913385800001
 20
8.2677165353999982
  9
$ORTHOMODE
 70
     0
  9
$REGENMODE
 70
     1
  9
$FILLMODE
 70
     1
  9
$QTEXTMODE
 70
     0
  9
$MIRRTEXT
 70
     0
  9
$DRAGMODE
 70
     2
  9
$LTSCALE
 40
0.6431102362
  9
$OSMODE
 70
  3071
  9
$ATTMODE
 70
     1
  9
$TEXTSIZE
 40
0.2
  9
$TRACEWID
 40
0.05
  9
$TEXTSTYLE
  7
STANDARD
  9
$CLAYER
  8
0
  9
$CELTYPE
  6
BYLAYER
  9
$CECOLOR
 62
   256
  9
$DIMSCALE
 40
1.0
  9
$DIMASZ
 40
0.1875
  9
$DIMEXO
 40
0.0625
  9
$DIMDLI
 40
0.4443307087
  9
$DIMRND
 40
0.0
  9
$DIMDLE
 40
0.0
  9
$DIMEXE
 40
0.125
  9
$DIMTP
 40
0.01
  9
$DIMTM
 40
0.01
  9
$DIMTXT
 40
1.0
  9
$DIMCEN
 40
0.1052362205
  9
$DIMTSZ
 40
0.0
  9
$DIMTOL
 70
     1
  9
$DIMLIM
 70
     0
  9
$DIMTIH
 70
     1
  9
$DIMTOH
 70
     1
  9
$DIMSE1
 70
     0
  9
$DIMSE2
 70
     0
  9
$DIMTAD
 70
     0
  9
$DIMZIN
 70
     0
  9
$DIMBLK
  1

  9
$DIMASO
 70
     1
  9
$DIMSHO
 70
     1
  9
$DIMPOST
  1
\X
  9
$DIMAPOST
  1

  9
$DIMALT
 70
     1
  9
$DIMALTD
 70
     2
  9
$DIMALTF
 40
25.399999999999999
  9
$DIMLFAC
 40
1.0
  9
$DIMTOFL
 70
     0
  9
$DIMTVP
 40
0.0
  9
$DIMTIX
 70
     0
  9
$DIMSOXD
 70
     0
  9
$DIMSAH
 70
     0
  9
$DIMBLK1
  1

  9
$DIMBLK2
  1

  9
$DIMSTYLE
  2
STANDARD
  9
$DIMCLRD
 70
     0
  9
$DIMCLRE
 70
     0
  9
$DIMCLRT
 70
     0
  9
$DIMTFAC
 40
1.0
  9
$DIMGAP
 40
0.09
  9
$LUNITS
 70
     2
  9
$LUPREC
 70
     4
  9
$SKETCHINC
 40
0.1
  9
$FILLETRAD
 40
0.0
  9
$AUNITS
 70
     0
  9
$AUPREC
 70
     0
  9
$MENU
  1
.
  9
$ELEVATION
 40
0.0
  9
$PELEVATION
 40
0.0
  9
$THICKNESS
 40
0.0
  9
$LIMCHECK
 70
     0
  9
$BLIPMODE
 70
     0
  9
$CHAMFERA
 40
0.0
  9
$CHAMFERB
 40
0.0
  9
$SKPOLY
 70
     0
  9
$TDCREATE
 40
2458148.7175369682
  9
$TDUPDATE
 40
2458148.7634731252
  9
$TDINDWG
 40
0.0445421991
  9
$TDUSRTIMER
 40
0.0445421991
  9
$USRTIMER
 70
     1
  9
$ANGBASE
 50
0.0
  9
$ANGDIR
 70
     0
  9
$PDMODE
 70
     0
  9
$PDSIZE
 40
0.3125
  9
$PLINEWID
 40
0.0
  9
$COORDS
 70
     1
  9
$SPLFRAME
 70
     0
  9
$SPLINETYPE
 70
     6
  9
$SPLINESEGS
 70
     8
  9
$ATTDIA
 70
     1
  9
$ATTREQ
 70
     1
  9
$HANDLING
 70
     1
  9
$HANDSEED
  5
AC82
  9
$SURFTAB1
 70
     6
  9
$SURFTAB2
 70
     6
  9
$SURFTYPE
 70
     6
  9
$SURFU
 70
     6
  9
$SURFV
 70
     6
  9
$UCSNAME
  2

  9
$UCSORG
 10
0.0
 20
0.0
 30
0.0
  9
$UCSXDIR
 10
1.0
 20
0.0
 30
0.0
  9
$UCSYDIR
 10
0.0
 20
1.0
 30
0.0
  9
$PUCSNAME
  2

  9
$PUCSORG
 10
0.0
 20
0.0
 30
0.0
  9
$PUCSXDIR
 10
1.0
 20
0.0
 30
0.0
  9
$PUCSYDIR
 10
0.0
 20
1.0
 30
0.0
  9
$USERI1
 70
     0
  9
$USERI2
 70
     0
  9
$USERI3
 70
     0
  9
$USERI4
 70
     0
  9
$USERI5
 70
     0
  9
$USERR1
 40
0.0
  9
$USERR2
 40
0.0
  9
$USERR3
 40
0.0
  9
$USERR4
 40
0.0
  9
$USERR5
 40
0.0
  9
$WORLDVIEW
 70
     1
  9
$SHADEDGE
 70
     3
  9
$SHADEDIF
 70
    70
  9
$TILEMODE
 70
     1
  9
$MAXACTVP
 70
    64
  9
$PLIMCHECK
 70
     0
  9
$PEXTMIN
 10
1.0000000000000000E+020
 20
1.0000000000000000E+020
 30
1.0000000000000000E+020
  9
$PEXTMAX
 10
-1.0000000000000000E+020
 20
-1.0000000000000000E+020
 30
-1.0000000000000000E+020
  9
$PLIMMIN
 10
0.0
 20
0.0
  9
$PLIMMAX
 10
12.0
 20
9.0
  9
$UNITMODE
 70
     0
  9
$VISRETAIN
 70
     1
  9
$PLINEGEN
 70
     0
  9
$PSLTSCALE
 70
     1
  0
ENDSEC
  0
SECTION
  2
TABLES
  0
TABLE
  2
VPORT
 70
     1
  0
VPORT
  2
*ACTIVE
 70
     0
 10
0.0
 20
0.0
 11
1.0
 21
1.0
 12
0.0
 22
0.0
 13
0.0
 23
0.0
 14
1.0
 24
1.0
 15
0.0
 25
0.0
 16
-0.0000000000000284
 26
0.0
 36
145.67460610375429
 17
232.0371784151744
 27
87.621385840700469
 37
0.0
 40
51.816012679678941
 41
2.0983240223463682
 42
50.0
 43
0.0
 44
0.0
 50
0.0
 51
0.0
 71
     0
 72
   100
 73
     1
 74
     1
 75
     0
 76
     0
 77
     0
 78
     0
  0
ENDTAB
  0
TABLE
  2
LTYPE
 70
     2
  0
LTYPE
  2
CONTINUOUS
 70
     0
  3
Solid line
 72
    65
 73
     0
 40
0.0
  0
LTYPE
  2
PHANTOM2
 70
     0
  3
___ _ _ ___ _ _ ___ _ _ ___ _ _
 72
    65
 73
     6
 40
1.25
 49
0.625
 49
-0.125
 49
0.125
 49
-0.125
 49
0.125
 49
-0.125
  0
ENDTAB
  0
TABLE
  2
LAYER
 70
     2
  0
LAYER
  2
0
 70
     0
 62
   255
  6
CONTINUOUS
  0
LAYER
  2
DEFPOINTS
 70
     0
 62
     7
  6
CONTINUOUS
  0
ENDTAB
  0
TABLE
  2
STYLE
 70
     1
  0
STYLE
  2
STANDARD
 70
     0
 40
0.0
 41
0.8
 50
0.0
 71
     0
 42
0.2
  3
txt
  4

  0
ENDTAB
  0
TABLE
  2
VIEW
 70
     0
  0
ENDTAB
  0
TABLE
  2
UCS
 70
     0
  0
ENDTAB
  0
TABLE
  2
APPID
 70
     9
  0
APPID
  2
ACAD
 70
     0
  0
APPID
  2
ACAD_MLEADERVER
 70
     0
  0
APPID
  2
ACAD_EXEMPT_FROM_CAD_STANDARDS
 70
     0
  0
APPID
  2
ACAECLAYERSTANDARD
 70
     0
  0
APPID
  2
ACCMTRANSPARENCY
 70
     0
  0
APPID
  2
ACAD_DSTYLE_DIMJAG
 70
     0
  0
APPID
  2
ACAD_DSTYLE_DIMTALN
 70
     0
  0
APPID
  2
ACAD_NAV_VCDISPLAY
 70
     0
  0
APPID
  2
AcDbAttr
 70
     0
  0
ENDTAB
  0
TABLE
  2
DIMSTYLE
 70
     1
  0
DIMSTYLE
  2
STANDARD
 70
     0
  3

  4

  5

  6

  7

 40
1.0
 41
0.1875
 42
0.0625
 43
0.38
 44
0.125
 45
0.0
 46
0.0
 47
0.01
 48
0.01
140
0.15625
141
0.09
142
0.0
143
25.399999999999999
144
1.0
145
0.0
146
1.0
147
0.09
 71
     1
 72
     0
 73
     1
 74
     1
 75
     0
 76
     0
 77
     0
 78
     4
170
     0
171
     2
172
     0
173
     0
174
     0
175
     0
176
     0
177
     0
178
     0
  0
ENDTAB
  0
ENDSEC
  0
SECTION
  2
BLOCKS
  0
BLOCK
  8
0
  2
$MODEL_SPACE
 70
     0
 10
0.0
 20
0.0
 30
0.0
  3
$MODEL_SPACE
  1

  0
ENDBLK
  5
21
  8
0
  0
BLOCK
 67
     1
  8
0
  2
$PAPER_SPACE
 70
     0
 10
0.0
 20
0.0
 30
0.0
  3
$PAPER_SPACE
  1

  0
ENDBLK
  5
1D
 67
     1
  8
0
  0
ENDSEC
  0
SECTION
  2
ENTITIES
  0
ARC
  5
A521
  8
0
 10
232.03717841517431
 20
83.363853190100002
 30
0.0
 40
21.001893939399999
 50
55.906141220300249
 51
124.0938587796997
  0
LINE
  5
AAA3
  8
0
 10
214.98674103992209
 20
101.27040114077229
 30
0.0
 11
214.9636929464221
 21
102.5907915182724
 31
0.0
  0
LINE
  5
AAA4
  8
0
 10
215.60725787782209
 20
101.2407915182723
 30
0.0
 11
215.60725787782209
 21
101.1207915182724
 31
0.0
  0
LINE
  5
AAA5
  8
0
 10
215.60725787782209
 20
74.940791518272349
 30
0.0
 11
215.60725787782209
 21
74.74079151827236
 31
0.0
  0
LINE
  5
AAA6
  8
0
 10
215.68725787782211
 20
101.0907915182724
 30
0.0
 11
215.68725787782211
 21
74.970791518272378
 31
0.0
  0
LINE
  5
AAA7
  8
0
 10
215.68725787782211
 20
74.710791518272387
 30
0.0
 11
215.68725787782211
 21
70.466135694872364
 31
0.0
  0
LINE
  5
AAA8
  8
0
 10
215.81225787782211
 20
75.000791518272351
 30
0.0
 11
215.81225787782211
 21
77.480790675472392
 31
0.0
  0
LINE
  5
AAA9
  8
0
 10
216.09167703002211
 20
70.569362952572334
 30
0.0
 11
216.0915741454584
 21
73.599466707862391
 31
0.0
  0
LINE
  5
AAAA
  8
0
 10
214.11811333872211
 20
105.8722922664724
 30
0.0
 11
214.0608232261221
 21
102.5907915182724
 31
0.0
  0
LINE
  5
AAAB
  8
0
 10
215.6882671085221
 20
101.2696921038723
 30
0.0
 11
215.81046139962211
 21
104.7688787751723
 31
0.0
  0
LINE
  5
AAAC
  8
0
 10
214.14725787782211
 20
70.24079151827236
 30
0.0
 11
215.4907488907221
 21
70.266166162872352
 31
0.0
  0
LINE
  5
AAAD
  8
0
 10
214.14725787782211
 20
70.24079151827236
 30
0.0
 11
249.92709895252551
 21
70.240791518272374
 31
0.0
  0
LINE
  5
AAAE
  8
0
 10
215.6572578778221
 20
74.74079151827236
 30
0.0
 11
215.60725787782209
 21
74.74079151827236
 31
0.0
  0
LINE
  5
AAAF
  8
0
 10
215.60725787782209
 20
74.940791518272349
 30
0.0
 11
215.6572578778221
 21
74.940791518272349
 31
0.0
  0
LINE
  5
AAB0
  8
0
 10
215.80225787782209
 20
74.99079151827236
 30
0.0
 11
215.68725787782211
 21
74.99079151827236
 31
0.0
  0
LINE
  5
AAB1
  8
0
 10
215.80225787782209
 20
77.49079151827236
 30
0.0
 11
215.68725787782211
 21
77.49079151827236
 31
0.0
  0
LINE
  5
AAB2
  8
0
 10
215.6572578778221
 20
101.1207915182723
 30
0.0
 11
215.60725787782209
 21
101.1207915182723
 31
0.0
  0
LINE
  5
AAB3
  8
0
 10
215.65828951313301
 20
101.2407915182723
 30
0.0
 11
215.01673879572209
 21
101.2407915182723
 31
0.0
  0
LINE
  5
AAB4
  8
0
 10
219.2928507951743
 20
101.75780308829999
 30
0.0
 11
216.0674471548221
 21
101.7578474770724
 31
0.0
  0
LINE
  5
AAB5
  8
0
 10
214.0608232261221
 20
102.5907915182724
 30
0.0
 11
214.9636929464221
 21
102.5907915182724
 31
0.0
  0
LINE
  5
AAB6
  8
0
 10
219.1750409527327
 20
105.13074712949999
 30
0.0
 11
216.1852329883221
 21
105.1307915182724
 31
0.0
  0
LINE
  5
AAB7
  8
0
 10
214.39755341182439
 20
106.24079154237241
 30
0.0
 11
249.67680341852429
 21
106.24079154237231
 31
0.0
  0
ARC
  5
AAB8
  8
0
 10
217.92225787782209
 20
59.992791518272341
 30
0.0
 40
15.878
 50
91.027364515499542
 51
96.815510650300141
  0
ARC
  5
AAB9
  8
0
 10
215.48726108740311
 20
70.466132538585484
 30
0.0
 40
0.1999967904438816
 50
270.99924872217969
 51
0.0009042241049859
  0
ARC
  5
AABA
  8
0
 10
217.27415554435041
 20
76.240611958796407
 30
0.0
 40
1.3090160263868651
 50
339.30885007250509
 51
20.716946682974179
  0
ARC
  5
AABB
  8
0
 10
217.273035767322
 20
76.24079151827236
 30
0.0
 40
1.2500000040000001
 50
339.3077343201013
 51
20.692265697899259
  0
ARC
  5
AABC
  8
0
 10
218.08323945396549
 20
75.934889740789899
 30
0.0
 40
0.4440982277075743
 50
200.70103534946111
 51
339.32546902307342
  0
ARC
  5
AABD
  8
0
 10
218.08317155842209
 20
76.546791518272343
 30
0.0
 40
0.4440000000000001
 50
20.69227573760126
 51
159.30772426239869
  0
ARC
  5
AABE
  8
0
 10
218.0831715633862
 20
76.546791511090916
 30
0.0
 40
0.3840000018814456
 50
20.692244321153151
 51
159.30775626151569
  0
ARC
  5
AABF
  8
0
 10
218.08317155842209
 20
75.934791532635231
 30
0.0
 40
0.3840000090628904
 50
200.6922450618371
 51
339.3077549967561
  0
ARC
  5
AAC0
  8
0
 10
216.0683644928221
 20
76.977291518272395
 30
0.0
 40
0.256106615
 50
180.0
 51
263.1844893496999
  0
ARC
  5
AAC1
  8
0
 10
216.0683644928221
 20
75.504291518272382
 30
0.0
 40
0.256106615
 50
96.815510650300141
 51
180.0
  0
ARC
  5
AAC2
  8
0
 10
215.6572578778221
 20
74.970791518272378
 30
0.0
 40
0.03
 50
270.0
 51
0.0
  0
ARC
  5
AAC3
  8
0
 10
215.6572578778221
 20
74.710791518272387
 30
0.0
 40
0.03
 50
0.0
 51
90.0
  0
ARC
  5
AAC4
  8
0
 10
215.80225787779699
 20
77.480791518211774
 30
0.0
 40
0.0100000000606226
 50
359.99517145904019
 51
89.999999856107436
  0
ARC
  5
AAC5
  8
0
 10
215.80225787782209
 20
75.000791518272351
 30
0.0
 40
0.01
 50
270.0
 51
0.0
  0
ARC
  5
AAC6
  8
0
 10
218.8933073495221
 20
76.24079151827236
 30
0.0
 40
1.3100000000000001
 50
159.30772426239869
 51
200.69227573760119
  0
ARC
  5
AAC7
  8
0
 10
218.8933072775329
 20
76.24079150512982
 30
0.0
 40
1.249999932010794
 50
159.30773259078759
 51
200.69226630030869
  0
ARC
  5
AAC8
  8
0
 10
217.92225787782209
 20
92.48879151827235
 30
0.0
 40
15.878
 50
263.1844893496999
 51
268.97263548450042
  0
ARC
  5
AAC9
  8
0
 10
214.4930570326344
 20
105.8657915003556
 30
0.0
 40
0.3750000420166964
 50
90.000006373182629
 51
179.00670676232301
  0
ARC
  5
AACA
  8
0
 10
216.0674471603221
 20
101.3828474770724
 30
0.0
 40
0.375
 50
90.000000839000421
 51
177.9999999999996
  0
ARC
  5
AACB
  8
0
 10
216.18523296172211
 20
104.7557915182724
 30
0.0
 40
0.3750000000000009
 50
89.999995935817395
 51
178.00000829849941
  0
ARC
  5
AACC
  8
0
 10
215.6572578778221
 20
101.0907915182724
 30
0.0
 40
0.03
 50
0.0
 51
90.0
  0
ARC
  5
AACD
  8
0
 10
215.01673900625491
 20
101.27079203125859
 30
0.0
 40
0.030000512986938
 50
180.74655419602081
 51
269.99959791873022
  0
CIRCLE
  5
AACE
  8
0
 10
232.03717841517431
 20
89.819884009199995
 30
0.0
 40
1.6876246598999991
  0
LINE
  5
AACF
  8
0
 10
214.0371784151744
 20
68.995146286772396
 30
0.0
 11
214.0371784151744
 21
105.8808316949052
 31
0.0
  0
ARC
  5
AAD0
  8
0
 10
214.41085778695859
 20
105.86709658697529
 30
0.0
 40
0.3739317131334563
 50
92.038996534221283
 51
177.89496114224869
  0
LINE
  5
AAD1
  8
0
 10
214.0371784151744
 20
68.995146286772396
 30
0.0
 11
214.14725787782211
 21
68.995146286772396
 31
0.0
  0
LINE
  5
AAD2
  8
0
 10
214.14725787782211
 20
68.995146286772396
 30
0.0
 11
214.14725787782211
 21
102.5907915182724
 31
0.0
  0
CIRCLE
  5
AAD3
  8
0
 10
232.03717841517431
 20
89.819884009199995
 30
0.0
 40
2.2057331015000008
  0
ARC
  5
AAD4
  8
0
 10
214.87557047206599
 20
70.270097903689063
 30
0.0
 40
0.0293064521095276
 50
270.12223501279061
 51
329.04086550864912
  0
ARC
  5
AAD5
  8
0
 10
215.52486953721359
 20
70.893910837138421
 30
0.0
 40
0.6531478139736843
 50
270.53520322659591
 51
330.20501053681602
  0
ARC
  5
AAD6
  8
0
 10
215.4505418745795
 20
73.633509742573651
 30
0.0
 40
0.641935589074533
 50
356.9600725205384
 51
68.361236306871845
  0
ARC
  5
AAD7
  8
0
 10
244.0372579637887
 20
-48187.058892474291
 30
0.0
 40
48261.687502531931
 50
89.994835913466702
 51
90.0336568307401
  0
ARC
  5
AAD8
  8
0
 10
215.65587450047681
 20
101.27329419216061
 30
0.0
 40
0.0325922704949396
 50
274.24938072350449
 51
353.65472456068068
  0
LINE
  5
AAD9
  8
0
 10
219.54981244613259
 20
104.76883635039999
 30
0.0
 11
219.67958398297429
 21
101.0534063133
 31
0.0
  0
ARC
  5
AADA
  8
0
 10
220.0541539808759
 20
101.06636713352501
 30
0.0
 40
0.3747941650893108
 50
181.9817501285971
 51
304.07409673294529
  0
ARC
  5
AADB
  8
0
 10
219.1750409527624
 20
104.75574712957361
 30
0.0
 40
0.3749999999264543
 50
2.0002919379966881
 51
90.000000004540112
  0
ARC
  5
AADC
  8
0
 10
219.29284469604559
 20
101.3828030882612
 30
0.0
 40
0.3750000000883251
 50
2.0003044140532782
 51
89.999068121773064
  0
LINE
  5
AADD
  8
0
 10
249.0876157904267
 20
101.27040114077229
 30
0.0
 11
249.11066388392661
 21
102.5907915182724
 31
0.0
  0
LINE
  5
AADE
  8
0
 10
248.46709895252661
 20
101.2407915182723
 30
0.0
 11
248.46709895252661
 21
101.1207915182724
 31
0.0
  0
LINE
  5
AADF
  8
0
 10
248.46709895252661
 20
74.940791518272349
 30
0.0
 11
248.46709895252661
 21
74.74079151827236
 31
0.0
  0
LINE
  5
AAE0
  8
0
 10
248.3870989525266
 20
101.0907915182724
 30
0.0
 11
248.3870989525266
 21
74.970791518272378
 31
0.0
  0
LINE
  5
AAE1
  8
0
 10
248.3870989525266
 20
74.710791518272387
 30
0.0
 11
248.3870989525266
 21
70.466135694872364
 31
0.0
  0
LINE
  5
AAE2
  8
0
 10
248.2620989525266
 20
75.000791518272351
 30
0.0
 11
248.2620989525266
 21
77.480790675472392
 31
0.0
  0
LINE
  5
AAE3
  8
0
 10
247.98267980032659
 20
70.569362952572334
 30
0.0
 11
247.98278268489031
 21
73.599466707862391
 31
0.0
  0
LINE
  5
AAE4
  8
0
 10
249.95624349162659
 20
105.8722922664724
 30
0.0
 11
250.01353360422661
 21
102.5907915182724
 31
0.0
  0
LINE
  5
AAE5
  8
0
 10
248.38608972182661
 20
101.2696921038723
 30
0.0
 11
248.26389543072659
 21
104.7688787751723
 31
0.0
  0
LINE
  5
AAE6
  8
0
 10
249.92709895252659
 20
70.24079151827236
 30
0.0
 11
248.5836079396266
 21
70.266166162872352
 31
0.0
  0
LINE
  5
AAE7
  8
0
 10
248.4170989525266
 20
74.74079151827236
 30
0.0
 11
248.46709895252661
 21
74.74079151827236
 31
0.0
  0
LINE
  5
AAE8
  8
0
 10
248.46709895252661
 20
74.940791518272349
 30
0.0
 11
248.4170989525266
 21
74.940791518272349
 31
0.0
  0
LINE
  5
AAE9
  8
0
 10
248.27209895252659
 20
74.99079151827236
 30
0.0
 11
248.3870989525266
 21
74.99079151827236
 31
0.0
  0
LINE
  5
AAEA
  8
0
 10
248.27209895252659
 20
77.49079151827236
 30
0.0
 11
248.3870989525266
 21
77.49079151827236
 31
0.0
  0
LINE
  5
AAEB
  8
0
 10
248.4170989525266
 20
101.1207915182723
 30
0.0
 11
248.46709895252661
 21
101.1207915182723
 31
0.0
  0
LINE
  5
AAEC
  8
0
 10
248.41606731721569
 20
101.2407915182723
 30
0.0
 11
249.05761803462661
 21
101.2407915182723
 31
0.0
  0
LINE
  5
AAED
  8
0
 10
244.78150603517429
 20
101.75780308829999
 30
0.0
 11
248.0069096755266
 21
101.7578474770724
 31
0.0
  0
LINE
  5
AAEE
  8
0
 10
250.01353360422661
 20
102.5907915182724
 30
0.0
 11
249.11066388392661
 21
102.5907915182724
 31
0.0
  0
LINE
  5
AAEF
  8
0
 10
244.899315877616
 20
105.13074712949999
 30
0.0
 11
247.88912384202661
 21
105.1307915182724
 31
0.0
  0
ARC
  5
AAF0
  8
0
 10
246.15209895252659
 20
59.992791518272341
 30
0.0
 40
15.878
 50
83.184489349699845
 51
88.972635484500458
  0
ARC
  5
AAF1
  8
0
 10
248.58709574294551
 20
70.466132538585484
 30
0.0
 40
0.1999967904438816
 50
179.999095775895
 51
269.00075127782031
  0
ARC
  5
AAF2
  8
0
 10
246.8002012859983
 20
76.240611958796407
 30
0.0
 40
1.3090160263868651
 50
159.2830533170258
 51
200.69114992749491
  0
ARC
  5
AAF3
  8
0
 10
246.80132106302671
 20
76.24079151827236
 30
0.0
 40
1.2500000040000001
 50
159.3077343021007
 51
200.6922656798987
  0
ARC
  5
AAF4
  8
0
 10
245.99111737638319
 20
75.934889740789899
 30
0.0
 40
0.4440982277075743
 50
200.6745309769266
 51
339.29896465053889
  0
ARC
  5
AAF5
  8
0
 10
245.99118527192661
 20
76.546791518272343
 30
0.0
 40
0.4440000000000001
 50
20.692275737601271
 51
159.30772426239869
  0
ARC
  5
AAF6
  8
0
 10
245.9911852669625
 20
76.546791511090916
 30
0.0
 40
0.3840000018814456
 50
20.692243738484262
 51
159.3077556788468
  0
ARC
  5
AAF7
  8
0
 10
245.99118527192661
 20
75.934791532635231
 30
0.0
 40
0.3840000090628904
 50
200.69224500324401
 51
339.30775493816282
  0
ARC
  5
AAF8
  8
0
 10
248.00599233752661
 20
76.977291518272395
 30
0.0
 40
0.256106615
 50
276.81551065030021
 51
0.000000000000007
  0
ARC
  5
AAF9
  8
0
 10
248.00599233752661
 20
75.504291518272382
 30
0.0
 40
0.256106615
 50
0.000000000000007
 51
83.184489349699845
  0
ARC
  5
AAFA
  8
0
 10
248.4170989525266
 20
74.970791518272378
 30
0.0
 40
0.03
 50
180.0
 51
270.0
  0
ARC
  5
AAFB
  8
0
 10
248.4170989525266
 20
74.710791518272387
 30
0.0
 40
0.03
 50
90.0
 51
180.0
  0
ARC
  5
AAFC
  8
0
 10
248.2720989525518
 20
77.480791518211774
 30
0.0
 40
0.0100000000606226
 50
90.000000143892564
 51
180.00482854095981
  0
ARC
  5
AAFD
  8
0
 10
248.27209895252659
 20
75.000791518272351
 30
0.0
 40
0.01
 50
180.0
 51
270.0
  0
ARC
  5
AAFE
  8
0
 10
245.1810494808266
 20
76.24079151827236
 30
0.0
 40
1.3100000000000001
 50
339.30772426239872
 51
20.692275737601271
  0
ARC
  5
AAFF
  8
0
 10
245.18104955281581
 20
76.24079150512982
 30
0.0
 40
1.249999932010794
 50
339.3077336996912
 51
20.692267409212349
  0
ARC
  5
AB00
  8
0
 10
246.15209895252659
 20
92.48879151827235
 30
0.0
 40
15.878
 50
271.02736451549953
 51
276.81551065030021
  0
ARC
  5
AB01
  8
0
 10
249.58129979771419
 20
105.8657915003556
 30
0.0
 40
0.3750000420166964
 50
0.9932932376770203
 51
89.999993626817357
  0
ARC
  5
AB02
  8
0
 10
248.0069096700266
 20
101.3828474770724
 30
0.0
 40
0.375
 50
2.0000000000004148
 51
89.999999160999593
  0
ARC
  5
AB03
  8
0
 10
247.88912386862671
 20
104.7557915182724
 30
0.0
 40
0.3750000000000009
 50
1.9999917015005579
 51
90.00000406418259
  0
ARC
  5
AB04
  8
0
 10
248.4170989525266
 20
101.0907915182724
 30
0.0
 40
0.03
 50
90.0
 51
180.0
  0
ARC
  5
AB05
  8
0
 10
249.0576178240938
 20
101.27079203125859
 30
0.0
 40
0.030000512986938
 50
270.00040208126978
 51
359.2534458039791
  0
LINE
  5
AB06
  8
0
 10
250.0371784151744
 20
68.995146286772396
 30
0.0
 11
250.0371784151744
 21
105.8808316949052
 31
0.0
  0
ARC
  5
AB07
  8
0
 10
249.66349904339
 20
105.86709658697509
 30
0.0
 40
0.373931713133687
 50
2.105038857783001
 51
87.961003465766808
  0
LINE
  5
AB08
  8
0
 10
250.0371784151744
 20
68.995146286772396
 30
0.0
 11
249.92709895252659
 21
68.995146286772396
 31
0.0
  0
LINE
  5
AB09
  8
0
 10
249.92709895252659
 20
68.995146286772396
 30
0.0
 11
249.92709895252659
 21
102.5907915182724
 31
0.0
  0
ARC
  5
AB0A
  8
0
 10
248.54948729313509
 20
70.893910837138421
 30
0.0
 40
0.6531478139736843
 50
209.79498946318401
 51
269.46479677340409
  0
ARC
  5
AB0B
  8
0
 10
248.62381495576921
 20
73.633509742573651
 30
0.0
 40
0.641935589074533
 50
111.6387636931281
 51
183.03992747946151
  0
ARC
  5
AB0C
  8
0
 10
248.41848232987189
 20
101.27329419216061
 30
0.0
 40
0.0325922704949396
 50
186.34527543931929
 51
265.75061927649551
  0
LINE
  5
AB0D
  8
0
 10
244.52454438421611
 20
104.76883635039999
 30
0.0
 11
244.3947728473743
 21
101.0534063133
 31
0.0
  0
ARC
  5
AB0E
  8
0
 10
244.02000142687649
 20
101.0664954777769
 30
0.0
 40
0.3749999251264249
 50
235.9061211288016
 51
357.99971627789
  0
ARC
  5
AB0F
  8
0
 10
244.8993158775863
 20
104.75574712957361
 30
0.0
 40
0.3749999999264543
 50
89.999999995459888
 51
177.99970806200329
  0
ARC
  5
AB10
  8
0
 10
244.78151213430311
 20
101.3828030882612
 30
0.0
 40
0.3750000000883251
 50
90.000931878226936
 51
177.99969558594671
  0
ATTDEF
  5
ABB6
  8
DEFPOINTS
 10
232.03426950315631
 20
106.2416253946285
 30
0.0
 40
0.001
  1
VIKRELL
  3

  2
MATERIAL
 70
     0
1001
AcDbAttr
1070
     0
1070
     1
  0
ATTDEF
  5
ABB7
  8
DEFPOINTS
 10
232.03426950315631
 20
106.24329206129519
 30
0.0
 40
0.001
  1
SHOWER STALL
  3

  2
PRODUCT
 70
     0
1001
AcDbAttr
1070
     0
1070
     1
  0
ATTDEF
  5
ABB8
  8
DEFPOINTS
 10
232.03426950315631
 20
106.2449587279619
 30
0.0
 40
0.001
  1
ACCORD
  3

  2
TRADENAME
 70
     0
1001
AcDbAttr
1070
     0
1070
     1
  0
ATTDEF
  5
ABB9
  8
DEFPOINTS
 10
232.03426950315631
 20
106.2466253946285
 30
0.0
 40
0.001
  1
72240103-V
  3

  2
MODELNUMBER
 70
     0
1001
AcDbAttr
1070
     0
1070
     1
  0
ENDSEC
  0
EOF
