  0
SECTION
  2
HEADER
  9
$ACADVER
  1
AC1009
  9
$INSBASE
 10
89.646024484099996
 20
-35.266933996792943
 30
0.0
  9
$EXTMIN
 10
54.394633624802481
 20
-35.273135653126417
 30
-0.0000000349181948
  9
$EXTMAX
 10
89.669798903268585
 20
41.658217178210343
 30
0.0000000814935746
  9
$LIMMIN
 10
0.0
 20
0.0
  9
$LIMMAX
 10
11.692913385800001
 20
8.2677165353999982
  9
$ORTHOMODE
 70
     0
  9
$REGENMODE
 70
     1
  9
$FILLMODE
 70
     1
  9
$QTEXTMODE
 70
     0
  9
$MIRRTEXT
 70
     0
  9
$DRAGMODE
 70
     2
  9
$LTSCALE
 40
0.6431102362
  9
$OSMODE
 70
  3071
  9
$ATTMODE
 70
     1
  9
$TEXTSIZE
 40
0.2
  9
$TRACEWID
 40
0.05
  9
$TEXTSTYLE
  7
STANDARD
  9
$CLAYER
  8
0
  9
$CELTYPE
  6
BYLAYER
  9
$CECOLOR
 62
   256
  9
$DIMSCALE
 40
1.0
  9
$DIMASZ
 40
0.1875
  9
$DIMEXO
 40
0.0625
  9
$DIMDLI
 40
0.4443307087
  9
$DIMRND
 40
0.0
  9
$DIMDLE
 40
0.0
  9
$DIMEXE
 40
0.125
  9
$DIMTP
 40
0.0
  9
$DIMTM
 40
0.0
  9
$DIMTXT
 40
1.0
  9
$DIMCEN
 40
0.1052362205
  9
$DIMTSZ
 40
0.0
  9
$DIMTOL
 70
     0
  9
$DIMLIM
 70
     0
  9
$DIMTIH
 70
     1
  9
$DIMTOH
 70
     1
  9
$DIMSE1
 70
     0
  9
$DIMSE2
 70
     0
  9
$DIMTAD
 70
     0
  9
$DIMZIN
 70
     0
  9
$DIMBLK
  1

  9
$DIMASO
 70
     1
  9
$DIMSHO
 70
     1
  9
$DIMPOST
  1
\X
  9
$DIMAPOST
  1

  9
$DIMALT
 70
     1
  9
$DIMALTD
 70
     2
  9
$DIMALTF
 40
25.399999999999999
  9
$DIMLFAC
 40
1.0
  9
$DIMTOFL
 70
     0
  9
$DIMTVP
 40
0.0
  9
$DIMTIX
 70
     0
  9
$DIMSOXD
 70
     0
  9
$DIMSAH
 70
     0
  9
$DIMBLK1
  1

  9
$DIMBLK2
  1

  9
$DIMSTYLE
  2
STANDARD
  9
$DIMCLRD
 70
     0
  9
$DIMCLRE
 70
     0
  9
$DIMCLRT
 70
     0
  9
$DIMTFAC
 40
1.0
  9
$DIMGAP
 40
0.09
  9
$LUNITS
 70
     2
  9
$LUPREC
 70
     4
  9
$SKETCHINC
 40
0.1
  9
$FILLETRAD
 40
0.0
  9
$AUNITS
 70
     0
  9
$AUPREC
 70
     0
  9
$MENU
  1
.
  9
$ELEVATION
 40
0.0
  9
$PELEVATION
 40
0.0
  9
$THICKNESS
 40
0.0
  9
$LIMCHECK
 70
     0
  9
$BLIPMODE
 70
     0
  9
$CHAMFERA
 40
0.0
  9
$CHAMFERB
 40
0.0
  9
$SKPOLY
 70
     0
  9
$TDCREATE
 40
2458142.47251875
  9
$TDUPDATE
 40
2458142.6260560881
  9
$TDINDWG
 40
0.1436394907
  9
$TDUSRTIMER
 40
0.1436394907
  9
$USRTIMER
 70
     1
  9
$ANGBASE
 50
0.0
  9
$ANGDIR
 70
     0
  9
$PDMODE
 70
     0
  9
$PDSIZE
 40
0.3125
  9
$PLINEWID
 40
0.0
  9
$COORDS
 70
     1
  9
$SPLFRAME
 70
     0
  9
$SPLINETYPE
 70
     6
  9
$SPLINESEGS
 70
     8
  9
$ATTDIA
 70
     1
  9
$ATTREQ
 70
     1
  9
$HANDLING
 70
     1
  9
$HANDSEED
  5
233C
  9
$SURFTAB1
 70
     6
  9
$SURFTAB2
 70
     6
  9
$SURFTYPE
 70
     6
  9
$SURFU
 70
     6
  9
$SURFV
 70
     6
  9
$UCSNAME
  2

  9
$UCSORG
 10
0.0
 20
0.0
 30
0.0
  9
$UCSXDIR
 10
1.0
 20
0.0
 30
0.0
  9
$UCSYDIR
 10
0.0
 20
1.0
 30
0.0
  9
$PUCSNAME
  2

  9
$PUCSORG
 10
0.0
 20
0.0
 30
0.0
  9
$PUCSXDIR
 10
1.0
 20
0.0
 30
0.0
  9
$PUCSYDIR
 10
0.0
 20
1.0
 30
0.0
  9
$USERI1
 70
     0
  9
$USERI2
 70
     0
  9
$USERI3
 70
     0
  9
$USERI4
 70
     0
  9
$USERI5
 70
     0
  9
$USERR1
 40
0.0
  9
$USERR2
 40
0.0
  9
$USERR3
 40
0.0
  9
$USERR4
 40
0.0
  9
$USERR5
 40
0.0
  9
$WORLDVIEW
 70
     1
  9
$SHADEDGE
 70
     3
  9
$SHADEDIF
 70
    70
  9
$TILEMODE
 70
     1
  9
$MAXACTVP
 70
    48
  9
$PLIMCHECK
 70
     0
  9
$PEXTMIN
 10
1.0000000000000000E+020
 20
1.0000000000000000E+020
 30
1.0000000000000000E+020
  9
$PEXTMAX
 10
-1.0000000000000000E+020
 20
-1.0000000000000000E+020
 30
-1.0000000000000000E+020
  9
$PLIMMIN
 10
0.0
 20
0.0
  9
$PLIMMAX
 10
12.0
 20
9.0
  9
$UNITMODE
 70
     0
  9
$VISRETAIN
 70
     1
  9
$PLINEGEN
 70
     0
  9
$PSLTSCALE
 70
     1
  0
ENDSEC
  0
SECTION
  2
TABLES
  0
TABLE
  2
VPORT
 70
     1
  0
VPORT
  2
*ACTIVE
 70
     0
 10
0.0
 20
0.0
 11
1.0
 21
1.0
 12
36.131736947324121
 22
-24.689949395539092
 13
0.0
 23
0.0
 14
1.0
 24
1.0
 15
0.0
 25
0.0
 16
-0.0000000000001066
 26
0.0
 36
466.40507869858868
 17
35.900479316711433
 27
27.882490158081051
 37
0.0
 40
77.431990702256527
 41
2.0792616720955479
 42
50.0
 43
0.0
 44
0.0
 50
0.0
 51
0.0
 71
     0
 72
   100
 73
     1
 74
     1
 75
     0
 76
     0
 77
     0
 78
     0
  0
ENDTAB
  0
TABLE
  2
LTYPE
 70
     8
  0
LTYPE
  2
CONTINUOUS
 70
     0
  3
Solid line
 72
    65
 73
     0
 40
0.0
  0
LTYPE
  2
PHANTOM2
 70
     0
  3
___ _ _ ___ _ _ ___ _ _ ___ _ _
 72
    65
 73
     6
 40
1.25
 49
0.625
 49
-0.125
 49
0.125
 49
-0.125
 49
0.125
 49
-0.125
  0
ENDTAB
  0
TABLE
  2
LAYER
 70
    27
  0
LAYER
  2
0
 70
     0
 62
     7
  6
CONTINUOUS
  0
LAYER
  2
DEFPOINTS
 70
     0
 62
     7
  6
CONTINUOUS
  0
ENDTAB
  0
TABLE
  2
STYLE
 70
     2
  0
STYLE
  2
STANDARD
 70
     0
 40
0.0
 41
0.8
 50
0.0
 71
     0
 42
0.2
  3
txt
  4

  0
ENDTAB
  0
TABLE
  2
VIEW
 70
     0
  0
ENDTAB
  0
TABLE
  2
UCS
 70
     0
  0
ENDTAB
  0
TABLE
  2
APPID
 70
     7
  0
APPID
  2
ACAD
 70
     0
  0
APPID
  2
ACAD_MLEADERVER
 70
     0
  0
APPID
  2
ACAD_NAV_VCDISPLAY
 70
     0
  0
APPID
  2
ACAD_DSTYLE_DIMJAG
 70
     0
  0
APPID
  2
ACAD_DSTYLE_DIMTALN
 70
     0
  0
APPID
  2
ACAD_EXEMPT_FROM_CAD_STANDARDS
 70
     0
  0
APPID
  2
AcDbAttr
 70
     0
  0
ENDTAB
  0
TABLE
  2
DIMSTYLE
 70
     2
  0
DIMSTYLE
  2
STANDARD
 70
     0
  3

  4

  5

  6

  7

 40
1.0
 41
0.1875
 42
0.0625
 43
0.38
 44
0.125
 45
0.0
 46
0.0
 47
1.5
 48
1.5
140
0.15625
141
0.09
142
0.0
143
25.399999999999999
144
1.0
145
0.0
146
1.0
147
0.09
 71
     0
 72
     0
 73
     1
 74
     1
 75
     0
 76
     0
 77
     0
 78
     4
170
     0
171
     2
172
     0
173
     0
174
     0
175
     0
176
     0
177
     0
178
     0
  0
ENDTAB
  0
ENDSEC
  0
SECTION
  2
BLOCKS
  0
BLOCK
  8
0
  2
$MODEL_SPACE
 70
     0
 10
0.0
 20
0.0
 30
0.0
  3
$MODEL_SPACE
  1

  0
ENDBLK
  5
21
  8
0
  0
BLOCK
 67
     1
  8
0
  2
$PAPER_SPACE
 70
     0
 10
0.0
 20
0.0
 30
0.0
  3
$PAPER_SPACE
  1

  0
ENDBLK
  5
1D
 67
     1
  8
0
  0
ENDSEC
  0
SECTION
  2
ENTITIES
  0
ARC
  5
1AA8
  8
0
 10
55.781024484105153
 20
-35.236933996802108
 30
0.0
 40
0.0299999999948497
 50
269.99999999016148
 51
0.0000000040575396
  0
LINE
  5
1AA9
  8
0
 10
55.781024484100001
 20
-35.266933996796958
 30
0.0
 11
55.746024484099991
 21
-35.266933996796972
 31
0.0
  0
LINE
  5
1AAA
  8
0
 10
55.746024484099991
 20
-35.266933996796972
 30
0.0
 11
55.646024484099989
 21
-35.166933996799983
 31
0.0
  0
LINE
  5
1AAB
  8
0
 10
55.646024484099989
 20
-35.166933996799983
 30
0.0
 11
55.646024484099989
 21
-31.17926753279999
 31
0.0
  0
ARC
  5
1AAC
  8
0
 10
56.021534360261079
 20
-31.17926753279999
 30
0.0
 40
0.3755098761610967
 50
90.077797583862775
 51
180.0000000000004
  0
LINE
  5
1AAD
  8
0
 10
55.811024484100002
 20
-35.236933996799991
 30
0.0
 11
55.811024484100002
 21
-31.179887743699979
 31
0.0
  0
ARC
  5
1AAE
  8
0
 10
56.02188165387669
 20
-31.179887743699979
 30
0.0
 40
0.2108571697766877
 50
90.232917599395336
 51
180.0000000000004
  0
LINE
  5
1AAF
  8
0
 10
56.021024484100003
 20
-30.969032316199989
 30
0.0
 11
56.021024484100003
 21
-30.301933996799981
 31
0.0
  0
ARC
  5
1AB0
  8
0
 10
56.521024484099989
 20
-30.301933996799988
 30
0.0
 40
0.5
 50
90.0
 51
179.9999999999996
  0
LINE
  5
1AB1
  8
0
 10
56.521024484099989
 20
-29.801933996799981
 30
0.0
 11
89.6460244840965
 21
-29.801933996799981
 31
0.0
  0
ARC
  5
1AB7
  8
0
 10
56.136536846246031
 20
-30.716194332301821
 30
0.0
 40
0.2948732720881094
 50
239.96801846004701
 51
267.39585598848629
  0
LINE
  5
1AB8
  8
0
 10
56.12313920830001
 20
-31.010763084699981
 30
0.0
 11
57.108437144903498
 21
-30.969283969399999
 31
0.0
  0
LINE
  5
1AC7
  8
0
 10
55.811024484100002
 20
-35.016933996799992
 30
0.0
 11
56.061048724810938
 21
-32.159143848985877
 31
0.0
  0
ARC
  5
1AC8
  8
0
 10
56.559146073929142
 20
-32.202721720373212
 30
0.0
 40
0.5000000000732252
 50
90.000000014798488
 51
174.99999999918199
  0
LINE
  5
1AC9
  8
0
 10
56.559146073800008
 20
-31.70272172029998
 30
0.0
 11
58.978858801800001
 21
-31.702721719675012
 31
0.0
  0
LINE
  5
1B3E
  8
0
 10
56.021024484100003
 20
-30.803758002799981
 30
0.0
 11
55.770132857726828
 21
-30.801930680506089
 31
0.0
  0
ARC
  5
1B3F
  8
0
 10
55.771043385401327
 20
-30.676915093560801
 30
0.0
 40
0.1250189027304308
 50
180.00866329713091
 51
269.58270427143282
  0
LINE
  5
1B40
  8
0
 10
55.646024484099989
 20
-30.67693399680126
 30
0.0
 11
55.646013143870611
 21
-30.601933997657319
 31
0.0
  0
LINE
  5
1B41
  8
0
 10
55.646013143870611
 20
-30.601933997657319
 30
0.0
 11
55.321642049399991
 21
-30.559108773599991
 31
0.0
  0
ARC
  5
1B42
  8
0
 10
55.646043519884373
 20
-29.351917290854779
 30
0.0
 40
1.250019035881041
 50
180.00071252153541
 51
254.9585821220131
  0
ARC
  5
1B43
  8
0
 10
56.010989196174449
 20
-30.439855731482499
 30
0.0
 40
0.2549564265561552
 50
180.46704902377769
 51
272.2557902241295
  0
LINE
  5
1B58
  8
0
 10
57.750453761098647
 20
-29.801933996799981
 30
0.0
 11
57.756024484099989
 21
-29.389925490699991
 31
0.0
  0
LINE
  5
1B59
  8
0
 10
57.756024484099989
 20
-29.389925490699991
 30
0.0
 11
57.841024484099989
 21
-29.391562457100001
 31
0.0
  0
LINE
  5
1B5A
  8
0
 10
57.841024484099989
 20
-29.391562457100001
 30
0.0
 11
57.846570185799997
 21
-29.801933996700001
 31
0.0
  0
LINE
  5
1B5B
  8
0
 10
60.750926853626211
 20
-29.801933996799981
 30
0.0
 11
60.756024484099989
 21
-29.42491523
 31
0.0
  0
LINE
  5
1B5C
  8
0
 10
60.756024484099989
 20
-29.42491523
 30
0.0
 11
60.841024484099989
 21
-29.42655219640001
 31
0.0
  0
LINE
  5
1B5D
  8
0
 10
60.841024484099989
 20
-29.42655219640001
 30
0.0
 11
60.846097339519417
 21
-29.801933996799981
 31
0.0
  0
LINE
  5
1B5E
  8
0
 10
63.750947384494069
 20
-29.801933996799981
 30
0.0
 11
63.756024484099989
 21
-29.426433684999999
 31
0.0
  0
LINE
  5
1B5F
  8
0
 10
63.756024484099989
 20
-29.426433684999999
 30
0.0
 11
63.841024484099989
 21
-29.428070651399999
 31
0.0
  0
LINE
  5
1B60
  8
0
 10
63.841024484099989
 20
-29.428070651399999
 30
0.0
 11
63.84607681933791
 21
-29.801933996799981
 31
0.0
  0
LINE
  5
1B61
  8
0
 10
66.750967915360576
 20
-29.801933996799981
 30
0.0
 11
66.756024484099996
 21
-29.4279521399
 31
0.0
  0
LINE
  5
1B62
  8
0
 10
66.756024484099996
 20
-29.4279521399
 30
0.0
 11
66.841024484099989
 21
-29.4295891063
 31
0.0
  0
LINE
  5
1B63
  8
0
 10
66.841024484099989
 20
-29.4295891063
 30
0.0
 11
66.846056299157766
 21
-29.801933996799981
 31
0.0
  0
LINE
  5
1B64
  8
0
 10
69.750988446227055
 20
-29.801933996799981
 30
0.0
 11
69.756024484099996
 21
-29.429470594800001
 31
0.0
  0
LINE
  5
1B65
  8
0
 10
69.756024484099996
 20
-29.429470594800001
 30
0.0
 11
69.841024484099975
 21
-29.431107561200001
 31
0.0
  0
LINE
  5
1B66
  8
0
 10
69.841024484099975
 20
-29.431107561200001
 30
0.0
 11
69.846035778977608
 21
-29.801933996799981
 31
0.0
  0
LINE
  5
1B67
  8
0
 10
72.751008977094941
 20
-29.801933996799981
 30
0.0
 11
72.756024484099996
 21
-29.430989049800001
 31
0.0
  0
LINE
  5
1B68
  8
0
 10
72.756024484099996
 20
-29.430989049800001
 30
0.0
 11
72.841024484099989
 21
-29.4326260162
 31
0.0
  0
LINE
  5
1B69
  8
0
 10
72.841024484099989
 20
-29.4326260162
 30
0.0
 11
72.846015258796115
 21
-29.801933996799981
 31
0.0
  0
LINE
  5
1B6A
  8
0
 10
75.751029507961448
 20
-29.801933996799981
 30
0.0
 11
75.756024484099996
 21
-29.432507504699998
 31
0.0
  0
LINE
  5
1B6B
  8
0
 10
75.756024484099996
 20
-29.432507504699998
 30
0.0
 11
75.841024484099989
 21
-29.434144471100002
 31
0.0
  0
LINE
  5
1B6C
  8
0
 10
75.841024484099989
 20
-29.434144471100002
 30
0.0
 11
75.845994738615957
 21
-29.801933996799981
 31
0.0
  0
LINE
  5
1B6D
  8
0
 10
78.751050038829305
 20
-29.801933996799981
 30
0.0
 11
78.756024484099996
 21
-29.434025959700001
 31
0.0
  0
LINE
  5
1B6E
  8
0
 10
78.756024484099996
 20
-29.434025959700001
 30
0.0
 11
78.841024484099989
 21
-29.435662926100001
 31
0.0
  0
LINE
  5
1B6F
  8
0
 10
78.841024484099989
 20
-29.435662926100001
 30
0.0
 11
78.845974218434478
 21
-29.801933996799981
 31
0.0
  0
LINE
  5
1B70
  8
0
 10
81.751070569695784
 20
-29.801933996799981
 30
0.0
 11
81.756024484100024
 21
-29.435544414599999
 31
0.0
  0
LINE
  5
1B71
  8
0
 10
81.756024484100024
 20
-29.435544414599999
 30
0.0
 11
81.841024484100004
 21
-29.437181380999998
 31
0.0
  0
LINE
  5
1B72
  8
0
 10
81.841024484100004
 20
-29.437181380999998
 30
0.0
 11
81.845953698254334
 21
-29.801933996799981
 31
0.0
  0
LINE
  5
1B73
  8
0
 10
89.646024484099996
 20
41.6551461663
 30
0.0
 11
85.226263137199993
 21
41.500804699100001
 31
0.0
  0
ARC
  5
1B74
  8
0
 10
85.269873807118955
 20
40.251958509433557
 30
0.0
 40
1.2496074167414111
 50
91.999999999953133
 51
181.99587915193109
  0
LINE
  5
1B75
  8
0
 10
84.021024484099996
 20
40.208437659600008
 30
0.0
 11
83.90607306359999
 21
40.206328733100008
 31
0.0
  0
ARC
  5
1B76
  8
0
 10
83.911746096328073
 20
40.010592742117822
 30
0.0
 40
0.1958181847175917
 50
91.660143661172484
 51
178.20048411821571
  0
LINE
  5
1B77
  8
0
 10
83.716024484100004
 20
40.073008790199992
 30
0.0
 11
83.716024484100004
 21
39.698066003200012
 31
0.0
  0
LINE
  5
1B78
  8
0
 10
83.716024484100004
 20
39.698066003200012
 30
0.0
 11
82.783216235300017
 21
33.823066003200012
 31
0.0
  0
LINE
  5
1B79
  8
0
 10
82.783216235300017
 20
33.823066003200012
 30
0.0
 11
82.816024477199988
 21
-29.801933996799999
 31
0.0
  0
LINE
  5
1B7A
  8
0
 10
84.316024484100026
 20
-29.801933996799971
 30
0.0
 11
84.316024484100026
 21
40.10825116168057
 31
0.0
  0
LINE
  5
1B7B
  8
0
 10
89.646024484099996
 20
41.6551461663
 30
0.0
 11
89.646024484099996
 21
40.087998953400003
 31
0.0
  0
LINE
  5
1B7C
  8
0
 10
89.646024484099996
 20
40.087998953400003
 30
0.0
 11
88.207377156700005
 21
40.053694725099987
 31
0.0
  0
LINE
  5
1B7D
  8
0
 10
89.646024484099996
 20
40.2895001073
 30
0.0
 11
83.900270147500024
 21
40.094113256399993
 31
0.0
  0
ARC
  5
1B7E
  8
0
 10
83.902882316460875
 20
40.017297027131256
 30
0.0
 40
0.0768606304017035
 50
91.947617169290126
 51
180.48889320569961
  0
LINE
  5
1B7F
  8
0
 10
83.826024484100003
 20
40.016641198999999
 30
0.0
 11
83.826024484100003
 21
-29.804976310600001
 31
0.0
  0
LINE
  5
1B80
  8
0
 10
84.316024484100026
 20
-29.434761697799999
 30
0.0
 11
84.608086518379537
 21
-29.801933996799981
 31
0.0
  0
LINE
  5
1B81
  8
0
 10
87.831024484099999
 20
-29.801933996700001
 30
0.0
 11
87.831024484099999
 21
39.664961146400003
 31
0.0
  0
ARC
  5
1B82
  8
0
 10
88.219961710664109
 20
39.664961146400003
 30
0.0
 40
0.38893722656411
 50
91.854200761318026
 51
180.0
  0
LINE
  5
1B83
  8
0
 10
88.838343652578317
 20
40.068739982066063
 30
0.0
 11
87.831024484099999
 21
38.802366227299999
 31
0.0
  0
ARC
  5
1B84
  8
0
 10
81.687522987924297
 20
28.319923442082569
 30
0.0
 40
7.3618975260833199
 50
4.3522901517430821
 51
33.300115960238131
  0
ARC
  5
1B85
  8
0
 10
47.84574974425756
 20
25.032720167665399
 30
0.0
 40
41.361628611551438
 50
359.53641566093012
 51
5.3351850170624582
  0
LINE
  5
1B86
  8
0
 10
89.206024484099984
 20
24.698063859400001
 30
0.0
 11
89.206024484099984
 21
-28.05470665911383
 31
0.0
  0
ARC
  5
1B87
  8
0
 10
88.876931506668939
 20
-28.034384978250959
 30
0.0
 40
0.3297198617334068
 50
298.03348143773343
 51
356.46649867559961
  0
LINE
  5
1B88
  8
0
 10
89.031895701400003
 20
-28.3254198311
 30
0.0
 11
87.878583042351337
 21
-28.851014690642302
 31
0.0
  0
ARC
  5
1B89
  8
0
 10
87.908650928191875
 20
-28.922582215036329
 30
0.0
 40
0.0776272394640681
 50
112.78888794048891
 51
179.74063215641121
  0
LINE
  5
1B8A
  8
0
 10
87.831024484099999
 20
-29.434761697799999
 30
0.0
 11
88.123086518379523
 21
-29.801933996799981
 31
0.0
  0
LINE
  5
1B8B
  8
0
 10
84.316024484100026
 20
20.659093142100009
 30
0.0
 11
87.477320433999964
 21
20.769218508600009
 31
0.0
  0
ARC
  5
1B8C
  8
0
 10
87.464377199852365
 20
21.140771357774302
 30
0.0
 40
0.3717782229229412
 50
271.99512110412161
 51
350.46995799666632
  0
LINE
  5
1B8D
  8
0
 10
84.316024484105483
 20
19.510566003200001
 30
0.0
 11
87.464330886100015
 21
19.510566004299999
 31
0.0
  0
ARC
  5
1B8E
  8
0
 10
87.459668394417889
 20
19.133163135484061
 30
0.0
 40
0.3774316682780544
 50
10.294294448597361
 51
89.292195349026244
  0
LINE
  5
1B8F
  8
0
 10
84.316024488441215
 20
8.2340931421000079
 30
0.0
 11
87.477320438341224
 21
8.3442185085999991
 31
0.0
  0
ARC
  5
1B90
  8
0
 10
87.464377204193624
 20
8.715771357774301
 30
0.0
 40
0.3717782229229412
 50
271.99512110412161
 51
350.46995799666632
  0
LINE
  5
1B91
  8
0
 10
84.316024488446715
 20
7.0855660032000003
 30
0.0
 11
87.464330890441218
 21
7.0855660043000048
 31
0.0
  0
ARC
  5
1B92
  8
0
 10
87.459668398759106
 20
6.708163135484063
 30
0.0
 40
0.3774316682780544
 50
10.294294448597361
 51
89.292195349026244
  0
LINE
  5
1B93
  8
0
 10
84.316024484100026
 20
-19.9659068572
 30
0.0
 11
87.477320432199974
 21
-19.855781368900001
 31
0.0
  0
ARC
  5
1B94
  8
0
 10
87.459574371620675
 20
-19.478695935916772
 30
0.0
 40
0.3775027767238689
 50
272.6944152387
 51
349.72615926341211
  0
LINE
  5
1B95
  8
0
 10
84.316024484100026
 20
-21.161316727799999
 30
0.0
 11
87.490294075799994
 21
-21.382750742099962
 31
0.0
  0
ARC
  5
1B96
  8
0
 10
87.457777457813009
 20
-21.761288253401279
 30
0.0
 40
0.3799315437121447
 50
10.76363088899928
 51
85.090307747563543
  0
ARC
  5
1B97
  8
0
 10
83.585854608800389
 20
40.067818830525177
 30
0.0
 40
0.1302732977894538
 50
2.2832115731498939
 51
87.527473632988972
  0
LINE
  5
1B98
  8
0
 10
83.5914746423
 20
40.197970846799997
 30
0.0
 11
83.515972345742739
 21
40.197970846799997
 31
0.0
  0
LINE
  5
1B99
  8
0
 10
83.515972345742739
 20
40.197970846799997
 30
0.0
 11
83.473318723299997
 21
40.521821058599997
 31
0.0
  0
ARC
  5
1B9A
  8
0
 10
82.266627308448335
 20
40.198918634440361
 30
0.0
 40
1.249147767962173
 50
14.98096808606793
 51
89.954193472899149
  0
LINE
  5
1B9B
  8
0
 10
82.267625970399976
 20
41.448066003200012
 30
0.0
 11
55.644513864099991
 21
41.448066003200012
 31
0.0
  0
ARC
  5
1B9C
  8
0
 10
55.66944097985369
 20
40.174706430944688
 30
0.0
 40
1.273603533818134
 50
91.121471234952395
 51
179.01804673749569
  0
LINE
  5
1B9D
  8
0
 10
54.396024484099989
 20
40.196532784200002
 30
0.0
 11
54.396024484099989
 21
-29.351932835899991
 31
0.0
  0
LINE
  5
1B9E
  8
0
 10
55.756041240199998
 20
-30.437777466163261
 30
0.0
 11
55.756041240199998
 21
39.697657141600011
 31
0.0
  0
ARC
  5
1B9F
  8
0
 10
56.146299650747693
 20
39.697657141600018
 30
0.0
 40
0.3902584105476876
 50
90.092351321470346
 51
180.0000000000008
  0
LINE
  5
1BA0
  8
0
 10
56.145670618999979
 20
40.087915045199992
 30
0.0
 11
83.590983494363996
 21
40.087915045199992
 31
0.0
  0
ARC
  5
1BA1
  8
0
 10
83.591012802849647
 20
40.072920143908497
 30
0.0
 40
0.0149949299341021
 50
359.9542842145558
 51
90.111988092583061
  0
LINE
  5
1BA2
  8
0
 10
83.606007728010624
 20
40.072908179590478
 30
0.0
 11
83.594530760074235
 21
38.932875912343079
 31
0.0
  0
LINE
  5
1BA3
  8
0
 10
57.7985244841
 20
40.06160633999999
 30
0.0
 11
57.883524484100008
 21
40.06160633999999
 31
0.0
  0
LINE
  5
1BA4
  8
0
 10
57.883524484100008
 20
40.06160633999999
 30
0.0
 11
57.894954122381392
 21
40.026812655097707
 31
0.0
  0
LINE
  5
1BA5
  8
0
 10
57.894954122381392
 20
40.026812655097707
 30
0.0
 11
57.883524484100008
 21
38.762053283500002
 31
0.0
  0
LINE
  5
1BA6
  8
0
 10
57.883524484100008
 20
38.762053283500002
 30
0.0
 11
57.7985244841
 21
38.76041631710001
 31
0.0
  0
LINE
  5
1BA7
  8
0
 10
57.7985244841
 20
38.76041631710001
 30
0.0
 11
57.787066425699997
 21
40.026726129300002
 31
0.0
  0
LINE
  5
1BA8
  8
0
 10
57.787066425699997
 20
40.026726129300002
 30
0.0
 11
57.7985244841
 21
40.06160633999999
 31
0.0
  0
LINE
  5
1BA9
  8
0
 10
60.7985244841
 20
40.059247989900001
 30
0.0
 11
60.883524484100008
 21
40.059247989900001
 31
0.0
  0
LINE
  5
1BAA
  8
0
 10
60.883524484100008
 20
40.059247989900001
 30
0.0
 11
60.894954122381392
 21
40.024454304997697
 31
0.0
  0
LINE
  5
1BAB
  8
0
 10
60.894954122381392
 20
40.024454304997697
 30
0.0
 11
60.884078409565163
 21
38.789879250173982
 31
0.0
  0
LINE
  5
1BAC
  8
0
 10
60.884078409565163
 20
38.789879250173982
 30
0.0
 11
60.79913705637621
 21
38.791438045720952
 31
0.0
  0
LINE
  5
1BAD
  8
0
 10
60.79913705637621
 20
38.791438045720952
 30
0.0
 11
60.787066425700012
 21
40.024367779199977
 31
0.0
  0
LINE
  5
1BAE
  8
0
 10
60.787066425700012
 20
40.024367779199977
 30
0.0
 11
60.7985244841
 21
40.059247989900001
 31
0.0
  0
LINE
  5
1BAF
  8
0
 10
63.7985244841
 20
40.056889639799998
 30
0.0
 11
63.883524484100001
 21
40.056889639799998
 31
0.0
  0
LINE
  5
1BB0
  8
0
 10
63.883524484100001
 20
40.056889639799998
 30
0.0
 11
63.894954122381392
 21
40.022095954897701
 31
0.0
  0
LINE
  5
1BB1
  8
0
 10
63.894954122381392
 20
40.022095954897701
 30
0.0
 11
63.883524484100001
 21
38.789049520399999
 31
0.0
  0
LINE
  5
1BB2
  8
0
 10
63.883524484100001
 20
38.789049520399999
 30
0.0
 11
63.7985244841
 21
38.790609392100009
 31
0.0
  0
LINE
  5
1BB3
  8
0
 10
63.7985244841
 20
38.790609392100009
 30
0.0
 11
63.787066425699997
 21
40.022009429100002
 31
0.0
  0
LINE
  5
1BB4
  8
0
 10
63.787066425699997
 20
40.022009429100002
 30
0.0
 11
63.7985244841
 21
40.056889639799998
 31
0.0
  0
LINE
  5
1BB5
  8
0
 10
66.7985244841
 20
40.054531289800003
 30
0.0
 11
66.883524484099993
 21
40.054531289800003
 31
0.0
  0
LINE
  5
1BB6
  8
0
 10
66.883524484099993
 20
40.054531289800003
 30
0.0
 11
66.894954122381392
 21
40.019737604897713
 31
0.0
  0
LINE
  5
1BB7
  8
0
 10
66.894954122381392
 20
40.019737604897713
 30
0.0
 11
66.883524484099993
 21
38.788209625200011
 31
0.0
  0
LINE
  5
1BB8
  8
0
 10
66.883524484099993
 20
38.788209625200011
 30
0.0
 11
66.7985244841
 21
38.789769497000009
 31
0.0
  0
LINE
  5
1BB9
  8
0
 10
66.7985244841
 20
38.789769497000009
 30
0.0
 11
66.787066425700004
 21
40.019651079100001
 31
0.0
  0
LINE
  5
1BBA
  8
0
 10
66.787066425700004
 20
40.019651079100001
 30
0.0
 11
66.7985244841
 21
40.054531289800003
 31
0.0
  0
LINE
  5
1BBB
  8
0
 10
69.798524484099985
 20
40.0521729397
 30
0.0
 11
69.883524484100008
 21
40.0521729397
 31
0.0
  0
LINE
  5
1BBC
  8
0
 10
69.883524484100008
 20
40.0521729397
 30
0.0
 11
69.894954122381392
 21
40.017379254797717
 31
0.0
  0
LINE
  5
1BBD
  8
0
 10
69.894954122381392
 20
40.017379254797717
 30
0.0
 11
69.883524484100008
 21
38.787369730100011
 31
0.0
  0
LINE
  5
1BBE
  8
0
 10
69.883524484100008
 20
38.787369730100011
 30
0.0
 11
69.798524484099985
 21
38.788929601900008
 31
0.0
  0
LINE
  5
1BBF
  8
0
 10
69.798524484099985
 20
38.788929601900008
 30
0.0
 11
69.787066425700004
 21
40.017292728999998
 31
0.0
  0
LINE
  5
1BC0
  8
0
 10
69.787066425700004
 20
40.017292728999998
 30
0.0
 11
69.798524484099985
 21
40.0521729397
 31
0.0
  0
LINE
  5
1BC1
  8
0
 10
72.7985244841
 20
40.049814589599997
 30
0.0
 11
72.883524484100008
 21
40.049814589599997
 31
0.0
  0
LINE
  5
1BC2
  8
0
 10
72.883524484100008
 20
40.049814589599997
 30
0.0
 11
72.894954122381392
 21
40.0150209046977
 31
0.0
  0
LINE
  5
1BC3
  8
0
 10
72.894954122381392
 20
40.0150209046977
 30
0.0
 11
72.883524484100008
 21
38.78652983500001
 31
0.0
  0
LINE
  5
1BC4
  8
0
 10
72.883524484100008
 20
38.78652983500001
 30
0.0
 11
72.7985244841
 21
38.788089706800008
 31
0.0
  0
LINE
  5
1BC5
  8
0
 10
72.7985244841
 20
38.788089706800008
 30
0.0
 11
72.787066425700004
 21
40.014934378899987
 31
0.0
  0
LINE
  5
1BC6
  8
0
 10
72.787066425700004
 20
40.014934378899987
 30
0.0
 11
72.7985244841
 21
40.049814589599997
 31
0.0
  0
LINE
  5
1BC7
  8
0
 10
75.7985244841
 20
40.047456239599988
 30
0.0
 11
75.883524484100008
 21
40.047456239599988
 31
0.0
  0
LINE
  5
1BC8
  8
0
 10
75.883524484100008
 20
40.047456239599988
 30
0.0
 11
75.894954122381392
 21
40.012662554697712
 31
0.0
  0
LINE
  5
1BC9
  8
0
 10
75.894954122381392
 20
40.012662554697712
 30
0.0
 11
75.883524484100008
 21
38.785689939800001
 31
0.0
  0
LINE
  5
1BCA
  8
0
 10
75.883524484100008
 20
38.785689939800001
 30
0.0
 11
75.7985244841
 21
38.787249811600013
 31
0.0
  0
LINE
  5
1BCB
  8
0
 10
75.7985244841
 20
38.787249811600013
 30
0.0
 11
75.787066425700004
 21
40.012576028899993
 31
0.0
  0
LINE
  5
1BCC
  8
0
 10
75.787066425700004
 20
40.012576028899993
 30
0.0
 11
75.7985244841
 21
40.047456239599988
 31
0.0
  0
LINE
  5
1BCD
  8
0
 10
78.798524484099985
 20
40.045097889499999
 30
0.0
 11
78.883524484099993
 21
40.045097889499999
 31
0.0
  0
LINE
  5
1BCE
  8
0
 10
78.883524484099993
 20
40.045097889499999
 30
0.0
 11
78.894954122381364
 21
40.010304204597709
 31
0.0
  0
LINE
  5
1BCF
  8
0
 10
78.894954122381364
 20
40.010304204597709
 30
0.0
 11
78.883524484099993
 21
38.784850044700008
 31
0.0
  0
LINE
  5
1BD0
  8
0
 10
78.883524484099993
 20
38.784850044700008
 30
0.0
 11
78.7985244841
 21
38.786409916500013
 31
0.0
  0
LINE
  5
1BD1
  8
0
 10
78.7985244841
 20
38.786409916500013
 30
0.0
 11
78.78706642569999
 21
40.010217678799997
 31
0.0
  0
LINE
  5
1BD2
  8
0
 10
78.78706642569999
 20
40.010217678799997
 30
0.0
 11
78.798524484099985
 21
40.045097889499999
 31
0.0
  0
LINE
  5
1BD3
  8
0
 10
81.798524484099971
 20
40.042739539400003
 30
0.0
 11
81.883524484099993
 21
40.042739539400003
 31
0.0
  0
LINE
  5
1BD4
  8
0
 10
81.883524484099993
 20
40.042739539400003
 30
0.0
 11
81.894954122381364
 21
40.007945854497699
 31
0.0
  0
LINE
  5
1BD5
  8
0
 10
81.894954122381364
 20
40.007945854497699
 30
0.0
 11
81.884273404664043
 21
38.7839964058345
 31
0.0
  0
LINE
  5
1BD6
  8
0
 10
81.884273404664043
 20
38.7839964058345
 30
0.0
 11
81.79852472114095
 21
38.785553428905359
 31
0.0
  0
LINE
  5
1BD7
  8
0
 10
81.79852472114095
 20
38.785553428905359
 30
0.0
 11
81.787066425700004
 21
40.007859328699993
 31
0.0
  0
LINE
  5
1BD8
  8
0
 10
81.787066425700004
 20
40.007859328699993
 30
0.0
 11
81.798524484099971
 21
40.042739539400003
 31
0.0
  0
ARC
  5
1BD9
  8
0
 10
61.368119812603808
 20
-41.624779855331582
 30
0.0
 40
74.027991729507576
 50
82.874079545672174
 51
94.347777215639496
  0
ARC
  5
1BDA
  8
0
 10
67.006852959486793
 20
3.4793025417149148
 30
0.0
 40
28.572809842495889
 50
71.096458043666473
 51
82.874079545672174
  0
ARC
  5
1BDB
  8
0
 10
73.238648593258304
 20
21.677217102030362
 30
0.0
 40
9.3374421266024665
 50
38.808363604028749
 51
71.096458043666473
  0
ARC
  5
1BDC
  8
0
 10
77.538727636023978
 20
25.135603003122469
 30
0.0
 40
3.8191894307842298
 50
353.26725706882092
 51
38.808363604028749
  0
LINE
  5
1BDD
  8
0
 10
81.331579223499986
 20
24.687847775800002
 30
0.0
 11
81.334144119800001
 21
-28.481081423199999
 31
0.0
  0
ARC
  5
1BDE
  8
0
 10
80.825209041019775
 20
-28.460689174830929
 30
0.0
 40
0.5093434465153716
 50
279.28867308991988
 51
357.70550557045539
  0
ARC
  5
1BDF
  8
0
 10
80.497554847256467
 20
-27.149980784810001
 30
0.0
 40
1.8591161469481889
 50
269.55480733524939
 51
282.73623961414592
  0
LINE
  5
1BE0
  8
0
 10
80.483109515500004
 20
-29.009040810799998
 30
0.0
 11
55.756041240199991
 21
-29.009040612824489
 31
0.0
  0
LINE
  5
1CFD
  8
0
 10
89.646024486800002
 20
-29.801933996799999
 30
0.0
 11
89.598574777703504
 21
-31.1607158839
 31
0.0
  0
ARC
  5
1CFE
  8
0
 10
89.443638456303518
 20
-31.155290608800019
 30
0.0
 40
0.1550160199999721
 50
270.000081459093
 51
357.99454022960538
  0
LINE
  5
1CFF
  8
0
 10
89.443638676694377
 20
-31.31030662879985
 30
0.0
 11
89.338359123798568
 21
-31.310306778478878
 31
0.0
  0
ARC
  5
1D00
  8
0
 10
89.338358903406444
 20
-31.15528986988673
 30
0.0
 40
0.1550169085923091
 50
186.00096763530919
 51
270.00008145909379
  0
LINE
  5
1D01
  8
0
 10
89.184191467335665
 20
-31.171496152769429
 30
0.0
 11
89.165345819083768
 21
-30.992220911610481
 31
0.0
  0
LINE
  5
1D05
  8
0
 10
57.108437144903498
 20
-30.969283969399999
 30
0.0
 11
64.144313385703484
 21
-30.969283751500001
 31
0.0
  0
LINE
  5
1D06
  8
0
 10
64.144313321162215
 20
-30.969283751500011
 30
0.0
 11
64.1913410165035
 21
-31.050712293699998
 31
0.0
  0
ARC
  5
1D07
  8
0
 10
64.381899058805715
 20
-30.9406586771658
 30
0.0
 40
0.2200549158694416
 50
210.00786488950021
 51
269.98958549707783
  0
LINE
  5
1D08
  8
0
 10
64.381859060003507
 20
-31.160713589400011
 30
0.0
 11
64.910165691892047
 21
-31.16071785140306
 31
0.0
  0
ARC
  5
1D09
  8
0
 10
64.910471823236733
 20
-30.94122477947959
 30
0.0
 40
0.2194932854070978
 50
269.92008849072022
 51
330.07807561451892
  0
LINE
  5
1D0A
  8
0
 10
65.100707957003493
 20
-31.0507122936
 30
0.0
 11
65.147643591934326
 21
-30.969239559709958
 31
0.0
  0
LINE
  5
1D0B
  8
0
 10
65.147643591934326
 20
-30.969239559709958
 30
0.0
 11
74.144329014805606
 21
-30.969283601600001
 31
0.0
  0
LINE
  5
1D0C
  8
0
 10
74.144313108864338
 20
-30.969283383700009
 30
0.0
 11
74.191340804205595
 21
-31.0507119259
 31
0.0
  0
ARC
  5
1D0D
  8
0
 10
74.381898846507809
 20
-30.940658309365801
 30
0.0
 40
0.2200549158694416
 50
210.00786488950021
 51
269.98958549707783
  0
LINE
  5
1D0E
  8
0
 10
74.381858847705615
 20
-31.160713221599998
 30
0.0
 11
74.910165479594156
 21
-31.160717483603051
 31
0.0
  0
ARC
  5
1D0F
  8
0
 10
74.910471610938828
 20
-30.941224411679588
 30
0.0
 40
0.2194932854070978
 50
269.92008849072022
 51
330.07807561451892
  0
LINE
  5
1D10
  8
0
 10
75.100707744705602
 20
-31.050711925800002
 30
0.0
 11
75.147643379636435
 21
-30.96923919190996
 31
0.0
  0
LINE
  5
1D11
  8
0
 10
75.147643379636435
 20
-30.96923919190996
 30
0.0
 11
89.605293606703484
 21
-30.968314022600001
 31
0.0
  0
LINE
  5
1D14
  8
0
 10
56.559146076503509
 20
-31.702721720300001
 30
0.0
 11
58.978858804503503
 21
-31.702721719675029
 31
0.0
  0
ARC
  5
1D15
  8
0
 10
58.978858804568063
 20
-31.95272171946359
 30
0.0
 40
0.2499999997885638
 50
6.999999814492595
 51
90.000000014797664
  0
LINE
  5
1D16
  8
0
 10
59.226995342367189
 20
-31.922254384441469
 30
0.0
 11
59.392238412144422
 21
-33.268051225551687
 31
0.0
  0
ARC
  5
1D17
  8
0
 10
61.431781115993473
 20
-33.228305917116103
 30
0.0
 40
2.0399299327100762
 50
181.1164023308734
 51
267.95292344943539
  0
LINE
  5
1D18
  8
0
 10
61.358913543603499
 20
-35.266933996796297
 30
0.0
 11
86.412071797703504
 21
-35.266933996793327
 31
0.0
  0
ARC
  5
1D19
  8
0
 10
86.367049960116915
 20
-33.229388328385518
 30
0.0
 40
2.0380430114958541
 50
271.26580799102209
 51
3.035364108980914
  0
LINE
  5
1D1A
  8
0
 10
88.402233682317515
 20
-33.121469221658529
 30
0.0
 11
88.508122300702894
 21
-31.214848733211401
 31
0.0
  0
ARC
  5
1D1B
  8
0
 10
88.717834502926422
 20
-31.225839283965669
 30
0.0
 40
0.2099999999212244
 50
92.984703614387271
 51
176.99999993072069
  0
LINE
  5
1D1C
  8
0
 10
88.706899939857948
 20
-31.016124155046921
 30
0.0
 11
89.165348846818119
 21
-30.992220593521932
 31
0.0
  0
ARC
  5
1D1D
  8
0
 10
58.679606458423891
 20
-31.409776454481161
 30
0.0
 40
0.4886151497707968
 50
17.226124938565079
 51
64.35760658440995
  0
LINE
  5
1D1E
  8
0
 10
59.146304008501019
 20
-31.26507620797981
 30
0.0
 11
59.244921176470683
 21
-32.027221042774499
 31
0.0
  0
ARC
  5
1D1F
  8
0
 10
61.385171531216322
 20
-31.742508640536791
 30
0.0
 40
2.159104613052313
 50
187.57743248174111
 51
268.38155763867729
  0
LINE
  5
1D20
  8
0
 10
64.485433176775388
 20
-35.016933996831511
 30
0.0
 11
64.502900466727809
 21
-35.266933996795927
 31
0.0
  0
LINE
  5
1D21
  8
0
 10
65.128328486709776
 20
-35.266933996795849
 30
0.0
 11
65.111731876591421
 21
-35.021240453651089
 31
0.0
  0
LINE
  5
1D22
  8
0
 10
61.324191093903508
 20
-33.900751934599988
 30
0.0
 11
64.626096802168945
 21
-33.925986329982408
 31
0.0
  0
LINE
  5
1D23
  8
0
 10
64.549593396493776
 20
-32.341308694406322
 30
0.0
 11
64.532907933893767
 21
-32.431915685906318
 31
0.0
  0
LINE
  5
1D24
  8
0
 10
64.532907933893767
 20
-32.431915685906318
 30
0.0
 11
64.532119571643761
 21
-32.512250580356323
 31
0.0
  0
LINE
  5
1D25
  8
0
 10
64.532119571643761
 20
-32.512250580356323
 30
0.0
 11
64.633033801993776
 21
-34.030342295706319
 31
0.0
  0
LINE
  5
1D26
  8
0
 10
64.747906272503485
 20
-35.065823843899992
 30
0.0
 11
64.88824806962262
 21
-35.065823402500001
 31
0.0
  0
LINE
  5
1D27
  8
0
 10
64.88824806962262
 20
-35.065823402500001
 30
0.0
 11
64.846866222803513
 21
-33.929810093699999
 31
0.0
  0
LINE
  5
1D28
  8
0
 10
64.846866222803513
 20
-33.929810093699999
 30
0.0
 11
64.746329858993761
 21
-32.508796247006323
 31
0.0
  0
LINE
  5
1D29
  8
0
 10
64.746329858993761
 20
-32.508796247006323
 30
0.0
 11
64.734850375459146
 21
-32.433658347641597
 31
0.0
  0
LINE
  5
1D2A
  8
0
 10
64.734850375459146
 20
-32.433658347641597
 30
0.0
 11
64.705385345373955
 21
-32.342009075530441
 31
0.0
  0
LINE
  5
1D2B
  8
0
 10
64.705385345373955
 20
-32.342009075530441
 30
0.0
 11
64.549593396493776
 21
-32.341308694406322
 31
0.0
  0
LINE
  5
1D2C
  8
0
 10
64.633033692085078
 20
-34.030342296000342
 30
0.0
 11
64.747906272503485
 21
-35.065823843899992
 31
0.0
  0
LINE
  5
1D2D
  8
0
 10
64.846866222803513
 20
-33.929810093699999
 30
0.0
 11
67.631405104266364
 21
-33.962546390999357
 31
0.0
  0
LINE
  5
1D2E
  8
0
 10
67.555324812813907
 20
-32.38303835690273
 30
0.0
 11
67.539400733113894
 21
-32.469179527202733
 31
0.0
  0
LINE
  5
1D2F
  8
0
 10
67.539400733113894
 20
-32.469179527202733
 30
0.0
 11
67.535492515452987
 21
-32.519696299685521
 31
0.0
  0
LINE
  5
1D30
  8
0
 10
67.535492515452987
 20
-32.519696299685521
 30
0.0
 11
67.636406745802987
 21
-34.037788015035531
 31
0.0
  0
LINE
  5
1D31
  8
0
 10
67.761425948093915
 20
-35.254750757899977
 30
0.0
 11
67.901767745213064
 21
-35.254750316500001
 31
0.0
  0
LINE
  5
1D32
  8
0
 10
67.901767745213064
 20
-35.254750316500001
 30
0.0
 11
67.861700689902989
 21
-34.040885219335522
 31
0.0
  0
LINE
  5
1D33
  8
0
 10
67.861700689902989
 20
-34.040885219335522
 30
0.0
 11
67.749702802802986
 21
-32.516241966335528
 31
0.0
  0
LINE
  5
1D34
  8
0
 10
67.749702802802986
 20
-32.516241966335528
 30
0.0
 11
67.739187250713897
 21
-32.469984852002739
 31
0.0
  0
LINE
  5
1D35
  8
0
 10
67.739187250713897
 20
-32.469984852002739
 30
0.0
 11
67.70868693137534
 21
-32.383361116320913
 31
0.0
  0
LINE
  5
1D36
  8
0
 10
67.70868693137534
 20
-32.383361116320913
 30
0.0
 11
67.555324812813907
 21
-32.38303835690273
 31
0.0
  0
LINE
  5
1D37
  8
0
 10
67.636406635894289
 20
-34.037788015329539
 30
0.0
 11
67.761425948093915
 21
-35.254750757899977
 31
0.0
  0
LINE
  5
1D38
  8
0
 10
70.555031998079315
 20
-32.411634196770621
 30
0.0
 11
70.542326854329303
 21
-32.480657187170621
 31
0.0
  0
LINE
  5
1D39
  8
0
 10
70.542326854329303
 20
-32.480657187170621
 30
0.0
 11
70.533633252754271
 21
-32.524665873920632
 31
0.0
  0
LINE
  5
1D3A
  8
0
 10
70.533633252754271
 20
-32.524665873920632
 30
0.0
 11
70.634547483104271
 21
-34.042757589270643
 31
0.0
  0
LINE
  5
1D3B
  8
0
 10
70.756150768037486
 20
-35.138415721761859
 30
0.0
 11
70.89649256515662
 21
-35.138415280361862
 31
0.0
  0
LINE
  5
1D3C
  8
0
 10
70.89649256515662
 20
-35.138415280361862
 30
0.0
 11
70.859841427204273
 21
-34.045854793570633
 31
0.0
  0
LINE
  5
1D3D
  8
0
 10
70.859841427204273
 20
-34.045854793570633
 30
0.0
 11
70.745593109879309
 21
-32.536378738270628
 31
0.0
  0
LINE
  5
1D3E
  8
0
 10
70.745593109879309
 20
-32.536378738270628
 30
0.0
 11
70.737959206385142
 21
-32.494206833044842
 31
0.0
  0
LINE
  5
1D3F
  8
0
 10
70.737959206385142
 20
-32.494206833044842
 30
0.0
 11
70.711091702361585
 21
-32.41157244659945
 31
0.0
  0
LINE
  5
1D40
  8
0
 10
70.711091702361585
 20
-32.41157244659945
 30
0.0
 11
70.555031998079315
 21
-32.411634196770621
 31
0.0
  0
LINE
  5
1D41
  8
0
 10
70.634547373195574
 20
-34.042757589564637
 30
0.0
 11
70.756150768037486
 21
-35.138415721761859
 31
0.0
  0
LINE
  5
1D42
  8
0
 10
67.856108703964281
 20
-33.964760715087351
 30
0.0
 11
70.630755256354973
 21
-33.985709658658003
 31
0.0
  0
LINE
  5
1D43
  8
0
 10
73.559139354324714
 20
-32.425022090345053
 30
0.0
 11
73.543215274624728
 21
-32.511163260645048
 31
0.0
  0
LINE
  5
1D44
  8
0
 10
73.543215274624728
 20
-32.511163260645048
 30
0.0
 11
73.539307056963807
 21
-32.561680033127843
 31
0.0
  0
LINE
  5
1D45
  8
0
 10
73.539307056963807
 20
-32.561680033127843
 30
0.0
 11
73.640221287313807
 21
-34.079771748477853
 31
0.0
  0
LINE
  5
1D46
  8
0
 10
73.762310573193943
 20
-35.254750757899998
 30
0.0
 11
73.902652370313064
 21
-35.254750316500001
 31
0.0
  0
LINE
  5
1D47
  8
0
 10
73.902652370313064
 20
-35.254750316500001
 30
0.0
 11
73.850083937403511
 21
-33.994342475800003
 31
0.0
  0
LINE
  5
1D48
  8
0
 10
73.850083937403511
 20
-33.994342475800003
 30
0.0
 11
73.753517344313806
 21
-32.558225699777843
 31
0.0
  0
LINE
  5
1D49
  8
0
 10
73.753517344313806
 20
-32.558225699777843
 30
0.0
 11
73.743001792224717
 21
-32.511968585445047
 31
0.0
  0
LINE
  5
1D4A
  8
0
 10
73.743001792224717
 20
-32.511968585445047
 30
0.0
 11
73.71250147288616
 21
-32.425344849763221
 31
0.0
  0
LINE
  5
1D4B
  8
0
 10
73.71250147288616
 20
-32.425344849763221
 30
0.0
 11
73.559139354324714
 21
-32.425022090345053
 31
0.0
  0
LINE
  5
1D4C
  8
0
 10
73.640221177405095
 20
-34.079771748771861
 30
0.0
 11
73.762310573193943
 21
-35.254750757899998
 31
0.0
  0
LINE
  5
1D4D
  8
0
 10
76.559470826578533
 20
-32.42371945423514
 30
0.0
 11
76.543546746878533
 21
-32.509860624535143
 31
0.0
  0
LINE
  5
1D4E
  8
0
 10
76.543546746878533
 20
-32.509860624535143
 30
0.0
 11
76.539638529217612
 21
-32.56037739701793
 31
0.0
  0
LINE
  5
1D4F
  8
0
 10
76.539638529217612
 20
-32.56037739701793
 30
0.0
 11
76.637661781079899
 21
-33.988810037550707
 31
0.0
  0
LINE
  5
1D50
  8
0
 10
76.754245782503503
 20
-35.13883028139999
 30
0.0
 11
76.894544405703513
 21
-35.138211885899992
 31
0.0
  0
LINE
  5
1D51
  8
0
 10
76.894544405703513
 20
-35.138211885899992
 30
0.0
 11
76.8500802412035
 21
-33.986727776699993
 31
0.0
  0
LINE
  5
1D52
  8
0
 10
76.8500802412035
 20
-33.986727776699993
 30
0.0
 11
76.753848816567611
 21
-32.556923063667931
 31
0.0
  0
LINE
  5
1D53
  8
0
 10
76.753848816567611
 20
-32.556923063667931
 30
0.0
 11
76.743333264478522
 21
-32.510665949335142
 31
0.0
  0
LINE
  5
1D54
  8
0
 10
76.743333264478522
 20
-32.510665949335142
 30
0.0
 11
76.712832945139965
 21
-32.424042213653308
 31
0.0
  0
LINE
  5
1D55
  8
0
 10
76.712832945139965
 20
-32.424042213653308
 30
0.0
 11
76.559470826578533
 21
-32.42371945423514
 31
0.0
  0
LINE
  5
1D56
  8
0
 10
76.637661781079899
 20
-33.988810037550707
 30
0.0
 11
76.754245782503503
 21
-35.13883028139999
 31
0.0
  0
LINE
  5
1D57
  8
0
 10
82.554918839485111
 20
-32.380939802407397
 30
0.0
 11
82.539028722440065
 21
-32.461068498924519
 31
0.0
  0
LINE
  5
1D58
  8
0
 10
82.539028722440065
 20
-32.461068498924519
 30
0.0
 11
82.537751489097417
 21
-32.548528995662878
 31
0.0
  0
LINE
  5
1D59
  8
0
 10
82.537751489097417
 20
-32.548528995662878
 30
0.0
 11
82.632292191803515
 21
-33.931776004
 31
0.0
  0
LINE
  5
1D5A
  8
0
 10
82.749950548547886
 20
-35.068579175937771
 30
0.0
 11
82.890109311803513
 21
-35.065960729299988
 31
0.0
  0
LINE
  5
1D5B
  8
0
 10
82.890109311803513
 20
-35.065960729299988
 30
0.0
 11
82.848715228636564
 21
-33.929735641000853
 31
0.0
  0
LINE
  5
1D5C
  8
0
 10
82.848715228636564
 20
-33.929735641000853
 30
0.0
 11
82.751961776447416
 21
-32.545074662312878
 31
0.0
  0
LINE
  5
1D5D
  8
0
 10
82.751961776447416
 20
-32.545074662312878
 30
0.0
 11
82.738804394408334
 21
-32.459263926180093
 31
0.0
  0
LINE
  5
1D5E
  8
0
 10
82.738804394408334
 20
-32.459263926180093
 30
0.0
 11
82.710625518039677
 21
-32.379417764344772
 31
0.0
  0
LINE
  5
1D5F
  8
0
 10
82.710625518039677
 20
-32.379417764344772
 30
0.0
 11
82.554918839485111
 21
-32.380939802407397
 31
0.0
  0
LINE
  5
1D60
  8
0
 10
82.632292191803515
 20
-33.931776004
 30
0.0
 11
82.749950548547886
 21
-35.068579175937771
 31
0.0
  0
LINE
  5
1D61
  8
0
 10
79.556462845066321
 20
-32.409808440769623
 30
0.0
 11
79.540572728021303
 21
-32.489937137286731
 31
0.0
  0
LINE
  5
1D62
  8
0
 10
79.540572728021303
 20
-32.489937137286731
 30
0.0
 11
79.539295494678655
 21
-32.577397634025097
 31
0.0
  0
LINE
  5
1D63
  8
0
 10
79.539295494678655
 20
-32.577397634025097
 30
0.0
 11
79.635635103463031
 21
-33.966514860732872
 31
0.0
  0
LINE
  5
1D64
  8
0
 10
79.762660317603505
 20
-35.254750535600003
 30
0.0
 11
79.903002183303499
 21
-35.254750537200003
 31
0.0
  0
LINE
  5
1D65
  8
0
 10
79.903002183303499
 20
-35.254750537200003
 30
0.0
 11
79.852016404755801
 21
-33.964439056212463
 31
0.0
  0
LINE
  5
1D66
  8
0
 10
79.852016404755801
 20
-33.964439056212463
 30
0.0
 11
79.753505782028654
 21
-32.573943300675111
 31
0.0
  0
LINE
  5
1D67
  8
0
 10
79.753505782028654
 20
-32.573943300675111
 30
0.0
 11
79.740348399989571
 21
-32.488132564542312
 31
0.0
  0
LINE
  5
1D68
  8
0
 10
79.740348399989571
 20
-32.488132564542312
 30
0.0
 11
79.712169523620886
 21
-32.408286402706992
 31
0.0
  0
LINE
  5
1D69
  8
0
 10
79.712169523620886
 20
-32.408286402706992
 30
0.0
 11
79.556462845066321
 21
-32.409808440769623
 31
0.0
  0
LINE
  5
1D6A
  8
0
 10
79.635635103462192
 20
-33.966514860720878
 30
0.0
 11
79.762660317603505
 21
-35.254750535600003
 31
0.0
  0
LINE
  5
1D6B
  8
0
 10
70.855377315762198
 20
-33.986873886999859
 30
0.0
 11
73.634539773498545
 21
-33.99430254335509
 31
0.0
  0
LINE
  5
1D6C
  8
0
 10
73.850083937403511
 20
-33.994342475800003
 30
0.0
 11
76.384866747873843
 21
-33.988553435192863
 31
0.0
  0
LINE
  5
1D6D
  8
0
 10
76.384866747873843
 20
-33.988553435192863
 30
0.0
 11
76.637661781079899
 21
-33.988810037550707
 31
0.0
  0
LINE
  5
1D6E
  8
0
 10
76.8500802412035
 20
-33.986727776699993
 30
0.0
 11
77.067971405040623
 21
-33.985467299599136
 31
0.0
  0
LINE
  5
1D6F
  8
0
 10
77.067971405040623
 20
-33.985467299599136
 30
0.0
 11
79.635635103462192
 21
-33.966514860720878
 31
0.0
  0
LINE
  5
1D70
  8
0
 10
79.852016404755801
 20
-33.964439056212463
 30
0.0
 11
82.632292191803515
 21
-33.931776004
 31
0.0
  0
LINE
  5
1D71
  8
0
 10
82.848715228636564
 20
-33.929735641000853
 30
0.0
 11
86.376745899403517
 21
-33.899132740699997
 31
0.0
  0
ARC
  5
1D72
  8
0
 10
86.326654272165214
 20
-31.752065301798819
 30
0.0
 40
2.1476516845869149
 50
271.33648260240761
 51
344.13906721843119
  0
ARC
  5
1D73
  8
0
 10
99.880906937129254
 20
-34.107298808182613
 30
0.0
 40
11.62365506615248
 50
169.0054876561297
 51
171.24978429284579
  0
LINE
  5
1D74
  8
0
 10
70.485096789165084
 20
-35.075604439971499
 30
0.0
 11
70.502919496199524
 21
-35.266933996795217
 31
0.0
  0
LINE
  5
1D75
  8
0
 10
71.113052893330902
 20
-35.079454918981753
 30
0.0
 11
71.128309684007874
 21
-35.266933996795139
 31
0.0
  0
LINE
  5
1D76
  8
0
 10
76.480531379293623
 20
-35.079389173604781
 30
0.0
 11
76.502939734607153
 21
-35.266933996794513
 31
0.0
  0
ARC
  5
1D77
  8
0
 10
61.383587286433077
 20
-33.008779072878802
 30
0.0
 40
2.008156465089904
 50
187.4181389430648
 51
269.92898319293221
  0
LINE
  5
1D78
  8
0
 10
61.381098223103493
 20
-35.016933995400002
 30
0.0
 11
64.742482609575504
 21
-35.016933996875579
 31
0.0
  0
LINE
  5
1D79
  8
0
 10
64.886879962885175
 20
-35.018617650488281
 30
0.0
 11
67.740587476671593
 21
-35.051904950424976
 31
0.0
  0
LINE
  5
1D7A
  8
0
 10
67.895128504626825
 20
-35.053608945941519
 30
0.0
 11
70.749347157503507
 21
-35.077603079200003
 31
0.0
  0
LINE
  5
1D7B
  8
0
 10
70.894480205775864
 20
-35.078427392741553
 30
0.0
 11
73.744839451356071
 21
-35.086610017315699
 31
0.0
  0
LINE
  5
1D7C
  8
0
 10
73.897324074799428
 20
-35.086613233301691
 30
0.0
 11
76.748144035440674
 21
-35.078640782331533
 31
0.0
  0
LINE
  5
1D7D
  8
0
 10
76.892201808094171
 20
-35.077545865257612
 30
0.0
 11
79.742820284884445
 21
-35.053541365340202
 31
0.0
  0
LINE
  5
1D7E
  8
0
 10
79.894985439293293
 20
-35.051868534980017
 30
0.0
 11
82.744236079112795
 21
-35.013366548806857
 31
0.0
  0
LINE
  5
1D7F
  8
0
 10
82.888323207392119
 20
-35.016933996798471
 30
0.0
 11
86.404967454003497
 21
-35.016933996800013
 31
0.0
  0
ARC
  5
1D80
  8
0
 10
86.418199955420619
 20
-33.050101464905133
 30
0.0
 40
1.966877044355785
 50
269.61452994472018
 51
352.05554364457203
  0
LINE
  5
1D81
  8
0
 10
88.366199937705403
 20
-33.32194954128623
 30
0.0
 11
88.402226768303507
 21
-33.121601292599998
 31
0.0
  0
LINE
  5
1DA6
  8
0
 10
77.113094821346124
 20
-35.075685768453511
 30
0.0
 11
77.128524161994989
 21
-35.266933996794428
 31
0.0
  0
LINE
  5
1DA7
  8
0
 10
83.111685654703507
 20
-35.01813262480001
 30
0.0
 11
83.12852414129631
 21
-35.266933996793732
 31
0.0
  0
LINE
  5
1DA8
  8
0
 10
82.483849309680664
 20
-35.016885160913588
 30
0.0
 11
82.503524834595126
 21
-35.266933996793803
 31
0.0
  0
ARC
  5
1DA9
  8
0
 10
61.427465924500893
 20
-33.155201107354081
 30
0.0
 40
2.0482095636771991
 50
190.88865642724099
 51
267.77571764604983
  0
LINE
  5
1DAA
  8
0
 10
61.347972248103503
 20
-35.201867463199989
 30
0.0
 11
64.498577851649856
 21
-35.205066713875773
 31
0.0
  0
LINE
  5
1DAB
  8
0
 10
65.12419226168555
 20
-35.205701987717021
 30
0.0
 11
67.756661749188751
 21
-35.208375102300892
 31
0.0
  0
LINE
  5
1DAC
  8
0
 10
67.900241812369998
 20
-35.208520899227572
 30
0.0
 11
70.497723902788209
 21
-35.211158486212021
 31
0.0
  0
LINE
  5
1DAD
  8
0
 10
71.123822487037756
 20
-35.211794251703111
 30
0.0
 11
73.758125011022642
 21
-35.214469227625379
 31
0.0
  0
LINE
  5
1DAE
  8
0
 10
73.900978397711512
 20
-35.214614286655731
 30
0.0
 11
76.497003405337225
 21
-35.217250394060159
 31
0.0
  0
ARC
  5
1DAF
  8
0
 10
61.444303113450651
 20
-33.01949149452652
 30
0.0
 40
2.0944230555368581
 50
194.44962042294961
 51
267.36320310963049
  0
LINE
  5
1DB0
  8
0
 10
61.347950134803511
 20
-35.111697038700001
 30
0.0
 11
64.492591732380419
 21
-35.119390583163863
 31
0.0
  0
LINE
  5
1DB1
  8
0
 10
65.118465357367896
 20
-35.120921818572803
 30
0.0
 11
67.74833860340398
 21
-35.127355952996339
 31
0.0
  0
LINE
  5
1DB2
  8
0
 10
67.897574785101156
 20
-35.12772106780001
 30
0.0
 11
70.490542491651382
 21
-35.134064910722863
 31
0.0
  0
LINE
  5
1DB3
  8
0
 10
71.117621829585985
 20
-35.135599095977057
 30
0.0
 11
73.750599140444635
 21
-35.142040824671682
 31
0.0
  0
LINE
  5
1DB4
  8
0
 10
73.89796657893838
 20
-35.142401367488858
 30
0.0
 11
76.488817604666409
 21
-35.148740031831721
 31
0.0
  0
ARC
  5
1DB5
  8
0
 10
86.356907197697964
 20
-33.126075702390182
 30
0.0
 40
2.072757430416186
 50
272.55941246595353
 51
344.71267100047061
  0
LINE
  5
1DB6
  8
0
 10
86.449466843903508
 20
-35.196765461200002
 30
0.0
 11
83.124154893981796
 21
-35.202375063873212
 31
0.0
  0
LINE
  5
1DB7
  8
0
 10
82.498527948957474
 20
-35.203430459167272
 30
0.0
 11
79.901147442362131
 21
-35.207812084967358
 31
0.0
  0
LINE
  5
1DB8
  8
0
 10
79.758055799489114
 20
-35.208053472023508
 30
0.0
 11
77.124132325634491
 21
-35.212496743627028
 31
0.0
  0
ARC
  5
1DB9
  8
0
 10
86.335792948879785
 20
-33.013712411011319
 30
0.0
 40
2.1001401498326371
 50
272.96160270693969
 51
348.8187297334444
  0
LINE
  5
1DBA
  8
0
 10
86.444300267903515
 20
-35.111047579899989
 30
0.0
 11
83.118787051321505
 21
-35.123061129621149
 31
0.0
  0
LINE
  5
1DBB
  8
0
 10
82.49238201057176
 20
-35.125324042925833
 30
0.0
 11
79.898258287143264
 21
-35.134695418802139
 31
0.0
  0
LINE
  5
1DBC
  8
0
 10
79.75087490024093
 20
-35.135227847191771
 30
0.0
 11
77.118665654754267
 21
-35.144736808542319
 31
0.0
  0
ATTDEF
  5
226B
  8
DEFPOINTS
 10
89.656391421769627
 20
-35.265781190223578
 30
0.0
 40
0.001
  1
72220100
  3

  2
MODELNUMBER
 70
     0
1001
AcDbAttr
1070
     0
1070
     1
  0
ATTDEF
  5
226C
  8
DEFPOINTS
 10
89.656391421769627
 20
-35.267447856890243
 30
0.0
 40
0.001
  1
ENSEMBLE
  3

  2
TRADENAME
 70
     0
1001
AcDbAttr
1070
     0
1070
     1
  0
ATTDEF
  5
226D
  8
DEFPOINTS
 10
89.656391421769627
 20
-35.269114523556937
 30
0.0
 40
0.001
  1
SHOWER STALL
  3

  2
PRODUCT
 70
     0
1001
AcDbAttr
1070
     0
1070
     1
  0
ATTDEF
  5
226E
  8
DEFPOINTS
 10
89.656391421769627
 20
-35.270781190223602
 30
0.0
 40
0.001
  1
VIKRELL
  3

  2
MATERIAL
 70
     0
1001
AcDbAttr
1070
     0
1070
     1
  0
ENDSEC
  0
EOF
