  0
SECTION
  2
HEADER
  9
$ACADVER
  1
AC1009
  9
$INSBASE
 10
6.1712137580999977
 20
91.031915588462141
 30
0.0
  9
$EXTMIN
 10
-17.82878635364693
 20
55.781915588462141
 30
0.0
  9
$EXTMAX
 10
30.17121386984693
 20
91.044167927867264
 30
0.0
  9
$LIMMIN
 10
0.0
 20
0.0
  9
$LIMMAX
 10
11.692913385800001
 20
8.2677165353999982
  9
$ORTHOMODE
 70
     0
  9
$REGENMODE
 70
     1
  9
$FILLMODE
 70
     1
  9
$QTEXTMODE
 70
     0
  9
$MIRRTEXT
 70
     0
  9
$DRAGMODE
 70
     2
  9
$LTSCALE
 40
0.6431102362
  9
$OSMODE
 70
  3071
  9
$ATTMODE
 70
     1
  9
$TEXTSIZE
 40
0.2
  9
$TRACEWID
 40
0.05
  9
$TEXTSTYLE
  7
STANDARD
  9
$CLAYER
  8
0
  9
$CELTYPE
  6
BYLAYER
  9
$CECOLOR
 62
   256
  9
$DIMSCALE
 40
1.0
  9
$DIMASZ
 40
0.1875
  9
$DIMEXO
 40
0.0625
  9
$DIMDLI
 40
0.4443307087
  9
$DIMRND
 40
0.0
  9
$DIMDLE
 40
0.0
  9
$DIMEXE
 40
0.125
  9
$DIMTP
 40
0.0
  9
$DIMTM
 40
0.0
  9
$DIMTXT
 40
1.0
  9
$DIMCEN
 40
0.1052362205
  9
$DIMTSZ
 40
0.0
  9
$DIMTOL
 70
     0
  9
$DIMLIM
 70
     0
  9
$DIMTIH
 70
     1
  9
$DIMTOH
 70
     1
  9
$DIMSE1
 70
     0
  9
$DIMSE2
 70
     0
  9
$DIMTAD
 70
     0
  9
$DIMZIN
 70
     0
  9
$DIMBLK
  1

  9
$DIMASO
 70
     1
  9
$DIMSHO
 70
     1
  9
$DIMPOST
  1
\X
  9
$DIMAPOST
  1

  9
$DIMALT
 70
     1
  9
$DIMALTD
 70
     2
  9
$DIMALTF
 40
25.399999999999999
  9
$DIMLFAC
 40
1.0
  9
$DIMTOFL
 70
     0
  9
$DIMTVP
 40
0.0
  9
$DIMTIX
 70
     0
  9
$DIMSOXD
 70
     0
  9
$DIMSAH
 70
     0
  9
$DIMBLK1
  1

  9
$DIMBLK2
  1

  9
$DIMSTYLE
  2
STANDARD
  9
$DIMCLRD
 70
     0
  9
$DIMCLRE
 70
     0
  9
$DIMCLRT
 70
     0
  9
$DIMTFAC
 40
1.0
  9
$DIMGAP
 40
0.09
  9
$LUNITS
 70
     2
  9
$LUPREC
 70
     4
  9
$SKETCHINC
 40
0.1
  9
$FILLETRAD
 40
0.0
  9
$AUNITS
 70
     0
  9
$AUPREC
 70
     0
  9
$MENU
  1
.
  9
$ELEVATION
 40
0.0
  9
$PELEVATION
 40
0.0
  9
$THICKNESS
 40
0.0
  9
$LIMCHECK
 70
     0
  9
$BLIPMODE
 70
     0
  9
$CHAMFERA
 40
0.0
  9
$CHAMFERB
 40
0.0
  9
$SKPOLY
 70
     0
  9
$TDCREATE
 40
2458142.47251875
  9
$TDUPDATE
 40
2458142.6255435999
  9
$TDINDWG
 40
0.1426465509
  9
$TDUSRTIMER
 40
0.1426465509
  9
$USRTIMER
 70
     1
  9
$ANGBASE
 50
0.0
  9
$ANGDIR
 70
     0
  9
$PDMODE
 70
     0
  9
$PDSIZE
 40
0.3125
  9
$PLINEWID
 40
0.0
  9
$COORDS
 70
     1
  9
$SPLFRAME
 70
     0
  9
$SPLINETYPE
 70
     6
  9
$SPLINESEGS
 70
     8
  9
$ATTDIA
 70
     1
  9
$ATTREQ
 70
     1
  9
$HANDLING
 70
     1
  9
$HANDSEED
  5
22FA
  9
$SURFTAB1
 70
     6
  9
$SURFTAB2
 70
     6
  9
$SURFTYPE
 70
     6
  9
$SURFU
 70
     6
  9
$SURFV
 70
     6
  9
$UCSNAME
  2

  9
$UCSORG
 10
0.0
 20
0.0
 30
0.0
  9
$UCSXDIR
 10
1.0
 20
0.0
 30
0.0
  9
$UCSYDIR
 10
0.0
 20
1.0
 30
0.0
  9
$PUCSNAME
  2

  9
$PUCSORG
 10
0.0
 20
0.0
 30
0.0
  9
$PUCSXDIR
 10
1.0
 20
0.0
 30
0.0
  9
$PUCSYDIR
 10
0.0
 20
1.0
 30
0.0
  9
$USERI1
 70
     0
  9
$USERI2
 70
     0
  9
$USERI3
 70
     0
  9
$USERI4
 70
     0
  9
$USERI5
 70
     0
  9
$USERR1
 40
0.0
  9
$USERR2
 40
0.0
  9
$USERR3
 40
0.0
  9
$USERR4
 40
0.0
  9
$USERR5
 40
0.0
  9
$WORLDVIEW
 70
     1
  9
$SHADEDGE
 70
     3
  9
$SHADEDIF
 70
    70
  9
$TILEMODE
 70
     1
  9
$MAXACTVP
 70
    48
  9
$PLIMCHECK
 70
     0
  9
$PEXTMIN
 10
1.0000000000000000E+020
 20
1.0000000000000000E+020
 30
1.0000000000000000E+020
  9
$PEXTMAX
 10
-1.0000000000000000E+020
 20
-1.0000000000000000E+020
 30
-1.0000000000000000E+020
  9
$PLIMMIN
 10
0.0
 20
0.0
  9
$PLIMMAX
 10
12.0
 20
9.0
  9
$UNITMODE
 70
     0
  9
$VISRETAIN
 70
     1
  9
$PLINEGEN
 70
     0
  9
$PSLTSCALE
 70
     1
  0
ENDSEC
  0
SECTION
  2
TABLES
  0
TABLE
  2
VPORT
 70
     1
  0
VPORT
  2
*ACTIVE
 70
     0
 10
0.0
 20
0.0
 11
1.0
 21
1.0
 12
0.0
 22
0.0
 13
0.0
 23
0.0
 14
1.0
 24
1.0
 15
0.0
 25
0.0
 16
-0.0000000000000373
 26
0.0
 36
166.28308383236151
 17
6.1712131500244141
 27
73.413040842595734
 37
0.0
 40
59.579481598611267
 41
2.0792616720955479
 42
50.0
 43
0.0
 44
0.0
 50
0.0
 51
0.0
 71
     0
 72
   100
 73
     1
 74
     1
 75
     0
 76
     0
 77
     0
 78
     0
  0
ENDTAB
  0
TABLE
  2
LTYPE
 70
     2
  0
LTYPE
  2
CONTINUOUS
 70
     0
  3
Solid line
 72
    65
 73
     0
 40
0.0
  0
LTYPE
  2
PHANTOM2
 70
     0
  3
___ _ _ ___ _ _ ___ _ _ ___ _ _
 72
    65
 73
     6
 40
1.25
 49
0.625
 49
-0.125
 49
0.125
 49
-0.125
 49
0.125
 49
-0.125
  0
ENDTAB
  0
TABLE
  2
LAYER
 70
     2
  0
LAYER
  2
0
 70
     0
 62
     7
  6
CONTINUOUS
  0
LAYER
  2
DEFPOINTS
 70
     0
 62
     7
  6
CONTINUOUS
  0
ENDTAB
  0
TABLE
  2
STYLE
 70
     1
  0
STYLE
  2
STANDARD
 70
     0
 40
0.0
 41
0.8
 50
0.0
 71
     0
 42
0.2
  3
txt
  4

  0
ENDTAB
  0
TABLE
  2
VIEW
 70
     0
  0
ENDTAB
  0
TABLE
  2
UCS
 70
     0
  0
ENDTAB
  0
TABLE
  2
APPID
 70
     7
  0
APPID
  2
ACAD
 70
     0
  0
APPID
  2
ACAD_MLEADERVER
 70
     0
  0
APPID
  2
ACAD_NAV_VCDISPLAY
 70
     0
  0
APPID
  2
ACAD_DSTYLE_DIMJAG
 70
     0
  0
APPID
  2
ACAD_DSTYLE_DIMTALN
 70
     0
  0
APPID
  2
ACAD_EXEMPT_FROM_CAD_STANDARDS
 70
     0
  0
APPID
  2
AcDbAttr
 70
     0
  0
ENDTAB
  0
TABLE
  2
DIMSTYLE
 70
     1
  0
DIMSTYLE
  2
STANDARD
 70
     0
  3

  4

  5

  6

  7

 40
1.0
 41
0.1875
 42
0.0625
 43
0.38
 44
0.125
 45
0.0
 46
0.0
 47
1.5
 48
1.5
140
0.15625
141
0.09
142
0.0
143
25.399999999999999
144
1.0
145
0.0
146
1.0
147
0.09
 71
     0
 72
     0
 73
     1
 74
     1
 75
     0
 76
     0
 77
     0
 78
     4
170
     0
171
     2
172
     0
173
     0
174
     0
175
     0
176
     0
177
     0
178
     0
  0
ENDTAB
  0
ENDSEC
  0
SECTION
  2
BLOCKS
  0
BLOCK
  8
0
  2
$MODEL_SPACE
 70
     0
 10
0.0
 20
0.0
 30
0.0
  3
$MODEL_SPACE
  1

  0
ENDBLK
  5
21
  8
0
  0
BLOCK
 67
     1
  8
0
  2
$PAPER_SPACE
 70
     0
 10
0.0
 20
0.0
 30
0.0
  3
$PAPER_SPACE
  1

  0
ENDBLK
  5
1D
 67
     1
  8
0
  0
ENDSEC
  0
SECTION
  2
ENTITIES
  0
LINE
  5
E7D
  8
0
 10
30.067705333446931
 20
91.031915588462141
 30
0.0
 11
-17.72527781724693
 21
91.031915588462141
 31
0.0
  0
LINE
  5
E7E
  8
0
 10
-17.828786352246929
 20
90.861915588462139
 30
0.0
 11
-17.828786352246929
 21
85.101915588462134
 31
0.0
  0
LINE
  5
E7F
  8
0
 10
-17.82878635364693
 20
85.406915588462141
 30
0.0
 11
-17.713480932603449
 21
85.4049029248512
 31
0.0
  0
LINE
  5
E80
  8
0
 10
-17.713480932603449
 20
85.4049029248512
 30
0.0
 11
-17.61718111834692
 21
90.921915588462156
 31
0.0
  0
LINE
  5
E81
  8
0
 10
-17.61718111834692
 20
90.921915588462156
 30
0.0
 11
29.959608634546932
 21
90.921915588462156
 31
0.0
  0
LINE
  5
E82
  8
0
 10
-17.828786352246929
 20
85.101915588462134
 30
0.0
 11
-17.828786352246929
 21
55.781915588462141
 31
0.0
  0
LINE
  5
E83
  8
0
 10
-17.828786352246929
 20
55.781915588462141
 30
0.0
 11
-17.71878635224693
 21
55.781915588462141
 31
0.0
  0
LINE
  5
E84
  8
0
 10
-17.71878635224693
 20
55.781915588462141
 30
0.0
 11
-17.71878635224693
 21
84.900955109962155
 31
0.0
  0
LINE
  5
E85
  8
0
 10
-17.71878635224693
 20
84.900955109962155
 30
0.0
 11
-17.828781514346929
 21
84.900955109962155
 31
0.0
  0
LINE
  5
E86
  8
0
 10
-17.828786352246929
 20
85.101915588462134
 30
0.0
 11
-16.327793450254301
 21
85.075715659935554
 31
0.0
  0
ARC
  5
E87
  8
0
 10
-16.336519653451688
 20
84.575791812916819
 30
0.0
 40
0.4999999994402538
 50
34.949713968985307
 51
89.000000001316053
  0
ARC
  5
E88
  8
0
 10
-16.33651965463536
 20
84.575791812089534
 30
0.0
 40
0.5000000008843595
 50
359.16369066041972
 51
34.949713968985762
  0
LINE
  5
E89
  8
0
 10
-15.836572916175021
 20
84.568493895453727
 30
0.0
 11
-16.156877635683511
 21
57.560107043463283
 31
0.0
  0
ARC
  5
E8A
  8
0
 10
-16.656818979200139
 20
57.552448518954378
 30
0.0
 40
0.4999999998914352
 50
270.99999999485487
 51
0.8776363156171081
  0
LINE
  5
E8B
  8
0
 10
-16.648092776028289
 20
57.052524671483951
 30
0.0
 11
-17.718784572448559
 21
57.033835676755501
 31
0.0
  0
LINE
  5
E8C
  8
0
 10
-17.718784572448559
 20
57.033835676755501
 30
0.0
 11
30.061213758099999
 21
57.033835830200012
 31
0.0
  0
ARC
  5
E8D
  8
0
 10
-17.154457555060389
 20
85.140294953325537
 30
0.0
 40
0.0538801238698807
 50
290.46757911499208
 51
349.3584966741472
  0
LINE
  5
E8E
  8
0
 10
-17.101504070046929
 20
85.130345271262144
 30
0.0
 11
-17.078213270533759
 21
85.574415870313373
 31
0.0
  0
ARC
  5
E8F
  8
0
 10
-17.048317642246939
 20
85.571915588462147
 30
0.0
 40
0.029999999999996
 50
89.999999994693937
 51
175.21926797741219
  0
LINE
  5
E90
  8
0
 10
-17.048317642244161
 20
85.601915588462148
 30
0.0
 11
-16.80525506234693
 21
85.601915588439638
 31
0.0
  0
ARC
  5
E91
  8
0
 10
-16.805255062349708
 20
85.571915588435317
 30
0.0
 40
0.0300000000043212
 50
3.3160883765783158
 51
89.999999994684543
  0
LINE
  5
E92
  8
0
 10
-16.775305293938668
 20
85.573650919062146
 30
0.0
 11
-16.752068634588731
 21
85.130345271262925
 31
0.0
  0
ARC
  5
E93
  8
0
 10
-16.72210976104699
 20
85.131915588462121
 30
0.0
 40
0.0299999999999395
 50
183.00045614945381
 51
270.00000000008822
  0
LINE
  5
E94
  8
0
 10
-16.72210969454693
 20
85.101915588462134
 30
0.0
 11
-16.425206927946931
 21
85.101915588462134
 31
0.0
  0
ARC
  5
E95
  8
0
 10
-16.425206927946931
 20
90.101915592166378
 30
0.0
 40
5.0000000037042289
 50
270.0
 51
276.49999999586117
  0
LINE
  5
E96
  8
0
 10
-15.859190859046929
 20
85.134056310062135
 30
0.0
 11
-10.449867493819861
 21
85.750370857783764
 31
0.0
  0
ARC
  5
E97
  8
0
 10
-10.492194110676181
 20
86.122795245942314
 30
0.0
 40
0.3748219142336424
 50
276.48393391073228
 51
336.81060318625879
  0
ARC
  5
E98
  8
0
 10
-4.361383221328027
 20
83.296294977584068
 30
0.0
 40
6.3763214372935169
 50
120.86285538048639
 51
155.15698655236051
  0
LINE
  5
E99
  8
0
 10
-7.6323396080025461
 20
88.7697143282425
 30
0.0
 11
-7.0387859122999989
 21
89.106910559200003
 31
0.0
  0
ARC
  5
E9A
  8
0
 10
-16.32552406709258
 20
85.290448081010098
 30
0.0
 40
0.1875000002062472
 50
271.18687084030603
 51
358.99999995721942
  0
LINE
  5
E9B
  8
0
 10
-16.138052624046981
 20
85.287175754659543
 30
0.0
 11
-16.119444567683331
 21
86.353230544140004
 31
0.0
  0
ARC
  5
E9C
  8
0
 10
-13.41689594783726
 20
86.404830070013475
 30
0.0
 40
2.7030411675929482
 50
91.524025086543546
 51
181.0938104382862
  0
LINE
  5
E9D
  8
0
 10
-13.48878635284693
 20
89.106915065599253
 30
0.0
 11
25.831226801088221
 21
89.106914721504481
 31
0.0
  0
ARC
  5
E9E
  8
0
 10
-13.513975649836411
 20
63.663478770362197
 30
0.0
 40
2.8780362269219579
 50
206.05669523072871
 51
268.70964539081842
  0
LINE
  5
E9F
  8
0
 10
-13.5787862419
 20
60.786172371899987
 30
0.0
 11
25.921212435800001
 21
60.786166098599999
 31
0.0
  0
CIRCLE
  5
EA0
  8
0
 10
6.1712137580999986
 20
75.201915741999997
 30
0.0
 40
1.796999999999997
  0
CIRCLE
  5
EA1
  8
0
 10
6.1712137580999986
 20
75.201915741999997
 30
0.0
 40
2.3047850525999989
  0
ARC
  5
EC0
  8
0
 10
-17.630115135841439
 20
90.857461717004057
 30
0.0
 40
0.1987211342534959
 50
118.61198450559451
 51
178.7157409929894
  0
LINE
  5
FCE
  8
0
 10
30.17121386844693
 20
90.861915588462139
 30
0.0
 11
30.17121386844693
 21
85.101915588462134
 31
0.0
  0
LINE
  5
FCF
  8
0
 10
30.17121386984693
 20
85.406915588462141
 30
0.0
 11
30.055908448803461
 21
85.4049029248512
 31
0.0
  0
LINE
  5
FD0
  8
0
 10
30.055908448803461
 20
85.4049029248512
 30
0.0
 11
29.959608634546932
 21
90.921915588462156
 31
0.0
  0
LINE
  5
FD1
  8
0
 10
30.17121386844693
 20
85.101915588462134
 30
0.0
 11
30.17121386844693
 21
55.781915588462141
 31
0.0
  0
LINE
  5
FD2
  8
0
 10
30.17121386844693
 20
55.781915588462141
 30
0.0
 11
30.061213868446931
 21
55.781915588462141
 31
0.0
  0
LINE
  5
FD3
  8
0
 10
30.061213868446931
 20
55.781915588462141
 30
0.0
 11
30.061213868446931
 21
84.900955109962155
 31
0.0
  0
LINE
  5
FD4
  8
0
 10
30.061213868446931
 20
84.900955109962155
 30
0.0
 11
30.17120903054693
 21
84.900955109962155
 31
0.0
  0
LINE
  5
FD5
  8
0
 10
30.17121386844693
 20
85.101915588462134
 30
0.0
 11
28.670220966454298
 21
85.075715659935554
 31
0.0
  0
ARC
  5
FD6
  8
0
 10
28.678947169651689
 20
84.575791812916819
 30
0.0
 40
0.4999999994402538
 50
90.999999998683947
 51
145.05028603101471
  0
ARC
  5
FD7
  8
0
 10
28.678947170835361
 20
84.575791812089534
 30
0.0
 40
0.5000000008843595
 50
145.0502860310142
 51
180.83630933958031
  0
LINE
  5
FD8
  8
0
 10
28.17900043237502
 20
84.568493895453727
 30
0.0
 11
28.499305151883512
 21
57.560107043463283
 31
0.0
  0
ARC
  5
FD9
  8
0
 10
28.999246495400151
 20
57.552448518954378
 30
0.0
 40
0.4999999998914352
 50
179.12236368438289
 51
269.00000000514513
  0
LINE
  5
FDA
  8
0
 10
28.99052029222829
 20
57.052524671483951
 30
0.0
 11
30.061213868446931
 21
57.033835828273922
 31
0.0
  0
ARC
  5
FDB
  8
0
 10
29.49688507126039
 20
85.140294953325537
 30
0.0
 40
0.0538801238698807
 50
190.64150332585271
 51
249.53242088500789
  0
LINE
  5
FDC
  8
0
 10
29.443931586246929
 20
85.130345271262144
 30
0.0
 11
29.42064078673377
 21
85.574415870313373
 31
0.0
  0
ARC
  5
FDD
  8
0
 10
29.39074515844694
 20
85.571915588462147
 30
0.0
 40
0.029999999999996
 50
4.7807320225878263
 51
90.000000005306077
  0
LINE
  5
FDE
  8
0
 10
29.390745158444162
 20
85.601915588462148
 30
0.0
 11
29.147682578546942
 21
85.601915588439638
 31
0.0
  0
ARC
  5
FDF
  8
0
 10
29.147682578549709
 20
85.571915588435317
 30
0.0
 40
0.0300000000043212
 50
90.000000005315442
 51
176.68391162342169
  0
LINE
  5
FE0
  8
0
 10
29.117732810138669
 20
85.573650919062146
 30
0.0
 11
29.094496150788729
 21
85.130345271262925
 31
0.0
  0
ARC
  5
FE1
  8
0
 10
29.064537277246991
 20
85.131915588462121
 30
0.0
 40
0.0299999999999395
 50
269.99999999991178
 51
356.99954385054622
  0
LINE
  5
FE2
  8
0
 10
29.064537210746941
 20
85.101915588462134
 30
0.0
 11
28.767634444146939
 21
85.101915588462134
 31
0.0
  0
ARC
  5
FE3
  8
0
 10
28.767634444146939
 20
90.101915592166378
 30
0.0
 40
5.0000000037042289
 50
263.50000000413883
 51
270.0
  0
LINE
  5
FE4
  8
0
 10
28.20161837524693
 20
85.134056310062135
 30
0.0
 11
22.79229501001986
 21
85.750370857783764
 31
0.0
  0
ARC
  5
FE5
  8
0
 10
22.834621626876189
 20
86.122795245942314
 30
0.0
 40
0.3748219142336424
 50
203.18939681374121
 51
263.51606608926772
  0
ARC
  5
FE6
  8
0
 10
16.70381073752803
 20
83.296294977584068
 30
0.0
 40
6.3763214372935169
 50
24.84301344763945
 51
59.137144619513627
  0
LINE
  5
FE7
  8
0
 10
19.97476712420255
 20
88.7697143282425
 30
0.0
 11
19.38121342849999
 21
89.106910559200003
 31
0.0
  0
ARC
  5
FE8
  8
0
 10
28.667951583292592
 20
85.290448081010098
 30
0.0
 40
0.1875000002062472
 50
181.00000004278061
 51
268.81312915969397
  0
LINE
  5
FE9
  8
0
 10
28.480480140246978
 20
85.287175754659543
 30
0.0
 11
28.461872083883328
 21
86.353230544140004
 31
0.0
  0
ARC
  5
FEA
  8
0
 10
25.759323464037269
 20
86.404830070013503
 30
0.0
 40
2.7030411675929371
 50
358.90618956171329
 51
88.475700698754139
  0
ARC
  5
FEB
  8
0
 10
25.856386570188491
 20
63.6634935670833
 30
0.0
 40
2.8780576355835552
 50
271.29064914894599
 51
333.94318526511859
  0
ARC
  5
FEC
  8
0
 10
29.972542652041451
 20
90.857461717004057
 30
0.0
 40
0.1987211342534959
 50
1.2842590070105779
 51
61.388015494405479
  0
ATTDEF
  5
222D
  8
DEFPOINTS
 10
6.16875271770175
 20
91.043167927867245
 30
0.0
 40
0.001
  1
72220100
  3

  2
MODELNUMBER
 70
     0
1001
AcDbAttr
1070
     0
1070
     1
  0
ATTDEF
  5
222E
  8
DEFPOINTS
 10
6.16875271770175
 20
91.041501261200594
 30
0.0
 40
0.001
  1
ENSEMBLE
  3

  2
TRADENAME
 70
     0
1001
AcDbAttr
1070
     0
1070
     1
  0
ATTDEF
  5
222F
  8
DEFPOINTS
 10
6.16875271770175
 20
91.039834594533886
 30
0.0
 40
0.001
  1
SHOWER STALL
  3

  2
PRODUCT
 70
     0
1001
AcDbAttr
1070
     0
1070
     1
  0
ATTDEF
  5
2230
  8
DEFPOINTS
 10
6.16875271770175
 20
91.038167927867207
 30
0.0
 40
0.001
  1
VIKRELL
  3

  2
MATERIAL
 70
     0
1001
AcDbAttr
1070
     0
1070
     1
  0
ENDSEC
  0
EOF
