  0
SECTION
  2
HEADER
  9
$ACADVER
  1
AC1009
  9
$INSBASE
 10
6.1712137580999977
 20
-35.266933996799999
 30
0.0
  9
$EXTMIN
 10
-17.835722619326528
 20
-35.28065170029015
 30
-0.0000000349181948
  9
$EXTMAX
 10
30.179689032340441
 20
41.657146961748367
 30
0.0000000814935746
  9
$LIMMIN
 10
0.0
 20
0.0
  9
$LIMMAX
 10
11.692913385800001
 20
8.2677165353999982
  9
$ORTHOMODE
 70
     0
  9
$REGENMODE
 70
     1
  9
$FILLMODE
 70
     1
  9
$QTEXTMODE
 70
     0
  9
$MIRRTEXT
 70
     0
  9
$DRAGMODE
 70
     2
  9
$LTSCALE
 40
0.6431102362
  9
$OSMODE
 70
  3071
  9
$ATTMODE
 70
     1
  9
$TEXTSIZE
 40
0.2
  9
$TRACEWID
 40
0.05
  9
$TEXTSTYLE
  7
STANDARD
  9
$CLAYER
  8
0
  9
$CELTYPE
  6
BYLAYER
  9
$CECOLOR
 62
   256
  9
$DIMSCALE
 40
1.0
  9
$DIMASZ
 40
0.1875
  9
$DIMEXO
 40
0.0625
  9
$DIMDLI
 40
0.4443307087
  9
$DIMRND
 40
0.0
  9
$DIMDLE
 40
0.0
  9
$DIMEXE
 40
0.125
  9
$DIMTP
 40
0.0
  9
$DIMTM
 40
0.0
  9
$DIMTXT
 40
1.0
  9
$DIMCEN
 40
0.1052362205
  9
$DIMTSZ
 40
0.0
  9
$DIMTOL
 70
     0
  9
$DIMLIM
 70
     0
  9
$DIMTIH
 70
     1
  9
$DIMTOH
 70
     1
  9
$DIMSE1
 70
     0
  9
$DIMSE2
 70
     0
  9
$DIMTAD
 70
     0
  9
$DIMZIN
 70
     0
  9
$DIMBLK
  1

  9
$DIMASO
 70
     1
  9
$DIMSHO
 70
     1
  9
$DIMPOST
  1
\X
  9
$DIMAPOST
  1

  9
$DIMALT
 70
     1
  9
$DIMALTD
 70
     2
  9
$DIMALTF
 40
25.399999999999999
  9
$DIMLFAC
 40
1.0
  9
$DIMTOFL
 70
     0
  9
$DIMTVP
 40
0.0
  9
$DIMTIX
 70
     0
  9
$DIMSOXD
 70
     0
  9
$DIMSAH
 70
     0
  9
$DIMBLK1
  1

  9
$DIMBLK2
  1

  9
$DIMSTYLE
  2
STANDARD
  9
$DIMCLRD
 70
     0
  9
$DIMCLRE
 70
     0
  9
$DIMCLRT
 70
     0
  9
$DIMTFAC
 40
1.0
  9
$DIMGAP
 40
0.09
  9
$LUNITS
 70
     2
  9
$LUPREC
 70
     4
  9
$SKETCHINC
 40
0.1
  9
$FILLETRAD
 40
0.0
  9
$AUNITS
 70
     0
  9
$AUPREC
 70
     0
  9
$MENU
  1
.
  9
$ELEVATION
 40
0.0
  9
$PELEVATION
 40
0.0
  9
$THICKNESS
 40
0.0
  9
$LIMCHECK
 70
     0
  9
$BLIPMODE
 70
     0
  9
$CHAMFERA
 40
0.0
  9
$CHAMFERB
 40
0.0
  9
$SKPOLY
 70
     0
  9
$TDCREATE
 40
2458142.47251875
  9
$TDUPDATE
 40
2458142.625667396
  9
$TDINDWG
 40
0.1426964236
  9
$TDUSRTIMER
 40
0.1426964236
  9
$USRTIMER
 70
     1
  9
$ANGBASE
 50
0.0
  9
$ANGDIR
 70
     0
  9
$PDMODE
 70
     0
  9
$PDSIZE
 40
0.3125
  9
$PLINEWID
 40
0.0
  9
$COORDS
 70
     1
  9
$SPLFRAME
 70
     0
  9
$SPLINETYPE
 70
     6
  9
$SPLINESEGS
 70
     8
  9
$ATTDIA
 70
     1
  9
$ATTREQ
 70
     1
  9
$HANDLING
 70
     1
  9
$HANDSEED
  5
2275
  9
$SURFTAB1
 70
     6
  9
$SURFTAB2
 70
     6
  9
$SURFTYPE
 70
     6
  9
$SURFU
 70
     6
  9
$SURFV
 70
     6
  9
$UCSNAME
  2

  9
$UCSORG
 10
0.0
 20
0.0
 30
0.0
  9
$UCSXDIR
 10
1.0
 20
0.0
 30
0.0
  9
$UCSYDIR
 10
0.0
 20
1.0
 30
0.0
  9
$PUCSNAME
  2

  9
$PUCSORG
 10
0.0
 20
0.0
 30
0.0
  9
$PUCSXDIR
 10
1.0
 20
0.0
 30
0.0
  9
$PUCSYDIR
 10
0.0
 20
1.0
 30
0.0
  9
$USERI1
 70
     0
  9
$USERI2
 70
     0
  9
$USERI3
 70
     0
  9
$USERI4
 70
     0
  9
$USERI5
 70
     0
  9
$USERR1
 40
0.0
  9
$USERR2
 40
0.0
  9
$USERR3
 40
0.0
  9
$USERR4
 40
0.0
  9
$USERR5
 40
0.0
  9
$WORLDVIEW
 70
     1
  9
$SHADEDGE
 70
     3
  9
$SHADEDIF
 70
    70
  9
$TILEMODE
 70
     1
  9
$MAXACTVP
 70
    48
  9
$PLIMCHECK
 70
     0
  9
$PEXTMIN
 10
1.0000000000000000E+020
 20
1.0000000000000000E+020
 30
1.0000000000000000E+020
  9
$PEXTMAX
 10
-1.0000000000000000E+020
 20
-1.0000000000000000E+020
 30
-1.0000000000000000E+020
  9
$PLIMMIN
 10
0.0
 20
0.0
  9
$PLIMMAX
 10
12.0
 20
9.0
  9
$UNITMODE
 70
     0
  9
$VISRETAIN
 70
     1
  9
$PLINEGEN
 70
     0
  9
$PSLTSCALE
 70
     1
  0
ENDSEC
  0
SECTION
  2
TABLES
  0
TABLE
  2
VPORT
 70
     1
  0
VPORT
  2
*ACTIVE
 70
     0
 10
0.0
 20
0.0
 11
1.0
 21
1.0
 12
-29.728496110204478
 22
-24.69424252735195
 13
0.0
 23
0.0
 14
1.0
 24
1.0
 15
0.0
 25
0.0
 16
-0.0000000000001066
 26
0.0
 36
466.40507869858868
 17
35.900479316711433
 27
27.882490158081051
 37
0.0
 40
77.460044579773808
 41
2.0792616720955479
 42
50.0
 43
0.0
 44
0.0
 50
0.0
 51
0.0
 71
     0
 72
   100
 73
     1
 74
     1
 75
     0
 76
     0
 77
     0
 78
     0
  0
ENDTAB
  0
TABLE
  2
LTYPE
 70
     2
  0
LTYPE
  2
CONTINUOUS
 70
     0
  3
Solid line
 72
    65
 73
     0
 40
0.0
  0
LTYPE
  2
PHANTOM2
 70
     0
  3
___ _ _ ___ _ _ ___ _ _ ___ _ _
 72
    65
 73
     6
 40
1.25
 49
0.625
 49
-0.125
 49
0.125
 49
-0.125
 49
0.125
 49
-0.125
  0
ENDTAB
  0
TABLE
  2
LAYER
 70
     2
  0
LAYER
  2
0
 70
     0
 62
     7
  6
CONTINUOUS
  0
LAYER
  2
DEFPOINTS
 70
     0
 62
     7
  6
CONTINUOUS
  0
ENDTAB
  0
TABLE
  2
STYLE
 70
     1
  0
STYLE
  2
STANDARD
 70
     0
 40
0.0
 41
0.8
 50
0.0
 71
     0
 42
0.2
  3
txt
  4

  0
ENDTAB
  0
TABLE
  2
VIEW
 70
     0
  0
ENDTAB
  0
TABLE
  2
UCS
 70
     0
  0
ENDTAB
  0
TABLE
  2
APPID
 70
     7
  0
APPID
  2
ACAD
 70
     0
  0
APPID
  2
ACAD_MLEADERVER
 70
     0
  0
APPID
  2
ACAD_NAV_VCDISPLAY
 70
     0
  0
APPID
  2
ACAD_DSTYLE_DIMJAG
 70
     0
  0
APPID
  2
ACAD_DSTYLE_DIMTALN
 70
     0
  0
APPID
  2
ACAD_EXEMPT_FROM_CAD_STANDARDS
 70
     0
  0
APPID
  2
AcDbAttr
 70
     0
  0
ENDTAB
  0
TABLE
  2
DIMSTYLE
 70
     1
  0
DIMSTYLE
  2
STANDARD
 70
     0
  3

  4

  5

  6

  7

 40
1.0
 41
0.1875
 42
0.0625
 43
0.38
 44
0.125
 45
0.0
 46
0.0
 47
1.5
 48
1.5
140
0.15625
141
0.09
142
0.0
143
25.399999999999999
144
1.0
145
0.0
146
1.0
147
0.09
 71
     0
 72
     0
 73
     1
 74
     1
 75
     0
 76
     0
 77
     0
 78
     4
170
     0
171
     2
172
     0
173
     0
174
     0
175
     0
176
     0
177
     0
178
     0
  0
ENDTAB
  0
ENDSEC
  0
SECTION
  2
BLOCKS
  0
BLOCK
  8
0
  2
$MODEL_SPACE
 70
     0
 10
0.0
 20
0.0
 30
0.0
  3
$MODEL_SPACE
  1

  0
ENDBLK
  5
21
  8
0
  0
BLOCK
 67
     1
  8
0
  2
$PAPER_SPACE
 70
     0
 10
0.0
 20
0.0
 30
0.0
  3
$PAPER_SPACE
  1

  0
ENDBLK
  5
1D
 67
     1
  8
0
  0
ENDSEC
  0
SECTION
  2
ENTITIES
  0
LINE
  5
1249
  8
0
 10
30.067705223000011
 20
41.6551461663
 30
0.0
 11
-17.725277706899998
 21
41.6551461663
 31
0.0
  0
CIRCLE
  5
124A
  8
0
 10
-16.703786241900001
 20
41.048066003199999
 30
0.0
 40
0.0939997297000004
  0
CIRCLE
  5
124B
  8
0
 10
-15.9537862419
 20
41.048066003199999
 30
0.0
 40
0.0939997297000004
  0
CIRCLE
  5
124C
  8
0
 10
-15.2037862419
 20
41.048066003199999
 30
0.0
 40
0.0939997297000004
  0
CIRCLE
  5
124D
  8
0
 10
-14.4537862419
 20
41.048066003199999
 30
0.0
 40
0.0939997297000004
  0
CIRCLE
  5
124E
  8
0
 10
-13.7037862419
 20
41.048066003199999
 30
0.0
 40
0.0939997297000004
  0
CIRCLE
  5
124F
  8
0
 10
-12.9537862419
 20
41.048066003199999
 30
0.0
 40
0.0939997297000004
  0
CIRCLE
  5
1250
  8
0
 10
-12.2037862419
 20
41.048066003199999
 30
0.0
 40
0.0939997297000004
  0
CIRCLE
  5
1251
  8
0
 10
-11.4537862419
 20
41.048066003199999
 30
0.0
 40
0.0939997297000004
  0
CIRCLE
  5
1252
  8
0
 10
-10.7037862419
 20
41.048066003199999
 30
0.0
 40
0.0939997297000004
  0
CIRCLE
  5
1253
  8
0
 10
-9.9537862419000032
 20
41.048066003199999
 30
0.0
 40
0.0939997297000004
  0
CIRCLE
  5
1254
  8
0
 10
-9.2037862419000032
 20
41.048066003199999
 30
0.0
 40
0.0939997297000004
  0
CIRCLE
  5
1255
  8
0
 10
-8.4537862419000032
 20
41.048066003199999
 30
0.0
 40
0.0939997297000004
  0
CIRCLE
  5
1256
  8
0
 10
-7.7037862419000041
 20
41.048066003199999
 30
0.0
 40
0.0939997297000004
  0
LINE
  5
1271
  8
0
 10
-17.725277706899998
 20
41.6551461663
 30
0.0
 11
-17.802408173393118
 21
41.500838218937169
 31
0.0
  0
LINE
  5
1272
  8
0
 10
-17.802408173393118
 20
41.500838218937169
 30
0.0
 11
-17.80824186642047
 21
41.446989318108308
 31
0.0
  0
LINE
  5
1273
  8
0
 10
-17.718786241899998
 20
41.442301147499997
 30
0.0
 11
-17.828786352246929
 21
41.448066003200012
 31
0.0
  0
LINE
  5
1274
  8
0
 10
-17.828786352246929
 20
41.448066003200012
 30
0.0
 11
-17.828786352246929
 21
-30.801933996799988
 31
0.0
  0
LINE
  5
1275
  8
0
 10
-17.828786352246929
 20
-30.801933996799988
 30
0.0
 11
30.171213868446941
 21
-30.801933996799988
 31
0.0
  0
LINE
  5
1276
  8
0
 10
-17.79441387680205
 20
-30.801933996799999
 30
0.0
 11
-17.793801773700011
 21
-35.166933996799997
 31
0.0
  0
LINE
  5
1277
  8
0
 10
-17.793801773700011
 20
-35.166933996799997
 30
0.0
 11
-17.7687789135
 21
-35.266933996799999
 31
0.0
  0
LINE
  5
1278
  8
0
 10
-17.7687789135
 20
-35.266933996799999
 30
0.0
 11
30.11120642960001
 21
-35.266933996799999
 31
0.0
  0
LINE
  5
1279
  8
0
 10
-17.802411804747479
 20
41.500804699100001
 30
0.0
 11
-17.692424926893121
 21
41.500771179237169
 31
0.0
  0
LINE
  5
127A
  8
0
 10
-17.692424926893121
 20
41.500771179237169
 30
0.0
 11
-17.617181007999999
 21
41.651304881699993
 31
0.0
  0
LINE
  5
127B
  8
0
 10
-17.617181007999999
 20
41.651304881699993
 30
0.0
 11
29.959608524100009
 21
41.651304881699993
 31
0.0
  0
LINE
  5
127C
  8
0
 10
-17.617181007999999
 20
41.651304881699993
 30
0.0
 11
-17.617181007999999
 21
40.390208361600003
 31
0.0
  0
LINE
  5
127D
  8
0
 10
-17.617181007999999
 20
40.390208361600003
 30
0.0
 11
-17.718786241899998
 21
40.192691499600002
 31
0.0
  0
LINE
  5
127E
  8
0
 10
-17.718786241899998
 20
41.442301147499997
 30
0.0
 11
-17.7187844621
 21
-30.602893927499998
 31
0.0
  0
LINE
  5
127F
  8
0
 10
-17.7187844621
 20
-30.602893927499998
 30
0.0
 11
-17.828786352246929
 21
-30.602893927500009
 31
0.0
  0
LINE
  5
1280
  8
0
 10
-17.617181007999999
 20
40.390208361600003
 30
0.0
 11
-15.971871158078169
 21
40.303928766951657
 31
0.0
  0
ARC
  5
1281
  8
0
 10
-11.78499116017184
 20
120.1456912262358
 30
0.0
 40
79.951466507635871
 50
266.99817471109168
 51
269.9999974916841
  0
LINE
  5
1282
  8
0
 10
-11.784994660316571
 20
40.19422471859999
 30
0.0
 11
24.127422175699959
 21
40.194222621072583
 31
0.0
  0
LINE
  5
1283
  8
0
 10
-17.71878621102972
 20
40.192691498521981
 30
0.0
 11
-16.310351565200008
 21
40.118488213799999
 31
0.0
  0
ARC
  5
1284
  8
0
 10
-16.33666225456108
 20
39.619091366468517
 30
0.0
 40
0.5000894554969998
 50
0.0094039963365289
 51
86.984163996234429
  0
LINE
  5
1285
  8
0
 10
-15.836572805799999
 20
39.6191734465
 30
0.0
 11
-15.836572805799999
 21
-30.301933996799999
 31
0.0
  0
ARC
  5
1286
  8
0
 10
-16.33655206806915
 20
-30.30195473515867
 30
0.0
 40
0.4999792626992268
 50
270.0037272071325
 51
0.002376539418919
  0
LINE
  5
1288
  8
0
 10
-10.3199891122
 20
20.8559189741
 30
0.0
 11
-7.8994449707350931
 21
20.94378444291425
 31
0.0
  0
ARC
  5
1289
  8
0
 10
-7.982987697435707
 20
23.736178222293869
 30
0.0
 40
2.7936432138522238
 50
271.71366169780362
 51
288.04428436540422
  0
ARC
  5
128B
  8
0
 10
-7.9266520176955488
 20
16.566408117869191
 30
0.0
 40
2.7438375537224191
 50
74.235467680142406
 51
89.999998802531834
  0
ARC
  5
128C
  8
0
 10
-7.229093523303991
 20
19.037364843735521
 30
0.0
 40
0.1763066397504231
 50
50.792433068905012
 51
74.235467680142406
  0
ARC
  5
128D
  8
0
 10
-7.156085806289032
 20
19.11070299944808
 30
0.0
 40
0.0740368588123277
 50
9.3613684184027406
 51
58.720171723230742
  0
ARC
  5
128E
  8
0
 10
-10.34258723548451
 20
20.66230193873999
 30
0.0
 40
0.1949313508843101
 50
359.91118423014251
 51
83.342810453473078
  0
LINE
  5
128F
  8
0
 10
-10.147656118800001
 20
20.66199977039161
 30
0.0
 11
-10.147656118800001
 21
19.498004661586929
 31
0.0
  0
ARC
  5
1290
  8
0
 10
-10.322923172155541
 20
19.485428638875831
 30
0.0
 40
0.1757176608630089
 50
274.47178497508799
 51
4.1041382986756458
  0
LINE
  5
1291
  8
0
 10
-7.083034965949996
 20
19.12274326152448
 30
0.0
 11
-7.083034965949996
 21
8.7061702160916106
 31
0.0
  0
LINE
  5
1293
  8
0
 10
-10.319961317283839
 20
8.4309151452987461
 30
0.0
 11
-7.8994449707350931
 21
8.5187844257142462
 31
0.0
  0
ARC
  5
1294
  8
0
 10
-7.982987697435707
 20
11.311178205093871
 30
0.0
 40
2.7936432138522238
 50
271.71366169780362
 51
288.04428436540422
  0
LINE
  5
1295
  8
0
 10
-15.836572805799999
 20
6.8980660032000003
 30
0.0
 11
-7.9266519603500054
 21
6.8980660032000003
 31
0.0
  0
ARC
  5
1296
  8
0
 10
-8.1110582066743238
 20
3.2605028507664051
 30
0.0
 40
3.642234389990028
 50
75.208604615178245
 51
87.09787517136931
  0
ARC
  5
1297
  8
0
 10
-7.229093523303991
 20
6.6123648265355222
 30
0.0
 40
0.1763066397504231
 50
50.792433068905012
 51
74.235467680142406
  0
ARC
  5
1298
  8
0
 10
-7.156085806289032
 20
6.6857029822480767
 30
0.0
 40
0.0740368588123277
 50
9.3613684184027406
 51
58.720171723230699
  0
ARC
  5
1299
  8
0
 10
-10.32558283013919
 20
8.2529615157474954
 30
0.0
 40
0.1780423985382311
 50
357.9344196946567
 51
88.190641645933809
  0
LINE
  5
129A
  8
0
 10
-10.147656118800001
 20
8.2465442679523377
 30
0.0
 11
-10.147656118800001
 21
7.0825491591476606
 31
0.0
  0
ARC
  5
129B
  8
0
 10
-10.340135841077791
 20
7.0829301444235488
 30
0.0
 40
0.1924800993295642
 50
286.17146945630122
 51
359.8865915868974
  0
LINE
  5
129C
  8
0
 10
-7.083034965949996
 20
6.6977432443244806
 30
0.0
 11
-7.0853486040500009
 21
-19.50719119250839
 31
0.0
  0
LINE
  5
129D
  8
0
 10
-15.836572805799999
 20
-19.794360131400001
 30
0.0
 11
-10.319961317283839
 21
-19.769084854701251
 31
0.0
  0
LINE
  5
129E
  8
0
 10
-10.319961317283839
 20
-19.769084854701251
 30
0.0
 11
-7.8994449707350931
 21
-19.720402881535751
 31
0.0
  0
ARC
  5
129F
  8
0
 10
-7.8482941657742531
 20
-18.254890478122739
 30
0.0
 40
1.4664047904332329
 50
268.00101587999529
 51
301.35124006701818
  0
LINE
  5
12A0
  8
0
 10
-15.836572805799999
 20
-21.3166432029
 30
0.0
 11
-7.9266519603500036
 21
-21.353941652858389
 31
0.0
  0
ARC
  5
12A1
  8
0
 10
-7.9266520176955488
 20
-24.09777920658081
 30
0.0
 40
2.7438375537224191
 50
74.235467680142406
 51
89.999998802531834
  0
ARC
  5
12A2
  8
0
 10
-7.229093523303991
 20
-21.62682248071448
 30
0.0
 40
0.1763066397504231
 50
50.792433068905012
 51
74.235467680142406
  0
ARC
  5
12A3
  8
0
 10
-7.156085806289032
 20
-21.553484325001929
 30
0.0
 40
0.0740368588123277
 50
9.3613684184027406
 51
58.720171723230742
  0
ARC
  5
12A4
  8
0
 10
-10.33184798233196
 20
-19.951735820045521
 30
0.0
 40
0.183037340308361
 50
358.50695141481589
 51
86.276522818226994
  0
LINE
  5
12A5
  8
0
 10
-10.14887278438334
 20
-19.956504979596499
 30
0.0
 11
-10.147656118800001
 21
-21.166182662863079
 31
0.0
  0
ARC
  5
12A6
  8
0
 10
-10.322923172155541
 20
-21.17875868557417
 30
0.0
 40
0.1757176608630089
 50
290.87927118879219
 51
4.1041382986756458
  0
LINE
  5
12A7
  8
0
 10
-7.083034965949996
 20
-21.541444062925521
 30
0.0
 11
-7.0852356177999987
 21
-28.661779774700001
 31
0.0
  0
ARC
  5
12A8
  8
0
 10
-7.1516142345591804
 20
8.715191429169284
 30
0.0
 40
0.0691700684426671
 50
299.40638361110621
 51
352.50609275244301
  0
ARC
  5
12A9
  8
0
 10
-7.1512834230108986
 20
21.139967459582738
 30
0.0
 40
0.068812670748094
 50
299.25850628647612
 51
352.64674908827669
  0
LINE
  5
12AA
  8
0
 10
-7.0830366731796239
 20
21.131160371928221
 30
0.0
 11
-7.0852338336901202
 21
24.6980595888
 31
0.0
  0
ARC
  5
12AE
  8
0
 10
-6.8518846513702272
 20
-28.64013433553454
 30
0.0
 40
0.2343527225580548
 50
185.2995434311062
 51
253.83282719302039
  0
ARC
  5
12AF
  8
0
 10
-6.5791315026565398
 20
-27.904177661716169
 30
0.0
 40
1.0187488630149739
 50
250.62279082297809
 51
271.58233899239542
  0
LINE
  5
12B0
  8
0
 10
-6.5510002657999999
 20
-28.922538049500002
 30
0.0
 11
18.893427782
 21
-28.922538049500002
 31
0.0
  0
ARC
  5
12B1
  8
0
 10
-1.735616264377456
 20
-55.615868648793082
 30
0.0
 40
27.46300133467766
 50
91.214056376234524
 51
101.04759766904201
  0
LINE
  5
12B3
  8
0
 10
-6.9981974865999979
 20
-28.661802514200001
 30
0.0
 11
-7.0852356177999987
 21
-28.661779774700001
 31
0.0
  0
ARC
  5
1523
  8
0
 10
-1.253332839234063
 20
24.372098988071961
 30
0.0
 40
5.8410046886208411
 50
126.81126398276869
 51
176.80091438702161
  0
ARC
  5
1524
  8
0
 10
4.350237306830369
 20
17.37220199197786
 30
0.0
 40
14.805651635097259
 50
101.8922961187841
 51
127.9416808472785
  0
ARC
  5
1525
  8
0
 10
6.4260060847764189
 20
7.8121892762599181
 30
0.0
 40
24.588310111542452
 50
90.593728734400784
 51
102.0348094794639
  0
ARC
  5
1567
  8
0
 10
5.1134051580637241
 20
-287.38696028026419
 30
0.0
 40
259.33441131350509
 50
89.766293504698808
 51
91.641962739392014
  0
LINE
  5
15A9
  8
0
 10
-15.836572805799999
 20
20.82967530757341
 30
0.0
 11
-10.3199891122
 21
20.8559189741
 31
0.0
  0
LINE
  5
15AB
  8
0
 10
-15.836572805799999
 20
19.310245836907072
 30
0.0
 11
-7.9266519603500036
 21
19.310245671591609
 31
0.0
  0
LINE
  5
15AC
  8
0
 10
-15.836572805799999
 20
8.4046740631540136
 30
0.0
 11
-10.319961317283839
 21
8.4309151452987461
 31
0.0
  0
CIRCLE
  5
15AD
  8
0
 10
-6.9537862419000041
 20
41.048066003199999
 30
0.0
 40
0.0939997297000004
  0
CIRCLE
  5
15AE
  8
0
 10
-6.2037862419000041
 20
41.048066003199999
 30
0.0
 40
0.0939997297000004
  0
CIRCLE
  5
15AF
  8
0
 10
-5.4537862419000041
 20
41.048066003199999
 30
0.0
 40
0.0939997297000004
  0
CIRCLE
  5
15B0
  8
0
 10
-4.7037862419000041
 20
41.048066003199999
 30
0.0
 40
0.0939997297000004
  0
CIRCLE
  5
15B1
  8
0
 10
-3.9537862419000041
 20
41.048066003199999
 30
0.0
 40
0.0939997297000004
  0
CIRCLE
  5
15B2
  8
0
 10
-3.2037862419000041
 20
41.048066003199999
 30
0.0
 40
0.0939997297000004
  0
CIRCLE
  5
15B3
  8
0
 10
-2.4537862419000041
 20
41.048066003199999
 30
0.0
 40
0.0939997297000004
  0
CIRCLE
  5
15B4
  8
0
 10
-1.7037862419000041
 20
41.048066003199999
 30
0.0
 40
0.0939997297000004
  0
CIRCLE
  5
15B5
  8
0
 10
-0.9537862419000041
 20
41.048066003199999
 30
0.0
 40
0.0939997297000004
  0
CIRCLE
  5
15B6
  8
0
 10
-0.203786241900004
 20
41.048066003199999
 30
0.0
 40
0.0939997297000004
  0
CIRCLE
  5
15B7
  8
0
 10
0.5462137580999951
 20
41.048066003199999
 30
0.0
 40
0.0939997297000004
  0
CIRCLE
  5
15B8
  8
0
 10
1.2962137580999951
 20
41.048066003199999
 30
0.0
 40
0.0939997297000004
  0
CIRCLE
  5
15B9
  8
0
 10
2.0462137580999951
 20
41.048066003199999
 30
0.0
 40
0.0939997297000004
  0
CIRCLE
  5
15BA
  8
0
 10
2.7962137580999951
 20
41.048066003199999
 30
0.0
 40
0.0939997297000004
  0
CIRCLE
  5
15BB
  8
0
 10
3.5462137580999951
 20
41.048066003199999
 30
0.0
 40
0.0939997297000004
  0
CIRCLE
  5
15BC
  8
0
 10
4.2962137580999951
 20
41.048066003199999
 30
0.0
 40
0.0939997297000004
  0
CIRCLE
  5
15BD
  8
0
 10
5.0462137580999951
 20
41.048066003199999
 30
0.0
 40
0.0939997297000004
  0
CIRCLE
  5
15BE
  8
0
 10
5.7962137580999951
 20
41.048066003199999
 30
0.0
 40
0.0939997297000004
  0
CIRCLE
  5
1600
  8
0
 10
29.046213758099999
 20
41.048066003199999
 30
0.0
 40
0.0939997297000004
  0
CIRCLE
  5
1601
  8
0
 10
28.296213758099999
 20
41.048066003199999
 30
0.0
 40
0.0939997297000004
  0
CIRCLE
  5
1602
  8
0
 10
27.546213758099999
 20
41.048066003199999
 30
0.0
 40
0.0939997297000004
  0
CIRCLE
  5
1603
  8
0
 10
26.796213758099999
 20
41.048066003199999
 30
0.0
 40
0.0939997297000004
  0
CIRCLE
  5
1604
  8
0
 10
26.046213758099999
 20
41.048066003199999
 30
0.0
 40
0.0939997297000004
  0
CIRCLE
  5
1605
  8
0
 10
25.296213758100009
 20
41.048066003199999
 30
0.0
 40
0.0939997297000004
  0
CIRCLE
  5
1606
  8
0
 10
24.546213758099999
 20
41.048066003199999
 30
0.0
 40
0.0939997297000004
  0
CIRCLE
  5
1607
  8
0
 10
23.796213758099999
 20
41.048066003199999
 30
0.0
 40
0.0939997297000004
  0
CIRCLE
  5
1608
  8
0
 10
23.046213758099999
 20
41.048066003199999
 30
0.0
 40
0.0939997297000004
  0
CIRCLE
  5
1609
  8
0
 10
22.296213758099999
 20
41.048066003199999
 30
0.0
 40
0.0939997297000004
  0
CIRCLE
  5
160A
  8
0
 10
21.546213758099999
 20
41.048066003199999
 30
0.0
 40
0.0939997297000004
  0
CIRCLE
  5
160B
  8
0
 10
20.796213758099999
 20
41.048066003199999
 30
0.0
 40
0.0939997297000004
  0
CIRCLE
  5
160C
  8
0
 10
20.046213758099999
 20
41.048066003199999
 30
0.0
 40
0.0939997297000004
  0
LINE
  5
160D
  8
0
 10
30.067705223099999
 20
41.6551461663
 30
0.0
 11
30.144835689593119
 21
41.500838218937169
 31
0.0
  0
LINE
  5
160E
  8
0
 10
30.144835689593119
 20
41.500838218937169
 30
0.0
 11
30.150669382620471
 21
41.446989318108308
 31
0.0
  0
LINE
  5
160F
  8
0
 10
30.061213758099999
 20
41.442301147499997
 30
0.0
 11
30.17121386844693
 21
41.448066003200012
 31
0.0
  0
LINE
  5
1610
  8
0
 10
30.17121386844693
 20
41.448066003200012
 30
0.0
 11
30.17121386844693
 21
-30.801933996799988
 31
0.0
  0
LINE
  5
1611
  8
0
 10
30.136841393002051
 20
-30.801933996799999
 30
0.0
 11
30.136229289900012
 21
-35.166933996799997
 31
0.0
  0
LINE
  5
1612
  8
0
 10
30.136229289900012
 20
-35.166933996799997
 30
0.0
 11
30.111206429700001
 21
-35.266933996799999
 31
0.0
  0
LINE
  5
1613
  8
0
 10
30.144839320947479
 20
41.500804699100001
 30
0.0
 11
30.034852443093119
 21
41.500771179237169
 31
0.0
  0
LINE
  5
1614
  8
0
 10
30.034852443093119
 20
41.500771179237169
 30
0.0
 11
29.9596085242
 21
41.651304881699993
 31
0.0
  0
LINE
  5
1615
  8
0
 10
29.9596085242
 20
41.651304881699993
 30
0.0
 11
29.9596085242
 21
40.390208361600003
 31
0.0
  0
LINE
  5
1616
  8
0
 10
29.9596085242
 20
40.390208361600003
 30
0.0
 11
30.061213758099999
 21
40.192691499600002
 31
0.0
  0
LINE
  5
1617
  8
0
 10
30.061213758099999
 20
41.442301147499997
 30
0.0
 11
30.061211978300001
 21
-30.602893927499998
 31
0.0
  0
LINE
  5
1618
  8
0
 10
30.061211978300001
 20
-30.602893927499998
 30
0.0
 11
30.17121386844693
 21
-30.602893927500009
 31
0.0
  0
LINE
  5
1619
  8
0
 10
29.9596085242
 20
40.390208361600003
 30
0.0
 11
28.31429867427817
 21
40.303928766951657
 31
0.0
  0
ARC
  5
161A
  8
0
 10
24.127298578893061
 20
120.1487460497756
 30
0.0
 40
79.954523428798538
 50
270.0000885700407
 51
273.0017965949084
  0
LINE
  5
161B
  8
0
 10
30.06121372722972
 20
40.192691498521981
 30
0.0
 11
28.652779081400009
 21
40.118488213799999
 31
0.0
  0
ARC
  5
161C
  8
0
 10
28.67908977076107
 20
39.619091366468517
 30
0.0
 40
0.5000894554969998
 50
93.015836003765585
 51
179.99059600366351
  0
LINE
  5
161D
  8
0
 10
28.179000322
 20
39.6191734465
 30
0.0
 11
28.179000322
 21
-30.301933996799999
 31
0.0
  0
ARC
  5
161E
  8
0
 10
28.67897958426915
 20
-30.30195473515867
 30
0.0
 40
0.4999792626992268
 50
179.99762346058111
 51
269.9962727928675
  0
LINE
  5
161F
  8
0
 10
28.179000322000011
 20
20.82967530757341
 30
0.0
 11
22.662416628399999
 21
20.8559189741
 31
0.0
  0
LINE
  5
1620
  8
0
 10
22.662416628399999
 20
20.8559189741
 30
0.0
 11
20.24187248693509
 21
20.94378444291425
 31
0.0
  0
ARC
  5
1621
  8
0
 10
20.325415213635711
 20
23.736178222293869
 30
0.0
 40
2.7936432138522238
 50
251.95571563459589
 51
268.28633830219638
  0
LINE
  5
1622
  8
0
 10
28.179000322000011
 20
19.310245836907072
 30
0.0
 11
20.269079476550012
 21
19.310245671591609
 31
0.0
  0
ARC
  5
1623
  8
0
 10
20.26907953389555
 20
16.566408117869191
 30
0.0
 40
2.7438375537224191
 50
90.000001197468151
 51
105.76453231985759
  0
ARC
  5
1624
  8
0
 10
19.571521039503988
 20
19.037364843735521
 30
0.0
 40
0.1763066397504231
 50
105.76453231985759
 51
129.2075669310949
  0
ARC
  5
1625
  8
0
 10
19.498513322489028
 20
19.11070299944808
 30
0.0
 40
0.0740368588123277
 50
121.27982827676919
 51
170.6386315815972
  0
ARC
  5
1626
  8
0
 10
22.685014751684509
 20
20.66230193873999
 30
0.0
 40
0.1949313508843101
 50
96.657189546526979
 51
180.0888157698576
  0
LINE
  5
1627
  8
0
 10
22.490083635000001
 20
20.66199977039161
 30
0.0
 11
22.490083635000001
 21
19.498004661586929
 31
0.0
  0
ARC
  5
1628
  8
0
 10
22.665350688355542
 20
19.485428638875831
 30
0.0
 40
0.1757176608630089
 50
175.89586170132429
 51
265.5282150249119
  0
LINE
  5
1629
  8
0
 10
19.425462482149989
 20
19.12274326152448
 30
0.0
 11
19.425462482149989
 21
8.7061702160916106
 31
0.0
  0
LINE
  5
162A
  8
0
 10
28.179000322
 20
8.4046740631540136
 30
0.0
 11
22.662388833483838
 21
8.4309151452987461
 31
0.0
  0
LINE
  5
162B
  8
0
 10
22.662388833483838
 20
8.4309151452987461
 30
0.0
 11
20.24187248693509
 21
8.5187844257142462
 31
0.0
  0
ARC
  5
162C
  8
0
 10
20.325415213635711
 20
11.311178205093871
 30
0.0
 40
2.7936432138522238
 50
251.95571563459589
 51
268.28633830219638
  0
LINE
  5
162D
  8
0
 10
28.179000322
 20
6.8980660032000003
 30
0.0
 11
20.269079476550012
 21
6.8980660032000003
 31
0.0
  0
ARC
  5
162E
  8
0
 10
20.453485722874319
 20
3.2605028507664051
 30
0.0
 40
3.642234389990028
 50
92.902124828630633
 51
104.7913953848217
  0
ARC
  5
162F
  8
0
 10
19.571521039503988
 20
6.6123648265355222
 30
0.0
 40
0.1763066397504231
 50
105.76453231985759
 51
129.2075669310949
  0
ARC
  5
1630
  8
0
 10
19.498513322489028
 20
6.6857029822480767
 30
0.0
 40
0.0740368588123277
 50
121.27982827676929
 51
170.6386315815972
  0
ARC
  5
1631
  8
0
 10
22.668010346339191
 20
8.2529615157474954
 30
0.0
 40
0.1780423985382311
 50
91.809358354066134
 51
182.0655803053433
  0
LINE
  5
1632
  8
0
 10
22.490083635000001
 20
8.2465442679523377
 30
0.0
 11
22.490083635000001
 21
7.0825491591476606
 31
0.0
  0
ARC
  5
1633
  8
0
 10
22.682563357277779
 20
7.0829301444235488
 30
0.0
 40
0.1924800993295642
 50
180.1134084131026
 51
253.82853054369889
  0
LINE
  5
1634
  8
0
 10
19.425462482149989
 20
6.6977432443244806
 30
0.0
 11
19.427776120250002
 21
-19.50719119250839
 31
0.0
  0
LINE
  5
1635
  8
0
 10
28.179000322
 20
-19.794360131400001
 30
0.0
 11
22.662388833483838
 21
-19.769084854701251
 31
0.0
  0
LINE
  5
1636
  8
0
 10
22.662388833483838
 20
-19.769084854701251
 30
0.0
 11
20.24187248693509
 21
-19.720402881535751
 31
0.0
  0
ARC
  5
1637
  8
0
 10
20.190721681974249
 20
-18.254890478122739
 30
0.0
 40
1.4664047904332329
 50
238.64875993298179
 51
271.99898412000459
  0
LINE
  5
1638
  8
0
 10
28.179000322
 20
-21.3166432029
 30
0.0
 11
20.269079476550012
 21
-21.353941652858389
 31
0.0
  0
ARC
  5
1639
  8
0
 10
20.26907953389555
 20
-24.09777920658081
 30
0.0
 40
2.7438375537224191
 50
90.000001197468151
 51
105.76453231985759
  0
ARC
  5
163A
  8
0
 10
19.571521039503988
 20
-21.62682248071448
 30
0.0
 40
0.1763066397504231
 50
105.76453231985759
 51
129.2075669310949
  0
ARC
  5
163B
  8
0
 10
19.498513322489028
 20
-21.553484325001929
 30
0.0
 40
0.0740368588123277
 50
121.27982827676919
 51
170.6386315815972
  0
ARC
  5
163C
  8
0
 10
22.674275498531959
 20
-19.951735820045521
 30
0.0
 40
0.183037340308361
 50
93.723477181773049
 51
181.49304858518411
  0
LINE
  5
163D
  8
0
 10
22.49130030058334
 20
-19.956504979596499
 30
0.0
 11
22.490083635000001
 21
-21.166182662863079
 31
0.0
  0
ARC
  5
163E
  8
0
 10
22.665350688355542
 20
-21.17875868557417
 30
0.0
 40
0.1757176608630089
 50
175.89586170132429
 51
249.1207288112077
  0
LINE
  5
163F
  8
0
 10
19.425462482149989
 20
-21.541444062925521
 30
0.0
 11
19.427663133999999
 21
-28.661779774700001
 31
0.0
  0
ARC
  5
1640
  8
0
 10
19.49404175075918
 20
8.715191429169284
 30
0.0
 40
0.0691700684426671
 50
187.49390724755699
 51
240.59361638889379
  0
ARC
  5
1641
  8
0
 10
19.493710939210899
 20
21.139967459582738
 30
0.0
 40
0.068812670748094
 50
187.35325091172331
 51
240.74149371352391
  0
LINE
  5
1642
  8
0
 10
19.425464189379621
 20
21.131160371928221
 30
0.0
 11
19.427661349890119
 21
24.6980595888
 31
0.0
  0
ARC
  5
1643
  8
0
 10
19.194312167570221
 20
-28.64013433553454
 30
0.0
 40
0.2343527225580548
 50
286.16717280697969
 51
354.7004565688938
  0
ARC
  5
1644
  8
0
 10
18.921559018856541
 20
-27.904177661716169
 30
0.0
 40
1.0187488630149739
 50
268.41766100760458
 51
289.37720917702188
  0
ARC
  5
1645
  8
0
 10
14.078043780577451
 20
-55.615868648793082
 30
0.0
 40
27.46300133467766
 50
78.952402330957895
 51
88.785943623765434
  0
LINE
  5
1646
  8
0
 10
19.340625002799989
 20
-28.661802514200001
 30
0.0
 11
19.427663133999999
 21
-28.661779774700001
 31
0.0
  0
ARC
  5
1647
  8
0
 10
13.595760355434059
 20
24.372098988071961
 30
0.0
 40
5.8410046886208411
 50
3.1990856129783358
 51
53.18873601723125
  0
ARC
  5
1648
  8
0
 10
7.9921902093696291
 20
17.37220199197786
 30
0.0
 40
14.805651635097259
 50
52.058319152721552
 51
78.107703881215841
  0
ARC
  5
1649
  8
0
 10
5.9164214314235686
 20
7.8121892762597689
 30
0.0
 40
24.588310111542611
 50
77.965190520536197
 51
89.406271265599187
  0
ARC
  5
164A
  8
0
 10
7.2290223581352997
 20
-287.38696028035241
 30
0.0
 40
259.33441131359331
 50
88.358037260608285
 51
90.233706495300893
  0
CIRCLE
  5
164B
  8
0
 10
19.296213758099999
 20
41.048066003199999
 30
0.0
 40
0.0939997297000004
  0
CIRCLE
  5
164C
  8
0
 10
18.546213758099999
 20
41.048066003199999
 30
0.0
 40
0.0939997297000004
  0
CIRCLE
  5
164D
  8
0
 10
17.796213758099999
 20
41.048066003199999
 30
0.0
 40
0.0939997297000004
  0
CIRCLE
  5
164E
  8
0
 10
17.046213758099999
 20
41.048066003199999
 30
0.0
 40
0.0939997297000004
  0
CIRCLE
  5
164F
  8
0
 10
16.296213758099999
 20
41.048066003199999
 30
0.0
 40
0.0939997297000004
  0
CIRCLE
  5
1650
  8
0
 10
15.5462137581
 20
41.048066003199999
 30
0.0
 40
0.0939997297000004
  0
CIRCLE
  5
1651
  8
0
 10
14.7962137581
 20
41.048066003199999
 30
0.0
 40
0.0939997297000004
  0
CIRCLE
  5
1652
  8
0
 10
14.0462137581
 20
41.048066003199999
 30
0.0
 40
0.0939997297000004
  0
CIRCLE
  5
1653
  8
0
 10
13.2962137581
 20
41.048066003199999
 30
0.0
 40
0.0939997297000004
  0
CIRCLE
  5
1654
  8
0
 10
12.5462137581
 20
41.048066003199999
 30
0.0
 40
0.0939997297000004
  0
CIRCLE
  5
1655
  8
0
 10
11.7962137581
 20
41.048066003199999
 30
0.0
 40
0.0939997297000004
  0
CIRCLE
  5
1656
  8
0
 10
11.0462137581
 20
41.048066003199999
 30
0.0
 40
0.0939997297000004
  0
CIRCLE
  5
1657
  8
0
 10
10.2962137581
 20
41.048066003199999
 30
0.0
 40
0.0939997297000004
  0
CIRCLE
  5
1658
  8
0
 10
9.5462137581000022
 20
41.048066003199999
 30
0.0
 40
0.0939997297000004
  0
CIRCLE
  5
1659
  8
0
 10
8.7962137581000022
 20
41.048066003199999
 30
0.0
 40
0.0939997297000004
  0
CIRCLE
  5
165A
  8
0
 10
8.0462137581000022
 20
41.048066003199999
 30
0.0
 40
0.0939997297000004
  0
CIRCLE
  5
165B
  8
0
 10
7.2962137581000031
 20
41.048066003199999
 30
0.0
 40
0.0939997297000004
  0
CIRCLE
  5
165C
  8
0
 10
6.5462137581000031
 20
41.048066003199999
 30
0.0
 40
0.0939997297000004
  0
ATTDEF
  5
21EC
  8
DEFPOINTS
 10
6.168251979030515
 20
-35.272466524972117
 30
0.0
 40
0.001
  1
72220100
  3

  2
MODELNUMBER
 70
     0
1001
AcDbAttr
1070
     0
1070
     1
  0
ATTDEF
  5
21ED
  8
DEFPOINTS
 10
6.168251979030515
 20
-35.274133191638789
 30
0.0
 40
0.001
  1
ENSEMBLE
  3

  2
TRADENAME
 70
     0
1001
AcDbAttr
1070
     0
1070
     1
  0
ATTDEF
  5
21EE
  8
DEFPOINTS
 10
6.168251979030515
 20
-35.275799858305483
 30
0.0
 40
0.001
  1
SHOWER STALL
  3

  2
PRODUCT
 70
     0
1001
AcDbAttr
1070
     0
1070
     1
  0
ATTDEF
  5
21EF
  8
DEFPOINTS
 10
6.168251979030515
 20
-35.277466524972141
 30
0.0
 40
0.001
  1
VIKRELL
  3

  2
MATERIAL
 70
     0
1001
AcDbAttr
1070
     0
1070
     1
  0
ENDSEC
  0
EOF
