  0
SECTION
  2
HEADER
  9
$ACADVER
  1
AC1009
  9
$INSBASE
 10
278.15847320836127
 20
103.60854814060001
 30
0.0
  9
$EXTMIN
 10
260.15847320703631
 20
68.358548140599993
 30
0.0
  9
$EXTMAX
 10
296.15847320983642
 20
103.61559693196661
 30
0.0
  9
$LIMMIN
 10
0.0
 20
0.0
  9
$LIMMAX
 10
11.692913385800001
 20
8.2677165353999982
  9
$ORTHOMODE
 70
     1
  9
$REGENMODE
 70
     1
  9
$FILLMODE
 70
     1
  9
$QTEXTMODE
 70
     0
  9
$MIRRTEXT
 70
     0
  9
$DRAGMODE
 70
     2
  9
$LTSCALE
 40
0.6431102362
  9
$OSMODE
 70
  3071
  9
$ATTMODE
 70
     1
  9
$TEXTSIZE
 40
0.2
  9
$TRACEWID
 40
0.05
  9
$TEXTSTYLE
  7
STANDARD
  9
$CLAYER
  8
0
  9
$CELTYPE
  6
BYLAYER
  9
$CECOLOR
 62
   256
  9
$DIMSCALE
 40
1.0
  9
$DIMASZ
 40
0.1875
  9
$DIMEXO
 40
0.0625
  9
$DIMDLI
 40
0.4443307087
  9
$DIMRND
 40
0.0
  9
$DIMDLE
 40
0.0
  9
$DIMEXE
 40
0.125
  9
$DIMTP
 40
0.01
  9
$DIMTM
 40
0.01
  9
$DIMTXT
 40
1.0
  9
$DIMCEN
 40
0.1052362205
  9
$DIMTSZ
 40
0.0
  9
$DIMTOL
 70
     1
  9
$DIMLIM
 70
     0
  9
$DIMTIH
 70
     1
  9
$DIMTOH
 70
     1
  9
$DIMSE1
 70
     0
  9
$DIMSE2
 70
     0
  9
$DIMTAD
 70
     0
  9
$DIMZIN
 70
     0
  9
$DIMBLK
  1

  9
$DIMASO
 70
     1
  9
$DIMSHO
 70
     1
  9
$DIMPOST
  1
\X
  9
$DIMAPOST
  1

  9
$DIMALT
 70
     1
  9
$DIMALTD
 70
     2
  9
$DIMALTF
 40
25.399999999999999
  9
$DIMLFAC
 40
1.0
  9
$DIMTOFL
 70
     0
  9
$DIMTVP
 40
0.0
  9
$DIMTIX
 70
     0
  9
$DIMSOXD
 70
     0
  9
$DIMSAH
 70
     0
  9
$DIMBLK1
  1

  9
$DIMBLK2
  1

  9
$DIMSTYLE
  2
STANDARD
  9
$DIMCLRD
 70
     0
  9
$DIMCLRE
 70
     0
  9
$DIMCLRT
 70
     0
  9
$DIMTFAC
 40
1.0
  9
$DIMGAP
 40
0.09
  9
$LUNITS
 70
     2
  9
$LUPREC
 70
     4
  9
$SKETCHINC
 40
0.1
  9
$FILLETRAD
 40
0.0
  9
$AUNITS
 70
     0
  9
$AUPREC
 70
     0
  9
$MENU
  1
.
  9
$ELEVATION
 40
0.0
  9
$PELEVATION
 40
0.0
  9
$THICKNESS
 40
0.0
  9
$LIMCHECK
 70
     0
  9
$BLIPMODE
 70
     0
  9
$CHAMFERA
 40
0.0
  9
$CHAMFERB
 40
0.0
  9
$SKPOLY
 70
     0
  9
$TDCREATE
 40
2458143.7378464821
  9
$TDUPDATE
 40
2458144.426096505
  9
$TDINDWG
 40
0.0598168287
  9
$TDUSRTIMER
 40
0.0598168287
  9
$USRTIMER
 70
     1
  9
$ANGBASE
 50
0.0
  9
$ANGDIR
 70
     0
  9
$PDMODE
 70
     0
  9
$PDSIZE
 40
0.3125
  9
$PLINEWID
 40
0.0
  9
$COORDS
 70
     1
  9
$SPLFRAME
 70
     0
  9
$SPLINETYPE
 70
     6
  9
$SPLINESEGS
 70
     8
  9
$ATTDIA
 70
     1
  9
$ATTREQ
 70
     1
  9
$HANDLING
 70
     1
  9
$HANDSEED
  5
1E4F
  9
$SURFTAB1
 70
     6
  9
$SURFTAB2
 70
     6
  9
$SURFTYPE
 70
     6
  9
$SURFU
 70
     6
  9
$SURFV
 70
     6
  9
$UCSNAME
  2

  9
$UCSORG
 10
0.0
 20
0.0
 30
0.0
  9
$UCSXDIR
 10
1.0
 20
0.0
 30
0.0
  9
$UCSYDIR
 10
0.0
 20
1.0
 30
0.0
  9
$PUCSNAME
  2

  9
$PUCSORG
 10
0.0
 20
0.0
 30
0.0
  9
$PUCSXDIR
 10
1.0
 20
0.0
 30
0.0
  9
$PUCSYDIR
 10
0.0
 20
1.0
 30
0.0
  9
$USERI1
 70
     0
  9
$USERI2
 70
     0
  9
$USERI3
 70
     0
  9
$USERI4
 70
     0
  9
$USERI5
 70
     0
  9
$USERR1
 40
0.0
  9
$USERR2
 40
0.0
  9
$USERR3
 40
0.0
  9
$USERR4
 40
0.0
  9
$USERR5
 40
0.0
  9
$WORLDVIEW
 70
     1
  9
$SHADEDGE
 70
     3
  9
$SHADEDIF
 70
    70
  9
$TILEMODE
 70
     1
  9
$MAXACTVP
 70
    64
  9
$PLIMCHECK
 70
     0
  9
$PEXTMIN
 10
1.0000000000000000E+020
 20
1.0000000000000000E+020
 30
1.0000000000000000E+020
  9
$PEXTMAX
 10
-1.0000000000000000E+020
 20
-1.0000000000000000E+020
 30
-1.0000000000000000E+020
  9
$PLIMMIN
 10
0.0
 20
0.0
  9
$PLIMMAX
 10
12.0
 20
9.0
  9
$UNITMODE
 70
     0
  9
$VISRETAIN
 70
     1
  9
$PLINEGEN
 70
     0
  9
$PSLTSCALE
 70
     1
  0
ENDSEC
  0
SECTION
  2
TABLES
  0
TABLE
  2
VPORT
 70
     1
  0
VPORT
  2
*ACTIVE
 70
     0
 10
0.0
 20
0.0
 11
1.0
 21
1.0
 12
0.0
 22
0.0
 13
0.0
 23
0.0
 14
1.0
 24
1.0
 15
0.0
 25
0.0
 16
-0.0000000000000568
 26
0.0
 36
141.69335660870939
 17
278.15847320843642
 27
85.987072536283279
 37
0.0
 40
50.406563162423247
 41
2.0983240223463682
 42
50.0
 43
0.0
 44
0.0
 50
0.0
 51
0.0
 71
     0
 72
   100
 73
     1
 74
     1
 75
     0
 76
     0
 77
     0
 78
     0
  0
ENDTAB
  0
TABLE
  2
LTYPE
 70
     3
  0
LTYPE
  2
CONTINUOUS
 70
     0
  3
Solid line
 72
    65
 73
     0
 40
0.0
  0
LTYPE
  2
PHANTOM2
 70
     0
  3
___ _ _ ___ _ _ ___ _ _ ___ _ _
 72
    65
 73
     6
 40
1.25
 49
0.625
 49
-0.125
 49
0.125
 49
-0.125
 49
0.125
 49
-0.125
  0
ENDTAB
  0
TABLE
  2
LAYER
 70
     2
  0
LAYER
  2
0
 70
     0
 62
   255
  6
CONTINUOUS
  0
LAYER
  2
DEFPOINTS
 70
     0
 62
     7
  6
CONTINUOUS
  0
ENDTAB
  0
TABLE
  2
STYLE
 70
     1
  0
STYLE
  2
STANDARD
 70
     0
 40
0.0
 41
0.8
 50
0.0
 71
     0
 42
0.2
  3
txt
  4

  0
ENDTAB
  0
TABLE
  2
VIEW
 70
     0
  0
ENDTAB
  0
TABLE
  2
UCS
 70
     0
  0
ENDTAB
  0
TABLE
  2
APPID
 70
     9
  0
APPID
  2
ACAD
 70
     0
  0
APPID
  2
ACAD_MLEADERVER
 70
     0
  0
APPID
  2
ACAD_EXEMPT_FROM_CAD_STANDARDS
 70
     0
  0
APPID
  2
ACAD_DSTYLE_DIMJAG
 70
     0
  0
APPID
  2
ACAD_DSTYLE_DIMTALN
 70
     0
  0
APPID
  2
ACAD_NAV_VCDISPLAY
 70
     0
  0
APPID
  2
ACAECLAYERSTANDARD
 70
     0
  0
APPID
  2
ACCMTRANSPARENCY
 70
     0
  0
APPID
  2
AcDbAttr
 70
     0
  0
ENDTAB
  0
TABLE
  2
DIMSTYLE
 70
     2
  0
DIMSTYLE
  2
STANDARD
 70
     0
  3

  4

  5

  6

  7

 40
1.0
 41
0.1875
 42
0.0625
 43
0.38
 44
0.125
 45
0.0
 46
0.0
 47
0.01
 48
0.01
140
0.15625
141
0.09
142
0.0
143
25.399999999999999
144
1.0
145
0.0
146
1.0
147
0.09
 71
     1
 72
     0
 73
     1
 74
     1
 75
     0
 76
     0
 77
     0
 78
     4
170
     0
171
     2
172
     0
173
     0
174
     0
175
     0
176
     0
177
     0
178
     0
  0
ENDTAB
  0
ENDSEC
  0
SECTION
  2
BLOCKS
  0
BLOCK
  8
0
  2
$MODEL_SPACE
 70
     0
 10
0.0
 20
0.0
 30
0.0
  3
$MODEL_SPACE
  1

  0
ENDBLK
  5
21
  8
0
  0
BLOCK
 67
     1
  8
0
  2
$PAPER_SPACE
 70
     0
 10
0.0
 20
0.0
 30
0.0
  3
$PAPER_SPACE
  1

  0
ENDBLK
  5
1D
 67
     1
  8
0
  0
ENDSEC
  0
SECTION
  2
ENTITIES
  0
LINE
  5
1C65
  8
0
 10
296.05496467343642
 20
103.60854814060001
 30
0.0
 11
260.26198174343631
 21
103.60854814060001
 31
0.0
  0
LINE
  5
1C66
  8
0
 10
260.15847320843642
 20
103.43854814060001
 30
0.0
 11
260.15847320843642
 21
97.678548140600014
 31
0.0
  0
LINE
  5
1C67
  8
0
 10
260.15847320703631
 20
97.983548140599993
 30
0.0
 11
260.27377862807981
 21
97.981535476989094
 31
0.0
  0
LINE
  5
1C68
  8
0
 10
260.27377862807981
 20
97.981535476989094
 30
0.0
 11
260.37007844233631
 21
103.49854814059999
 31
0.0
  0
LINE
  5
1C69
  8
0
 10
260.37007844233631
 20
103.49854814059999
 30
0.0
 11
295.94686797453642
 21
103.49854814059999
 31
0.0
  0
LINE
  5
1C6A
  8
0
 10
260.15847320843642
 20
97.678548140600014
 30
0.0
 11
260.15847320843642
 21
68.358548140599993
 31
0.0
  0
LINE
  5
1C6B
  8
0
 10
260.15847320843642
 20
68.358548140599993
 30
0.0
 11
260.26847320843638
 21
68.358548140599993
 31
0.0
  0
LINE
  5
1C6C
  8
0
 10
260.26847320843638
 20
68.358548140599993
 30
0.0
 11
260.26847320843638
 21
97.477587662100035
 31
0.0
  0
LINE
  5
1C6D
  8
0
 10
260.26847320843638
 20
97.477587662100035
 30
0.0
 11
260.15847804633631
 21
97.477587662100035
 31
0.0
  0
LINE
  5
1C6E
  8
0
 10
260.15847320843642
 20
97.678548140600014
 30
0.0
 11
261.65946611042898
 21
97.652348212073406
 31
0.0
  0
ARC
  5
1C6F
  8
0
 10
261.65073990723158
 20
97.152424365054685
 30
0.0
 40
0.4999999994402538
 50
34.949713968986231
 51
89.000000001317474
  0
ARC
  5
1C70
  8
0
 10
261.65073990604787
 20
97.152424364227414
 30
0.0
 40
0.5000000008843595
 50
359.16369066041921
 51
34.949713968986231
  0
LINE
  5
1C71
  8
0
 10
262.1506866445082
 20
97.145126447591593
 30
0.0
 11
261.83038192499981
 21
70.136739595601142
 31
0.0
  0
ARC
  5
1C72
  8
0
 10
261.33044058148312
 20
70.129081071092244
 30
0.0
 40
0.4999999998914352
 50
270.9999999948551
 51
0.8776363156171155
  0
LINE
  5
1C73
  8
0
 10
261.33916678465488
 20
69.629157223621831
 30
0.0
 11
260.26847498823469
 21
69.610468228893382
 31
0.0
  0
LINE
  5
1C74
  8
0
 10
260.26847498823469
 20
69.610468228893382
 30
0.0
 11
296.04847320843629
 21
69.610468228837505
 31
0.0
  0
ARC
  5
1C75
  8
0
 10
260.8328020056228
 20
97.716927505463431
 30
0.0
 40
0.0538801238698807
 50
290.46757911499338
 51
349.35849667414658
  0
LINE
  5
1C76
  8
0
 10
260.88575549063643
 20
97.706977823400024
 30
0.0
 11
260.90904629014949
 21
98.151048422451225
 31
0.0
  0
ARC
  5
1C77
  8
0
 10
260.93894191843629
 20
98.148548140600013
 30
0.0
 40
0.029999999999996
 50
89.999999994694534
 51
175.21926797741239
  0
LINE
  5
1C78
  8
0
 10
260.93894191843913
 20
98.178548140600014
 30
0.0
 11
261.18200449833643
 21
98.178548140577504
 31
0.0
  0
ARC
  5
1C79
  8
0
 10
261.18200449833353
 20
98.148548140573183
 30
0.0
 40
0.0300000000043212
 50
3.3160883765780529
 51
89.999999994684757
  0
LINE
  5
1C7A
  8
0
 10
261.2119542667445
 20
98.150283471200026
 30
0.0
 11
261.2351909260945
 21
97.706977823400777
 31
0.0
  0
ARC
  5
1C7B
  8
0
 10
261.26514979963628
 20
97.708548140599987
 30
0.0
 40
0.0299999999999395
 50
183.00045614945361
 51
270.00000000008788
  0
LINE
  5
1C7C
  8
0
 10
261.26514986613631
 20
97.678548140600014
 30
0.0
 11
261.56205263273642
 21
97.678548140600014
 31
0.0
  0
ARC
  5
1C7D
  8
0
 10
261.56205263273642
 20
102.6785481443042
 30
0.0
 40
5.0000000037042289
 50
270.0
 51
276.49999999586061
  0
LINE
  5
1C7E
  8
0
 10
262.12806870163638
 20
97.710688862200001
 30
0.0
 11
265.80509702910911
 21
98.129633321453994
 31
0.0
  0
ARC
  5
1C7F
  8
0
 10
265.76353205750939
 20
98.499935946213469
 30
0.0
 40
0.3726280729733559
 50
276.40441251305162
 51
340.26798984306743
  0
ARC
  5
1C80
  8
0
 10
272.03412297822558
 20
96.638619200478075
 30
0.0
 40
6.1689976788069467
 50
129.90225416815591
 51
163.66054107569369
  0
LINE
  5
1C81
  8
0
 10
268.074600103303
 20
101.3739085276746
 30
0.0
 11
268.4627215010031
 21
101.6835476177371
 31
0.0
  0
ARC
  5
1C82
  8
0
 10
261.6617354935907
 20
97.867080633147992
 30
0.0
 40
0.1875000002062472
 50
271.1868708403066
 51
358.99999995721902
  0
LINE
  5
1C83
  8
0
 10
261.84920693663628
 20
97.863808306797409
 30
0.0
 11
261.86781499299991
 21
98.92986309627787
 31
0.0
  0
ARC
  5
1C84
  8
0
 10
264.57036361284599
 20
98.981462622151355
 30
0.0
 40
2.7030411675929482
 50
91.524025086542764
 51
181.09381043828651
  0
LINE
  5
1C85
  8
0
 10
264.49847320783641
 20
101.6835476177371
 30
0.0
 11
291.81847320903631
 21
101.6835476177371
 31
0.0
  0
ARC
  5
1C86
  8
0
 10
264.46957490857869
 20
76.235288733662514
 30
0.0
 40
2.895712224197549
 50
206.8993235363838
 51
268.79092633901541
  0
LINE
  5
1C87
  8
0
 10
264.40847320843727
 20
73.340221227090893
 30
0.0
 11
291.90847320843551
 21
73.340221227090865
 31
0.0
  0
CIRCLE
  5
1C88
  8
0
 10
278.15847320843642
 20
87.778548140599995
 30
0.0
 40
1.765499999999999
  0
CIRCLE
  5
1C89
  8
0
 10
278.15847320843642
 20
87.778548140599995
 30
0.0
 40
2.3047850525999989
  0
ARC
  5
1C8A
  8
0
 10
260.33764873317699
 20
103.43248874958
 30
0.0
 40
0.179277954265463
 50
115.05637005912639
 51
178.0630989027209
  0
LINE
  5
1C8B
  8
0
 10
260.26172277664978
 20
103.5948951349565
 30
0.0
 11
260.26198174343631
 21
103.60854814060001
 31
0.0
  0
LINE
  5
1C8C
  8
0
 10
296.15847320843642
 20
103.43854814060001
 30
0.0
 11
296.15847320843642
 21
97.678548140600014
 31
0.0
  0
LINE
  5
1C8D
  8
0
 10
296.15847320983642
 20
97.983548140599993
 30
0.0
 11
296.04316778879291
 21
97.981535476989094
 31
0.0
  0
LINE
  5
1C8E
  8
0
 10
296.04316778879291
 20
97.981535476989094
 30
0.0
 11
295.94686797453642
 21
103.49854814059999
 31
0.0
  0
LINE
  5
1C8F
  8
0
 10
296.15847320843642
 20
97.678548140600014
 30
0.0
 11
296.1584732082863
 21
68.358548140600007
 31
0.0
  0
LINE
  5
1C90
  8
0
 10
296.1584732082863
 20
68.358548140600007
 30
0.0
 11
296.04847320843629
 21
68.358548140599993
 31
0.0
  0
LINE
  5
1C91
  8
0
 10
296.04847320843629
 20
68.358548140599993
 30
0.0
 11
296.04847320843629
 21
97.477587662100035
 31
0.0
  0
LINE
  5
1C92
  8
0
 10
296.04847320843629
 20
97.477587662100035
 30
0.0
 11
296.15846837053641
 21
97.477587662100035
 31
0.0
  0
LINE
  5
1C93
  8
0
 10
296.15847320843642
 20
97.678548140600014
 30
0.0
 11
294.6574803064438
 21
97.652348212073406
 31
0.0
  0
ARC
  5
1C94
  8
0
 10
294.66620650964109
 20
97.152424365054685
 30
0.0
 40
0.4999999994402538
 50
90.999999998682526
 51
145.05028603101371
  0
ARC
  5
1C95
  8
0
 10
294.66620651082479
 20
97.152424364227414
 30
0.0
 40
0.5000000008843595
 50
145.05028603101371
 51
180.83630933958079
  0
LINE
  5
1C96
  8
0
 10
294.16625977236441
 20
97.145126447591593
 30
0.0
 11
294.48656449187291
 21
70.136739595601142
 31
0.0
  0
ARC
  5
1C97
  8
0
 10
294.98650583538949
 20
70.129081071092244
 30
0.0
 40
0.4999999998914352
 50
179.12236368438289
 51
269.0000000051449
  0
LINE
  5
1C98
  8
0
 10
294.97777963221768
 20
69.629157223621831
 30
0.0
 11
296.04847142863798
 21
69.610468228893382
 31
0.0
  0
ARC
  5
1C99
  8
0
 10
295.48414441124982
 20
97.716927505463431
 30
0.0
 40
0.0538801238698807
 50
190.64150332585339
 51
249.53242088500659
  0
LINE
  5
1C9A
  8
0
 10
295.43119092623641
 20
97.706977823400024
 30
0.0
 11
295.40790012672318
 21
98.151048422451225
 31
0.0
  0
ARC
  5
1C9B
  8
0
 10
295.37800449843638
 20
98.148548140600013
 30
0.0
 40
0.029999999999996
 50
4.780732022587534
 51
90.000000005305466
  0
LINE
  5
1C9C
  8
0
 10
295.3780044984336
 20
98.178548140600014
 30
0.0
 11
295.13494191853641
 21
98.178548140577504
 31
0.0
  0
ARC
  5
1C9D
  8
0
 10
295.13494191853908
 20
98.148548140573183
 30
0.0
 40
0.0300000000043212
 50
90.000000005315258
 51
176.68391162342189
  0
LINE
  5
1C9E
  8
0
 10
295.10499215012811
 20
98.150283471200026
 30
0.0
 11
295.08175549077822
 21
97.706977823400777
 31
0.0
  0
ARC
  5
1C9F
  8
0
 10
295.05179661723639
 20
97.708548140599987
 30
0.0
 40
0.0299999999999395
 50
269.99999999991212
 51
356.99954385054627
  0
LINE
  5
1CA0
  8
0
 10
295.0517965507363
 20
97.678548140600014
 30
0.0
 11
294.7548937841363
 21
97.678548140600014
 31
0.0
  0
ARC
  5
1CA1
  8
0
 10
294.7548937841363
 20
102.6785481443042
 30
0.0
 40
5.0000000037042289
 50
263.50000000413951
 51
270.0
  0
LINE
  5
1CA2
  8
0
 10
294.18887771523629
 20
97.710688862200001
 30
0.0
 11
290.5118493877635
 21
98.129633321453994
 31
0.0
  0
ARC
  5
1CA3
  8
0
 10
290.55341435936322
 20
98.499935946213469
 30
0.0
 40
0.3726280729733559
 50
199.7320101569326
 51
263.59558748694838
  0
ARC
  5
1CA4
  8
0
 10
284.28282343864709
 20
96.638619200478075
 30
0.0
 40
6.1689976788069467
 50
16.339458924306228
 51
50.097745831844144
  0
LINE
  5
1CA5
  8
0
 10
288.24234631356973
 20
101.3739085276746
 30
0.0
 11
287.85422491586962
 21
101.6835476177371
 31
0.0
  0
ARC
  5
1CA6
  8
0
 10
294.65521092328203
 20
97.867080633147992
 30
0.0
 40
0.1875000002062472
 50
181.00000004278101
 51
268.8131291596934
  0
LINE
  5
1CA7
  8
0
 10
294.46773948023639
 20
97.863808306797409
 30
0.0
 11
294.44913142387281
 21
98.92986309627787
 31
0.0
  0
ARC
  5
1CA8
  8
0
 10
291.74658280402667
 20
98.981462622151355
 30
0.0
 40
2.7030411675929482
 50
358.9061895617134
 51
88.475974913457236
  0
ARC
  5
1CA9
  8
0
 10
291.84737150829397
 20
76.235288733662514
 30
0.0
 40
2.895712224197549
 50
271.20907366098459
 51
333.10067646361608
  0
ARC
  5
1CAA
  8
0
 10
295.97929768369568
 20
103.43248874958
 30
0.0
 40
0.179277954265463
 50
1.9369010972790399
 51
64.943629940873564
  0
LINE
  5
1CAB
  8
0
 10
296.05522364022289
 20
103.5948951349565
 30
0.0
 11
296.05496467343642
 21
103.60854814060001
 31
0.0
  0
ATTDEF
  5
1D80
  8
DEFPOINTS
 10
278.15619014104658
 20
103.6145969319665
 30
0.0
 40
0.001
  1
72200100
  3

  2
MODELNUMBER
 70
     0
1001
AcDbAttr
1070
     0
1070
     1
  0
ATTDEF
  5
1D81
  8
DEFPOINTS
 10
278.15619014104658
 20
103.61293026529989
 30
0.0
 40
0.001
  1
ENSEMBLE
  3

  2
TRADENAME
 70
     0
1001
AcDbAttr
1070
     0
1070
     1
  0
ATTDEF
  5
1D82
  8
DEFPOINTS
 10
278.15619014104658
 20
103.6112635986332
 30
0.0
 40
0.001
  1
SHOWER STALL
  3

  2
PRODUCT
 70
     0
1001
AcDbAttr
1070
     0
1070
     1
  0
ATTDEF
  5
1D83
  8
DEFPOINTS
 10
278.15619014104658
 20
103.60959693196649
 30
0.0
 40
0.001
  1
VIKRELL
  3

  2
MATERIAL
 70
     0
1001
AcDbAttr
1070
     0
1070
     1
  0
ENDSEC
  0
EOF
