  0
SECTION
  2
HEADER
  9
$ACADVER
  1
AC1009
  9
$INSBASE
 10
278.15847320836127
 20
-34.638237781699992
 30
0.0
  9
$EXTMIN
 10
260.15847320843642
 20
-34.64547410194951
 30
0.0
  9
$EXTMAX
 10
296.1584732082863
 20
42.283842381499987
 30
0.0
  9
$LIMMIN
 10
0.0
 20
0.0
  9
$LIMMAX
 10
11.692913385800001
 20
8.2677165353999982
  9
$ORTHOMODE
 70
     0
  9
$REGENMODE
 70
     1
  9
$FILLMODE
 70
     1
  9
$QTEXTMODE
 70
     0
  9
$MIRRTEXT
 70
     0
  9
$DRAGMODE
 70
     2
  9
$LTSCALE
 40
0.6431102362
  9
$OSMODE
 70
  3071
  9
$ATTMODE
 70
     1
  9
$TEXTSIZE
 40
0.2
  9
$TRACEWID
 40
0.05
  9
$TEXTSTYLE
  7
STANDARD
  9
$CLAYER
  8
0
  9
$CELTYPE
  6
BYLAYER
  9
$CECOLOR
 62
   256
  9
$DIMSCALE
 40
1.0
  9
$DIMASZ
 40
0.1875
  9
$DIMEXO
 40
0.0625
  9
$DIMDLI
 40
0.4443307087
  9
$DIMRND
 40
0.0
  9
$DIMDLE
 40
0.0
  9
$DIMEXE
 40
0.125
  9
$DIMTP
 40
0.01
  9
$DIMTM
 40
0.01
  9
$DIMTXT
 40
1.0
  9
$DIMCEN
 40
0.1052362205
  9
$DIMTSZ
 40
0.0
  9
$DIMTOL
 70
     1
  9
$DIMLIM
 70
     0
  9
$DIMTIH
 70
     1
  9
$DIMTOH
 70
     1
  9
$DIMSE1
 70
     0
  9
$DIMSE2
 70
     0
  9
$DIMTAD
 70
     0
  9
$DIMZIN
 70
     0
  9
$DIMBLK
  1

  9
$DIMASO
 70
     1
  9
$DIMSHO
 70
     1
  9
$DIMPOST
  1
\X
  9
$DIMAPOST
  1

  9
$DIMALT
 70
     1
  9
$DIMALTD
 70
     2
  9
$DIMALTF
 40
25.399999999999999
  9
$DIMLFAC
 40
1.0
  9
$DIMTOFL
 70
     0
  9
$DIMTVP
 40
0.0
  9
$DIMTIX
 70
     0
  9
$DIMSOXD
 70
     0
  9
$DIMSAH
 70
     0
  9
$DIMBLK1
  1

  9
$DIMBLK2
  1

  9
$DIMSTYLE
  2
STANDARD
  9
$DIMCLRD
 70
     0
  9
$DIMCLRE
 70
     0
  9
$DIMCLRT
 70
     0
  9
$DIMTFAC
 40
1.0
  9
$DIMGAP
 40
0.09
  9
$LUNITS
 70
     2
  9
$LUPREC
 70
     4
  9
$SKETCHINC
 40
0.1
  9
$FILLETRAD
 40
0.0
  9
$AUNITS
 70
     0
  9
$AUPREC
 70
     0
  9
$MENU
  1
.
  9
$ELEVATION
 40
0.0
  9
$PELEVATION
 40
0.0
  9
$THICKNESS
 40
0.0
  9
$LIMCHECK
 70
     0
  9
$BLIPMODE
 70
     0
  9
$CHAMFERA
 40
0.0
  9
$CHAMFERB
 40
0.0
  9
$SKPOLY
 70
     0
  9
$TDCREATE
 40
2458143.7378464821
  9
$TDUPDATE
 40
2458144.4259700468
  9
$TDINDWG
 40
0.0596990972
  9
$TDUSRTIMER
 40
0.0596990972
  9
$USRTIMER
 70
     1
  9
$ANGBASE
 50
0.0
  9
$ANGDIR
 70
     0
  9
$PDMODE
 70
     0
  9
$PDSIZE
 40
0.3125
  9
$PLINEWID
 40
0.0
  9
$COORDS
 70
     1
  9
$SPLFRAME
 70
     0
  9
$SPLINETYPE
 70
     6
  9
$SPLINESEGS
 70
     8
  9
$ATTDIA
 70
     1
  9
$ATTREQ
 70
     1
  9
$HANDLING
 70
     1
  9
$HANDSEED
  5
1E43
  9
$SURFTAB1
 70
     6
  9
$SURFTAB2
 70
     6
  9
$SURFTYPE
 70
     6
  9
$SURFU
 70
     6
  9
$SURFV
 70
     6
  9
$UCSNAME
  2

  9
$UCSORG
 10
0.0
 20
0.0
 30
0.0
  9
$UCSXDIR
 10
1.0
 20
0.0
 30
0.0
  9
$UCSYDIR
 10
0.0
 20
1.0
 30
0.0
  9
$PUCSNAME
  2

  9
$PUCSORG
 10
0.0
 20
0.0
 30
0.0
  9
$PUCSXDIR
 10
1.0
 20
0.0
 30
0.0
  9
$PUCSYDIR
 10
0.0
 20
1.0
 30
0.0
  9
$USERI1
 70
     0
  9
$USERI2
 70
     0
  9
$USERI3
 70
     0
  9
$USERI4
 70
     0
  9
$USERI5
 70
     0
  9
$USERR1
 40
0.0
  9
$USERR2
 40
0.0
  9
$USERR3
 40
0.0
  9
$USERR4
 40
0.0
  9
$USERR5
 40
0.0
  9
$WORLDVIEW
 70
     1
  9
$SHADEDGE
 70
     3
  9
$SHADEDIF
 70
    70
  9
$TILEMODE
 70
     1
  9
$MAXACTVP
 70
    64
  9
$PLIMCHECK
 70
     0
  9
$PEXTMIN
 10
1.0000000000000000E+020
 20
1.0000000000000000E+020
 30
1.0000000000000000E+020
  9
$PEXTMAX
 10
-1.0000000000000000E+020
 20
-1.0000000000000000E+020
 30
-1.0000000000000000E+020
  9
$PLIMMIN
 10
0.0
 20
0.0
  9
$PLIMMAX
 10
12.0
 20
9.0
  9
$UNITMODE
 70
     0
  9
$VISRETAIN
 70
     1
  9
$PLINEGEN
 70
     0
  9
$PSLTSCALE
 70
     1
  0
ENDSEC
  0
SECTION
  2
TABLES
  0
TABLE
  2
VPORT
 70
     1
  0
VPORT
  2
*ACTIVE
 70
     0
 10
0.0
 20
0.0
 11
1.0
 21
1.0
 12
0.0
 22
0.0
 13
0.0
 23
0.0
 14
1.0
 24
1.0
 15
0.0
 25
0.0
 16
-0.0000000000000568
 26
0.0
 36
238.83871360133659
 17
278.15847320836127
 27
3.8191841397752451
 37
0.0
 40
84.944159363746195
 41
2.0983240223463682
 42
50.0
 43
0.0
 44
0.0
 50
0.0
 51
0.0
 71
     0
 72
   100
 73
     1
 74
     1
 75
     0
 76
     0
 77
     0
 78
     0
  0
ENDTAB
  0
TABLE
  2
LTYPE
 70
     2
  0
LTYPE
  2
CONTINUOUS
 70
     0
  3
Solid line
 72
    65
 73
     0
 40
0.0
  0
LTYPE
  2
PHANTOM2
 70
     0
  3
___ _ _ ___ _ _ ___ _ _ ___ _ _
 72
    65
 73
     6
 40
1.25
 49
0.625
 49
-0.125
 49
0.125
 49
-0.125
 49
0.125
 49
-0.125
  0
ENDTAB
  0
TABLE
  2
LAYER
 70
     2
  0
LAYER
  2
0
 70
     0
 62
   255
  6
CONTINUOUS
  0
LAYER
  2
DEFPOINTS
 70
     0
 62
     7
  6
CONTINUOUS
  0
ENDTAB
  0
TABLE
  2
STYLE
 70
     1
  0
STYLE
  2
STANDARD
 70
     0
 40
0.0
 41
0.8
 50
0.0
 71
     0
 42
0.2
  3
txt
  4

  0
ENDTAB
  0
TABLE
  2
VIEW
 70
     0
  0
ENDTAB
  0
TABLE
  2
UCS
 70
     0
  0
ENDTAB
  0
TABLE
  2
APPID
 70
     9
  0
APPID
  2
ACAD
 70
     0
  0
APPID
  2
ACAD_MLEADERVER
 70
     0
  0
APPID
  2
ACAD_EXEMPT_FROM_CAD_STANDARDS
 70
     0
  0
APPID
  2
ACAD_DSTYLE_DIMJAG
 70
     0
  0
APPID
  2
ACAD_DSTYLE_DIMTALN
 70
     0
  0
APPID
  2
ACAD_NAV_VCDISPLAY
 70
     0
  0
APPID
  2
ACAECLAYERSTANDARD
 70
     0
  0
APPID
  2
ACCMTRANSPARENCY
 70
     0
  0
APPID
  2
AcDbAttr
 70
     0
  0
ENDTAB
  0
TABLE
  2
DIMSTYLE
 70
     1
  0
DIMSTYLE
  2
STANDARD
 70
     0
  3

  4

  5

  6

  7

 40
1.0
 41
0.1875
 42
0.0625
 43
0.38
 44
0.125
 45
0.0
 46
0.0
 47
0.01
 48
0.01
140
0.15625
141
0.09
142
0.0
143
25.399999999999999
144
1.0
145
0.0
146
1.0
147
0.09
 71
     1
 72
     0
 73
     1
 74
     1
 75
     0
 76
     0
 77
     0
 78
     4
170
     0
171
     2
172
     0
173
     0
174
     0
175
     0
176
     0
177
     0
178
     0
  0
ENDTAB
  0
ENDSEC
  0
SECTION
  2
BLOCKS
  0
BLOCK
  8
0
  2
$MODEL_SPACE
 70
     0
 10
0.0
 20
0.0
 30
0.0
  3
$MODEL_SPACE
  1

  0
ENDBLK
  5
21
  8
0
  0
BLOCK
 67
     1
  8
0
  2
$PAPER_SPACE
 70
     0
 10
0.0
 20
0.0
 30
0.0
  3
$PAPER_SPACE
  1

  0
ENDBLK
  5
1D
 67
     1
  8
0
  0
ENDSEC
  0
SECTION
  2
ENTITIES
  0
LINE
  5
1BB1
  8
0
 10
296.05496467328641
 20
42.28384238149998
 30
0.0
 11
260.26198174343631
 21
42.283842381499987
 31
0.0
  0
CIRCLE
  5
1BB2
  8
0
 10
261.28347320843642
 20
41.676762218399993
 30
0.0
 40
0.0939997297000004
  0
CIRCLE
  5
1BB3
  8
0
 10
262.03347320843631
 20
41.676762218399993
 30
0.0
 40
0.0939997297000004
  0
CIRCLE
  5
1BB4
  8
0
 10
262.78347320843642
 20
41.676762218399993
 30
0.0
 40
0.0939997297000004
  0
CIRCLE
  5
1BB5
  8
0
 10
263.53347320843642
 20
41.676762218399993
 30
0.0
 40
0.0939997297000004
  0
CIRCLE
  5
1BB6
  8
0
 10
264.28347320843631
 20
41.676762218399993
 30
0.0
 40
0.0939997297000004
  0
CIRCLE
  5
1BB7
  8
0
 10
265.03347320843642
 20
41.676762218399993
 30
0.0
 40
0.0939997297000004
  0
CIRCLE
  5
1BB8
  8
0
 10
265.78347320843642
 20
41.676762218399993
 30
0.0
 40
0.0939997297000004
  0
CIRCLE
  5
1BB9
  8
0
 10
266.53347320843642
 20
41.676762218399993
 30
0.0
 40
0.0939997297000004
  0
CIRCLE
  5
1BBA
  8
0
 10
267.28347320843642
 20
41.676762218399993
 30
0.0
 40
0.0939997297000004
  0
CIRCLE
  5
1BBB
  8
0
 10
268.03347320843642
 20
41.676762218399993
 30
0.0
 40
0.0939997297000004
  0
CIRCLE
  5
1BBC
  8
0
 10
268.78347320843642
 20
41.676762218399993
 30
0.0
 40
0.0939997297000004
  0
CIRCLE
  5
1BBD
  8
0
 10
269.53347320843642
 20
41.676762218399993
 30
0.0
 40
0.0939997297000004
  0
CIRCLE
  5
1BBE
  8
0
 10
270.28347320843631
 20
41.676762218399993
 30
0.0
 40
0.0939997297000004
  0
CIRCLE
  5
1BBF
  8
0
 10
271.03347320843642
 20
41.676762218399993
 30
0.0
 40
0.0939997297000004
  0
CIRCLE
  5
1BC0
  8
0
 10
271.78347320843642
 20
41.676762218399993
 30
0.0
 40
0.0939997297000004
  0
CIRCLE
  5
1BC1
  8
0
 10
272.53347320843631
 20
41.676762218399993
 30
0.0
 40
0.0939997297000004
  0
CIRCLE
  5
1BC2
  8
0
 10
273.28347320843642
 20
41.676762218399993
 30
0.0
 40
0.0939997297000004
  0
CIRCLE
  5
1BC3
  8
0
 10
274.03347320843642
 20
41.676762218399993
 30
0.0
 40
0.0939997297000004
  0
CIRCLE
  5
1BC4
  8
0
 10
274.78347320843631
 20
41.676762218399993
 30
0.0
 40
0.0939997297000004
  0
CIRCLE
  5
1BC5
  8
0
 10
275.53347320843642
 20
41.676762218399993
 30
0.0
 40
0.0939997297000004
  0
CIRCLE
  5
1BC6
  8
0
 10
276.28347320843642
 20
41.676762218399993
 30
0.0
 40
0.0939997297000004
  0
CIRCLE
  5
1BC7
  8
0
 10
277.03347320843642
 20
41.676762218399993
 30
0.0
 40
0.0939997297000004
  0
CIRCLE
  5
1BC8
  8
0
 10
277.78347320843642
 20
41.676762218399993
 30
0.0
 40
0.0939997297000004
  0
CIRCLE
  5
1BC9
  8
0
 10
278.53347320843631
 20
41.676762218399993
 30
0.0
 40
0.0939997297000004
  0
CIRCLE
  5
1BCA
  8
0
 10
279.28347320843642
 20
41.676762218399993
 30
0.0
 40
0.0939997297000004
  0
CIRCLE
  5
1BCB
  8
0
 10
280.03347320843642
 20
41.676762218399993
 30
0.0
 40
0.0939997297000004
  0
CIRCLE
  5
1BCC
  8
0
 10
280.78347320843642
 20
41.676762218399993
 30
0.0
 40
0.0939997297000004
  0
CIRCLE
  5
1BCD
  8
0
 10
281.53347320843642
 20
41.676762218399993
 30
0.0
 40
0.0939997297000004
  0
CIRCLE
  5
1BCE
  8
0
 10
282.28347320843642
 20
41.676762218399993
 30
0.0
 40
0.0939997297000004
  0
CIRCLE
  5
1BCF
  8
0
 10
283.03347320843631
 20
41.676762218399993
 30
0.0
 40
0.0939997297000004
  0
CIRCLE
  5
1BD0
  8
0
 10
283.78347320843642
 20
41.676762218399993
 30
0.0
 40
0.0939997297000004
  0
CIRCLE
  5
1BD1
  8
0
 10
284.53347320843642
 20
41.676762218399993
 30
0.0
 40
0.0939997297000004
  0
CIRCLE
  5
1BD2
  8
0
 10
285.28347320843642
 20
41.676762218399993
 30
0.0
 40
0.0939997297000004
  0
CIRCLE
  5
1BD3
  8
0
 10
286.03347320843642
 20
41.676762218399993
 30
0.0
 40
0.0939997297000004
  0
CIRCLE
  5
1BD4
  8
0
 10
286.78347320843642
 20
41.676762218399993
 30
0.0
 40
0.0939997297000004
  0
CIRCLE
  5
1BD5
  8
0
 10
287.53347320843642
 20
41.676762218399993
 30
0.0
 40
0.0939997297000004
  0
CIRCLE
  5
1BD6
  8
0
 10
288.28347320843642
 20
41.676762218399993
 30
0.0
 40
0.0939997297000004
  0
CIRCLE
  5
1BD7
  8
0
 10
289.03347320843631
 20
41.676762218399993
 30
0.0
 40
0.0939997297000004
  0
CIRCLE
  5
1BD8
  8
0
 10
289.78347320843642
 20
41.676762218399993
 30
0.0
 40
0.0939997297000004
  0
LINE
  5
1BD9
  8
0
 10
260.26198174343631
 20
42.283842381499987
 30
0.0
 11
260.18485127694322
 21
42.129534434137163
 31
0.0
  0
LINE
  5
1BDA
  8
0
 10
260.18485127694322
 20
42.129534434137163
 30
0.0
 11
260.17901758391588
 21
42.075685533308302
 31
0.0
  0
LINE
  5
1BDB
  8
0
 10
260.26847320843638
 20
42.070997362699977
 30
0.0
 11
260.15847320843642
 21
42.076762218399992
 31
0.0
  0
LINE
  5
1BDC
  8
0
 10
260.15847320843642
 20
42.076762218399992
 30
0.0
 11
260.15847320843642
 21
-30.173237781600012
 31
0.0
  0
LINE
  5
1BDD
  8
0
 10
260.15847320843642
 20
-30.173237781600012
 30
0.0
 11
296.1584732082863
 21
-30.173237781600012
 31
0.0
  0
LINE
  5
1BDE
  8
0
 10
260.19284557353433
 20
-30.173237781600012
 30
0.0
 11
260.19345767663629
 21
-34.538237781600003
 31
0.0
  0
LINE
  5
1BDF
  8
0
 10
260.19345767663629
 20
-34.538237781600003
 30
0.0
 11
260.2184805368363
 21
-34.638237781699978
 31
0.0
  0
LINE
  5
1BE0
  8
0
 10
260.2184805368363
 20
-34.638237781699978
 30
0.0
 11
296.09846587988642
 21
-34.638237781699956
 31
0.0
  0
LINE
  5
1BE1
  8
0
 10
260.18484764558889
 20
42.129500914299989
 30
0.0
 11
260.29483452344323
 21
42.129467394437171
 31
0.0
  0
LINE
  5
1BE2
  8
0
 10
260.29483452344323
 20
42.129467394437171
 30
0.0
 11
260.37007844233631
 21
42.28000109689998
 31
0.0
  0
LINE
  5
1BE3
  8
0
 10
260.37007844233631
 20
42.28000109689998
 30
0.0
 11
295.94686797438641
 21
42.28000109689998
 31
0.0
  0
LINE
  5
1BE4
  8
0
 10
260.37007844233631
 20
42.28000109689998
 30
0.0
 11
260.37007844233631
 21
41.01890457679999
 31
0.0
  0
LINE
  5
1BE5
  8
0
 10
260.37007844233631
 20
41.01890457679999
 30
0.0
 11
260.26847320843638
 21
40.821387714799982
 31
0.0
  0
LINE
  5
1BE6
  8
0
 10
260.26847320843638
 20
42.070997362699977
 30
0.0
 11
260.26847498823628
 21
-29.974197712300011
 31
0.0
  0
LINE
  5
1BE7
  8
0
 10
260.26847498823628
 20
-29.974197712300011
 30
0.0
 11
260.15847498363632
 21
-29.974197712300011
 31
0.0
  0
LINE
  5
1BE8
  8
0
 10
260.37007844233631
 20
41.01890457679999
 30
0.0
 11
262.01538829225819
 21
40.932624982151651
 31
0.0
  0
ARC
  5
1BE9
  8
0
 10
266.20226829016451
 20
120.77438744143581
 30
0.0
 40
79.951466507635871
 50
266.99817471108997
 51
269.99999749168171
  0
LINE
  5
1BEA
  8
0
 10
266.20226479001968
 20
40.822920933799992
 30
0.0
 11
290.11468162670661
 21
40.822920933799971
 31
0.0
  0
LINE
  5
1BEB
  8
0
 10
260.26847323930662
 20
40.821387713721968
 30
0.0
 11
261.6769078851363
 21
40.747184428999986
 31
0.0
  0
ARC
  5
1BEC
  8
0
 10
261.65059719577528
 20
40.247787581668497
 30
0.0
 40
0.5000894554969998
 50
0.0094039963365289
 51
86.984163996234429
  0
LINE
  5
1BED
  8
0
 10
262.15068664453639
 20
40.247869661699973
 30
0.0
 11
262.15068664453639
 21
-29.673237781600012
 31
0.0
  0
ARC
  5
1BEE
  8
0
 10
261.65070738226723
 20
-29.673258519958679
 30
0.0
 40
0.4999792626992268
 50
270.00372720713409
 51
0.002376539418919
  0
CIRCLE
  5
1BEF
  8
0
 10
295.03347320843642
 20
41.676762218399993
 30
0.0
 40
0.0939997297000004
  0
CIRCLE
  5
1BF0
  8
0
 10
294.28347320843642
 20
41.676762218399993
 30
0.0
 40
0.0939997297000004
  0
CIRCLE
  5
1BF1
  8
0
 10
293.53347320843631
 20
41.676762218399993
 30
0.0
 40
0.0939997297000004
  0
CIRCLE
  5
1BF2
  8
0
 10
292.78347320843631
 20
41.676762218399993
 30
0.0
 40
0.0939997297000004
  0
CIRCLE
  5
1BF3
  8
0
 10
292.03347320843642
 20
41.676762218399993
 30
0.0
 40
0.0939997297000004
  0
CIRCLE
  5
1BF4
  8
0
 10
291.28347320843631
 20
41.676762218399993
 30
0.0
 40
0.0939997297000004
  0
CIRCLE
  5
1BF5
  8
0
 10
290.53347320843642
 20
41.676762218399993
 30
0.0
 40
0.0939997297000004
  0
ARC
  5
1BF6
  8
0
 10
228.09419610327231
 20
43.620229250178127
 30
0.0
 40
32.23512813030235
 50
356.47892574358087
 51
357.34932530469848
  0
LINE
  5
1BF7
  8
0
 10
268.46849703273642
 20
-20.844241642521599
 30
0.0
 11
268.46849703273642
 21
-18.89124447224712
 31
0.0
  0
LINE
  5
1BF8
  8
0
 10
268.46849703233642
 20
7.3949456650176151
 30
0.0
 11
268.46849703233642
 21
9.292003064202575
 31
0.0
  0
LINE
  5
1BF9
  8
0
 10
268.46849703263632
 20
19.819945682000711
 30
0.0
 11
268.46849703263632
 21
21.7170030814993
 31
0.0
  0
LINE
  5
1BFA
  8
0
 10
262.15068664453639
 20
21.463318633380968
 30
0.0
 11
265.96511707548478
 21
21.480277490331179
 31
0.0
  0
ARC
  5
1BFB
  8
0
 10
267.61130102765071
 20
24.375885819669438
 30
0.0
 40
2.7936432138522238
 50
271.71366169780362
 51
288.04428436540422
  0
LINE
  5
1BFC
  8
0
 10
262.15068664453639
 20
19.949908913270502
 30
0.0
 11
267.66763676473641
 21
19.949953268967182
 31
0.0
  0
ARC
  5
1BFD
  8
0
 10
267.66763670739078
 20
17.20611571524476
 30
0.0
 40
2.7438375537224191
 50
74.235467680141568
 51
89.999998802530214
  0
ARC
  5
1BFE
  8
0
 10
268.36519520178229
 20
19.67707244111109
 30
0.0
 40
0.1763066397504231
 50
50.792433068907009
 51
74.235467680141568
  0
ARC
  5
1BFF
  8
0
 10
268.4382029187974
 20
19.750410596823649
 30
0.0
 40
0.0740368588123277
 50
9.3613684184034316
 51
58.72017172322888
  0
ARC
  5
1C00
  8
0
 10
265.93186001980359
 20
21.296561585638401
 30
0.0
 40
0.1867018087477259
 50
359.45010401347292
 51
79.739186383083776
  0
LINE
  5
1C01
  8
0
 10
266.11855322988629
 20
21.294769743376168
 30
0.0
 11
266.11855307598643
 21
20.135341148223819
 31
0.0
  0
ARC
  5
1C02
  8
0
 10
265.93207911498308
 20
20.136135647817738
 30
0.0
 40
0.1864756535365169
 50
273.13686880727738
 51
359.75588442557012
  0
LINE
  5
1C03
  8
0
 10
268.51125375913642
 20
19.762450858900049
 30
0.0
 11
268.51125375913642
 21
9.3458778134671832
 31
0.0
  0
LINE
  5
1C04
  8
0
 10
262.15068664453639
 20
9.0393384330771962
 30
0.0
 11
265.95699416983638
 21
9.0592130811127198
 31
0.0
  0
ARC
  5
1C05
  8
0
 10
267.61130102765071
 20
11.95088580246944
 30
0.0
 40
2.7936432138522238
 50
271.71366169780362
 51
288.04428436540422
  0
LINE
  5
1C06
  8
0
 10
262.15068664453639
 20
7.5249088960704951
 30
0.0
 11
267.66763676473641
 21
7.5249532517671858
 31
0.0
  0
ARC
  5
1C07
  8
0
 10
267.66763670739078
 20
4.7811156980447569
 30
0.0
 40
2.7438375537224191
 50
74.235467680141568
 51
89.999998802530214
  0
ARC
  5
1C08
  8
0
 10
268.36519520178229
 20
7.2520724239110868
 30
0.0
 40
0.1763066397504231
 50
50.792433068907009
 51
74.235467680141568
  0
ARC
  5
1C09
  8
0
 10
268.4382029187974
 20
7.3254105796236502
 30
0.0
 40
0.0740368588123277
 50
9.3613684184034316
 51
58.72017172322888
  0
ARC
  5
1C0A
  8
0
 10
265.93362563847887
 20
8.8757265570363444
 30
0.0
 40
0.1849686264625241
 50
358.79196096390638
 51
82.741980766330997
  0
LINE
  5
1C0B
  8
0
 10
266.11855315293627
 20
8.8718269196127153
 30
0.0
 11
266.11855315293627
 21
7.707831810808031
 31
0.0
  0
ARC
  5
1C0C
  8
0
 10
265.95160367909898
 20
7.692504633731521
 30
0.0
 40
0.1676515707403749
 50
271.83991652736341
 51
5.2454653771449067
  0
LINE
  5
1C0D
  8
0
 10
268.51125375913642
 20
7.337450841700047
 30
0.0
 11
268.5089401210364
 21
-18.867483595132821
 31
0.0
  0
LINE
  5
1C0E
  8
0
 10
262.15068664453639
 20
-19.198609888318821
 30
0.0
 11
265.95699416983638
 21
-19.175148940689631
 31
0.0
  0
ARC
  5
1C0F
  8
0
 10
267.74599455931212
 20
-17.61518288074717
 30
0.0
 40
1.4664047904332329
 50
268.00101587999291
 51
301.35124006701722
  0
LINE
  5
1C10
  8
0
 10
262.15068664453639
 20
-20.71427841117951
 30
0.0
 11
267.66763676473641
 21
-20.71423405548283
 31
0.0
  0
ARC
  5
1C11
  8
0
 10
267.66763670739078
 20
-23.458071609205248
 30
0.0
 40
2.7438375537224191
 50
74.235467680141568
 51
89.999998802530214
  0
ARC
  5
1C12
  8
0
 10
268.36519520178229
 20
-20.987114883338919
 30
0.0
 40
0.1763066397504231
 50
50.792433068907009
 51
74.235467680141568
  0
ARC
  5
1C13
  8
0
 10
268.4382045704819
 20
-20.913774994370051
 30
0.0
 40
0.074034519916231
 50
9.3582464933558693
 51
58.720567700230148
  0
ARC
  5
1C14
  8
0
 10
265.93362563847887
 20
-19.35863546476601
 30
0.0
 40
0.1849686264625241
 50
358.79196096390638
 51
82.741980766330997
  0
LINE
  5
1C15
  8
0
 10
266.11855315293627
 20
-19.362535102189639
 30
0.0
 11
266.11855315293627
 21
-20.52653021099432
 31
0.0
  0
ARC
  5
1C16
  8
0
 10
265.94335860550831
 20
-20.53913021810817
 30
0.0
 40
0.1756470598324984
 50
274.4498627477081
 51
4.1136346205491217
  0
LINE
  5
1C17
  8
0
 10
268.51125375913642
 20
-20.901736465549959
 30
0.0
 11
268.51125564933631
 21
-28.041630480032818
 31
0.0
  0
ARC
  5
1C18
  8
0
 10
268.44267449052722
 20
9.3548990265448424
 30
0.0
 40
0.0691700684426671
 50
299.40638361110439
 51
352.5060927524429
  0
ARC
  5
1C19
  8
0
 10
268.44300530207539
 20
21.779675056958311
 30
0.0
 40
0.068812670748094
 50
299.2585062864743
 51
352.64674908827601
  0
LINE
  5
1C1A
  8
0
 10
268.51125205190681
 20
21.77086796930379
 30
0.0
 11
268.5112551929364
 21
25.324923376367181
 31
0.0
  0
ARC
  5
1C1B
  8
0
 10
268.7238149124031
 20
-28.016637091215699
 30
0.0
 40
0.2140236197245936
 50
186.7062253578153
 51
257.40647158497609
  0
ARC
  5
1C1C
  8
0
 10
269.1138397791496
 20
-26.912587362110859
 30
0.0
 40
1.3836428046602831
 50
251.60246296432439
 51
271.65846071014931
  0
LINE
  5
1C1D
  8
0
 10
265.96511707548478
 20
21.480277490331179
 30
0.0
 11
267.69484375435121
 21
21.58349204028983
 31
0.0
  0
LINE
  5
1C1E
  8
0
 10
265.95699416983638
 20
9.0592130811127198
 30
0.0
 11
267.69484375435121
 21
9.1584920230898206
 31
0.0
  0
LINE
  5
1C1F
  8
0
 10
265.95699416983638
 20
-19.175148940689631
 30
0.0
 11
267.69484375435133
 21
-19.080695284160178
 31
0.0
  0
ARC
  5
1C20
  8
0
 10
271.8995632663532
 20
-39.254464598908442
 30
0.0
 40
11.7135937049633
 50
91.516751781798291
 51
106.8138296833484
  0
ARC
  5
1C21
  8
0
 10
277.19247361606961
 20
-155.50650212642671
 30
0.0
 40
128.0841347937035
 50
89.567876032776482
 51
92.507167937278851
  0
LINE
  5
1C22
  8
0
 10
287.1630618589864
 20
-28.29565056623284
 30
0.0
 11
269.15388455773632
 21
-28.295650566232819
 31
0.0
  0
ARC
  5
1C23
  8
0
 10
275.39391263782971
 20
25.111551318132381
 30
0.0
 40
6.8859640675058298
 50
126.05348193203319
 51
178.22431898937299
  0
ARC
  5
1C24
  8
0
 10
278.01253197068462
 20
21.77155543190219
 30
0.0
 40
11.1284356723703
 50
89.248586510465117
 51
126.8327359947005
  0
LINE
  5
1C25
  8
0
 10
296.05496467328641
 20
42.28384238149998
 30
0.0
 11
296.13209513977949
 21
42.129534434137142
 31
0.0
  0
LINE
  5
1C26
  8
0
 10
296.13209513977949
 20
42.129534434137142
 30
0.0
 11
296.13792883280678
 21
42.075685533308288
 31
0.0
  0
LINE
  5
1C27
  8
0
 10
296.04847320828628
 20
42.07099736269997
 30
0.0
 11
296.1584732082863
 21
42.076762218399978
 31
0.0
  0
LINE
  5
1C28
  8
0
 10
296.1584732082863
 20
42.076762218399978
 30
0.0
 11
296.1584732082863
 21
-30.173237781600019
 31
0.0
  0
LINE
  5
1C29
  8
0
 10
296.12410084318839
 20
-30.173237781600019
 30
0.0
 11
296.12348874008637
 21
-34.538237781600017
 31
0.0
  0
LINE
  5
1C2A
  8
0
 10
296.12348874008637
 20
-34.538237781600017
 30
0.0
 11
296.09846587988642
 21
-34.638237781699978
 31
0.0
  0
LINE
  5
1C2B
  8
0
 10
296.13209877113383
 20
42.129500914299967
 30
0.0
 11
296.02211189327949
 21
42.12946739443715
 31
0.0
  0
LINE
  5
1C2C
  8
0
 10
296.02211189327949
 20
42.12946739443715
 30
0.0
 11
295.94686797438641
 21
42.280001096899959
 31
0.0
  0
LINE
  5
1C2D
  8
0
 10
295.94686797438641
 20
42.280001096899959
 30
0.0
 11
295.94686797438641
 21
41.018904576799983
 31
0.0
  0
LINE
  5
1C2E
  8
0
 10
295.94686797438641
 20
41.018904576799983
 30
0.0
 11
296.04847320828628
 21
40.821387714799961
 31
0.0
  0
LINE
  5
1C2F
  8
0
 10
296.04847320828628
 20
42.07099736269997
 30
0.0
 11
296.04847142848638
 21
-29.974197712300029
 31
0.0
  0
LINE
  5
1C30
  8
0
 10
296.04847142848638
 20
-29.974197712300029
 30
0.0
 11
296.15847143308639
 21
-29.974197712300029
 31
0.0
  0
LINE
  5
1C31
  8
0
 10
295.94686797438641
 20
41.018904576799983
 30
0.0
 11
294.30155812446452
 21
40.93262498215163
 31
0.0
  0
ARC
  5
1C32
  8
0
 10
290.1146781265582
 20
120.77438744143571
 30
0.0
 40
79.951466507635871
 50
270.0000025083184
 51
273.00182528891003
  0
LINE
  5
1C33
  8
0
 10
296.0484731774161
 20
40.821387713721947
 30
0.0
 11
294.64003853158641
 21
40.747184428999972
 31
0.0
  0
ARC
  5
1C34
  8
0
 10
294.66634922094738
 20
40.247787581668483
 30
0.0
 40
0.5000894554969998
 50
93.015836003765585
 51
179.99059600366351
  0
LINE
  5
1C35
  8
0
 10
294.16625977218638
 20
40.247869661699973
 30
0.0
 11
294.16625977218638
 21
-29.673237781600019
 31
0.0
  0
ARC
  5
1C36
  8
0
 10
294.66623903445549
 20
-29.673258519958701
 30
0.0
 40
0.4999792626992268
 50
179.99762346058111
 51
269.99627279286591
  0
ARC
  5
1C37
  8
0
 10
328.22275031345038
 20
43.620229250178113
 30
0.0
 40
32.23512813030235
 50
182.65067469530149
 51
183.52107425641901
  0
LINE
  5
1C38
  8
0
 10
287.84844938398629
 20
-20.84424164252162
 30
0.0
 11
287.84844938398629
 21
-18.891244472247141
 31
0.0
  0
LINE
  5
1C39
  8
0
 10
287.8484493843863
 20
7.3949456650176009
 30
0.0
 11
287.8484493843863
 21
9.2920030642025608
 31
0.0
  0
LINE
  5
1C3A
  8
0
 10
287.84844938408639
 20
19.819945682000689
 30
0.0
 11
287.84844938408639
 21
21.717003081499289
 31
0.0
  0
LINE
  5
1C3B
  8
0
 10
294.16625977218638
 20
21.463318633380961
 30
0.0
 11
290.35182934123787
 21
21.480277490331169
 31
0.0
  0
ARC
  5
1C3C
  8
0
 10
288.70564538907212
 20
24.375885819669421
 30
0.0
 40
2.7936432138522238
 50
251.95571563459589
 51
268.28633830219638
  0
LINE
  5
1C3D
  8
0
 10
294.16625977218638
 20
19.949908913270491
 30
0.0
 11
288.6493096519863
 21
19.94995326896716
 31
0.0
  0
ARC
  5
1C3E
  8
0
 10
288.64930970933187
 20
17.206115715244749
 30
0.0
 40
2.7438375537224191
 50
90.000001197469786
 51
105.7645323198584
  0
ARC
  5
1C3F
  8
0
 10
287.95175121494037
 20
19.677072441111079
 30
0.0
 40
0.1763066397504231
 50
105.7645323198584
 51
129.20756693109291
  0
ARC
  5
1C40
  8
0
 10
287.87874349792543
 20
19.750410596823642
 30
0.0
 40
0.0740368588123277
 50
121.2798282767711
 51
170.6386315815966
  0
ARC
  5
1C41
  8
0
 10
290.38508639691912
 20
21.296561585638379
 30
0.0
 40
0.1867018087477259
 50
100.2608136169162
 51
180.5498959865271
  0
LINE
  5
1C42
  8
0
 10
290.19839318683643
 20
21.294769743376161
 30
0.0
 11
290.19839334073629
 21
20.135341148223809
 31
0.0
  0
ARC
  5
1C43
  8
0
 10
290.38486730173958
 20
20.136135647817721
 30
0.0
 40
0.1864756535365169
 50
180.24411557442991
 51
266.86313119271932
  0
LINE
  5
1C44
  8
0
 10
287.80569265758629
 20
19.762450858900038
 30
0.0
 11
287.80569265758629
 21
9.3458778134671672
 31
0.0
  0
LINE
  5
1C45
  8
0
 10
294.16625977218638
 20
9.0393384330771838
 30
0.0
 11
290.35995224688639
 21
9.0592130811127056
 31
0.0
  0
ARC
  5
1C46
  8
0
 10
288.70564538907212
 20
11.950885802469431
 30
0.0
 40
2.7936432138522238
 50
251.95571563459589
 51
268.28633830219638
  0
LINE
  5
1C47
  8
0
 10
294.16625977218638
 20
7.52490889607048
 30
0.0
 11
288.6493096519863
 21
7.5249532517671716
 31
0.0
  0
ARC
  5
1C48
  8
0
 10
288.64930970933187
 20
4.7811156980447427
 30
0.0
 40
2.7438375537224191
 50
90.000001197469786
 51
105.7645323198584
  0
ARC
  5
1C49
  8
0
 10
287.95175121494037
 20
7.2520724239110734
 30
0.0
 40
0.1763066397504231
 50
105.7645323198584
 51
129.20756693109291
  0
ARC
  5
1C4A
  8
0
 10
287.87874349792543
 20
7.3254105796236351
 30
0.0
 40
0.0740368588123277
 50
121.2798282767711
 51
170.6386315815966
  0
ARC
  5
1C4B
  8
0
 10
290.38332077824379
 20
8.8757265570363302
 30
0.0
 40
0.1849686264625241
 50
97.258019233669003
 51
181.2080390360936
  0
LINE
  5
1C4C
  8
0
 10
290.19839326378639
 20
8.8718269196127011
 30
0.0
 11
290.19839326378639
 21
7.7078318108080159
 31
0.0
  0
ARC
  5
1C4D
  8
0
 10
290.36534273762368
 20
7.6925046337315059
 30
0.0
 40
0.1676515707403749
 50
174.754534622855
 51
268.16008347263988
  0
LINE
  5
1C4E
  8
0
 10
287.80569265758629
 20
7.3374508417000319
 30
0.0
 11
287.80800629568643
 21
-18.867483595132839
 31
0.0
  0
LINE
  5
1C4F
  8
0
 10
294.16625977218638
 20
-19.198609888318838
 30
0.0
 11
290.35995224688639
 21
-19.175148940689649
 31
0.0
  0
ARC
  5
1C50
  8
0
 10
288.57095185741059
 20
-17.615182880747181
 30
0.0
 40
1.4664047904332329
 50
238.64875993298281
 51
271.99898412000709
  0
LINE
  5
1C51
  8
0
 10
294.16625977218638
 20
-20.714278411179521
 30
0.0
 11
288.6493096519863
 21
-20.714234055482841
 31
0.0
  0
ARC
  5
1C52
  8
0
 10
288.64930970933187
 20
-23.458071609205259
 30
0.0
 40
2.7438375537224191
 50
90.000001197469786
 51
105.7645323198584
  0
ARC
  5
1C53
  8
0
 10
287.95175121494037
 20
-20.987114883338929
 30
0.0
 40
0.1763066397504231
 50
105.7645323198584
 51
129.20756693109291
  0
ARC
  5
1C54
  8
0
 10
287.87874184624081
 20
-20.913774994370058
 30
0.0
 40
0.074034519916231
 50
121.27943229976979
 51
170.64175350664399
  0
ARC
  5
1C55
  8
0
 10
290.38332077824379
 20
-19.358635464766021
 30
0.0
 40
0.1849686264625241
 50
97.258019233669003
 51
181.2080390360936
  0
LINE
  5
1C56
  8
0
 10
290.19839326378639
 20
-19.36253510218965
 30
0.0
 11
290.19839326378639
 21
-20.526530210994331
 31
0.0
  0
ARC
  5
1C57
  8
0
 10
290.37358781121441
 20
-20.539130218108191
 30
0.0
 40
0.1756470598324984
 50
175.88636537945081
 51
265.55013725229202
  0
LINE
  5
1C58
  8
0
 10
287.80569265758629
 20
-20.90173646554998
 30
0.0
 11
287.80569076738641
 21
-28.04163048003284
 31
0.0
  0
ARC
  5
1C59
  8
0
 10
287.8742719261956
 20
9.3548990265448282
 30
0.0
 40
0.0691700684426671
 50
187.49390724755719
 51
240.59361638889561
  0
ARC
  5
1C5A
  8
0
 10
287.87394111464732
 20
21.7796750569583
 30
0.0
 40
0.068812670748094
 50
187.3532509117239
 51
240.7414937135257
  0
LINE
  5
1C5B
  8
0
 10
287.80569436481591
 20
21.770867969303779
 30
0.0
 11
287.80569122378643
 21
25.32492337636717
 31
0.0
  0
ARC
  5
1C5C
  8
0
 10
287.59313150431967
 20
-28.016637091215721
 30
0.0
 40
0.2140236197245936
 50
282.59352841502391
 51
353.29377464218459
  0
ARC
  5
1C5D
  8
0
 10
287.20310663757311
 20
-26.91258736211087
 30
0.0
 40
1.3836428046602831
 50
268.34153928985069
 51
288.3975370356755
  0
LINE
  5
1C5E
  8
0
 10
290.35182934123787
 20
21.480277490331169
 30
0.0
 11
288.6221026623715
 21
21.583492040289809
 31
0.0
  0
LINE
  5
1C5F
  8
0
 10
290.35995224688639
 20
9.0592130811127056
 30
0.0
 11
288.6221026623715
 21
9.1584920230898064
 31
0.0
  0
LINE
  5
1C60
  8
0
 10
290.35995224688639
 20
-19.175148940689649
 30
0.0
 11
288.6221026623715
 21
-19.0806952841602
 31
0.0
  0
ARC
  5
1C61
  8
0
 10
284.41738315036952
 20
-39.254464598908463
 30
0.0
 40
11.7135937049633
 50
73.186170316651584
 51
88.483248218201695
  0
ARC
  5
1C62
  8
0
 10
279.12447280191049
 20
-155.5065020857844
 30
0.0
 40
128.08413475304511
 50
87.492832062486414
 51
90.432123966334373
  0
ARC
  5
1C63
  8
0
 10
280.923033778893
 20
25.111551318132371
 30
0.0
 40
6.8859640675058298
 50
1.7756810106270151
 51
53.946518067966707
  0
ARC
  5
1C64
  8
0
 10
278.30441444603821
 20
21.771555431902179
 30
0.0
 40
11.1284356723703
 50
53.167264005299273
 51
90.751413489534897
  0
ATTDEF
  5
1D77
  8
DEFPOINTS
 10
278.15145035673692
 20
-34.640474101949479
 30
0.0
 40
0.001
  1
72200100
  3

  2
MODELNUMBER
 70
     0
1001
AcDbAttr
1070
     0
1070
     1
  0
ATTDEF
  5
1D78
  8
DEFPOINTS
 10
278.15145035673692
 20
-34.642140768616137
 30
0.0
 40
0.001
  1
ENSEMBLE
  3

  2
TRADENAME
 70
     0
1001
AcDbAttr
1070
     0
1070
     1
  0
ATTDEF
  5
1D79
  8
DEFPOINTS
 10
278.15145035673692
 20
-34.643807435282838
 30
0.0
 40
0.001
  1
SHOWER STALL
  3

  2
PRODUCT
 70
     0
1001
AcDbAttr
1070
     0
1070
     1
  0
ATTDEF
  5
1D7A
  8
DEFPOINTS
 10
278.15145035673692
 20
-34.645474101949503
 30
0.0
 40
0.001
  1
VIKRELL
  3

  2
MATERIAL
 70
     0
1001
AcDbAttr
1070
     0
1070
     1
  0
ENDSEC
  0
EOF
